  0
SECTION
  2
HEADER
  9
$ACADVER
  1
AC1021
  9
$DWGCODEPAGE
  3
ANSI_1252
  9
$EXTMAX
 10
841.0
 20
594.0
 30
0.0
  9
$EXTMIN
 10
0.0
 20
0.0
 30
0.0
  9
$LIMMIN
 10
0.0
 20
0.0
  9
$LIMMAX
 10
841.0
 20
594.0
  9
$VIEWCTR
 10
420.5
 20
297.0
  9
$VIEWSIZE
 40
594.0
  9
$CLAYER
  8
0
  9
$LTSCALE
 40
46.255
  9
$CELTYPE
  6
BYLAYER
  9
$DIMSCALE
 40
1.0
  9
$DIMASZ
 40
3.5
  9
$DIMEXO
 40
5.25625
  9
$DIMDLI
 40
31.958
  9
$DIMEXE
 40
15.138
  9
$DIMCEN
 40
7.569
  9
$DIMLFAC
 40
1.0
  9
$DIMBLK
  1
_FILLED
  9
$DIMTXT
 40
3.5
  9
$DIMTOL
 70
1
  9
$DIMLIM
 70
0
  9
$DIMTFAC
 40
1.0
  9
$DIMTP
 40
0.01
  9
$DIMTM
 40
0.01
  9
$PDMODE
 70
3
  9
$PDSIZE
 40
2.5
  9
$HANDSEED
  5
258
  9
$TILEMODE
 70
1
  9
$MEASUREMENT
 70
1
  9
$INSUNITS
 70
4
  0
ENDSEC
  0
SECTION
  2
CLASSES
  0
CLASS
  1
ACDBDICTIONARYWDFLT
  2
AcDbDictionaryWithDefault
  3
AutoCAD 2000
 90
0
 91
1
280
0
281
0
  0
CLASS
  1
ACDBPLACEHOLDER
  2
AcDbPlaceHolder
  3
AutoCAD 2000
 90
0
 91
1
280
0
281
0
  0
CLASS
  1
LAYOUT
  2
AcDbLayout
  3
AutoCAD 2000
 90
0
 91
0
280
0
281
0
  0
ENDSEC
  0
SECTION
  2
TABLES
  0
TABLE
  2
VPORT
  5
8
100
AcDbSymbolTable
 70
2
  0
VPORT
  5
1F4
100
AcDbSymbolTableRecord
100
AcDbViewportTableRecord
  2
*ACTIVE
 70
0
 10
0.0
 20
0.0
 11
1.0
 21
1.0
 12
420.5
 22
297.0
 13
0.0
 23
0.0
 14
1.0
 24
1.0
 15
0.0
 25
0.0
 16
0.0
 26
0.0
 36
1.0
 17
0.0
 27
0.0
 37
0.0
 40
594.0
 41
1.4158249158
 42
50.0
 43
0.0
 44
0.0
 50
0.0
 51
0.0
 71
0
 72
100
 73
1
 74
1
 75
0
 76
0
 77
0
 78
0
  0
ENDTAB
  0
TABLE
  2
LTYPE
  5
5
100
AcDbSymbolTable
 70
6
  0
LTYPE
  5
14
100
AcDbSymbolTableRecord
100
AcDbLinetypeTableRecord
  2
BYBLOCK
 70
0
  3

 72
65
 73
0
 40
0.0
  0
LTYPE
  5
15
100
AcDbSymbolTableRecord
100
AcDbLinetypeTableRecord
  2
BYLAYER
 70
0
  3

 72
65
 73
0
 40
0.0
  0
LTYPE
  5
16
100
AcDbSymbolTableRecord
100
AcDbLinetypeTableRecord
  2
CONTINUOUS
 70
64
  3
Solid line
 72
65
 73
0
 40
0.0
  0
LTYPE
  5
1F5
100
AcDbSymbolTableRecord
100
AcDbLinetypeTableRecord
  2
CENTER
 70
64
  3
____ _ ____ _ ____ _ ____ _ ____ _ ____ _ ____
 72
65
 73
4
 40
0.6
 49
0.375
 74
0
 49
-0.075
 74
0
 49
0.075
 74
0
 49
-0.075
 74
0
  0
LTYPE
  5
1F6
100
AcDbSymbolTableRecord
100
AcDbLinetypeTableRecord
  2
HIDDEN
 70
64
  3
- - - - - - - - - - - - - - - - - - - -
 72
65
 73
2
 40
0.2
 49
0.1
 74
0
 49
-0.1
 74
0
  0
LTYPE
  5
1F7
100
AcDbSymbolTableRecord
100
AcDbLinetypeTableRecord
  2
PHANTOM
 70
64
  3
_____ _ _ _____ _ _ _____ _ _ _____
 72
65
 73
6
 40
0.8
 49
0.45
 74
0
 49
-0.05
 74
0
 49
0.1
 74
0
 49
-0.05
 74
0
 49
0.1
 74
0
 49
-0.05
 74
0
  0
LTYPE
  5
1F8
100
AcDbSymbolTableRecord
100
AcDbLinetypeTableRecord
  2
DOT
 70
64
  3
. . . . . . . . . . . . . . . . . . . .
 72
65
 73
2
 40
0.2
 49
0.1
 74
0
 49
-0.1
 74
0
  0
LTYPE
  5
1F9
100
AcDbSymbolTableRecord
100
AcDbLinetypeTableRecord
  2
DASHED
 70
64
  3
- - - - - - - - - - - - - - - - - - - -
 72
65
 73
2
 40
0.2
 49
0.1
 74
0
 49
-0.1
 74
0
  0
ENDTAB
  0
TABLE
  2
LAYER
  5
2
100
AcDbSymbolTable
 70
36
  0
LAYER
  5
10
100
AcDbSymbolTableRecord
100
AcDbLayerTableRecord
  2
0
 70
0
 62
7
  6
CONTINUOUS
370
-3
390
F
  0
LAYER
  5
1FA
100
AcDbSymbolTableRecord
100
AcDbLayerTableRecord
  2
DEFAULT_1
 70
0
 62
7
  6
CENTER
370
-3
390
F
  0
LAYER
  5
1FB
100
AcDbSymbolTableRecord
100
AcDbLayerTableRecord
  2
DEFAULT_2
 70
0
 62
8
  6
HIDDEN
370
-3
390
F
  0
LAYER
  5
1FC
100
AcDbSymbolTableRecord
100
AcDbLayerTableRecord
  2
DEFAULT_3
 70
0
 62
7
  6
PHANTOM
370
-3
390
F
  0
LAYER
  5
1FD
100
AcDbSymbolTableRecord
100
AcDbLayerTableRecord
  2
00_AXS
 70
0
 62
7
  6
CONTINUOUS
370
-3
390
F
  0
LAYER
  5
1FE
100
AcDbSymbolTableRecord
100
AcDbLayerTableRecord
  2
2D-ELEMENTE
 70
0
 62
7
  6
CONTINUOUS
370
-3
390
F
  0
LAYER
  5
1FF
100
AcDbSymbolTableRecord
100
AcDbLayerTableRecord
  2
ACHSEN
 70
0
 62
7
  6
CONTINUOUS
370
-3
390
F
  0
LAYER
  5
200
100
AcDbSymbolTableRecord
100
AcDbLayerTableRecord
  2
AUSBLENDEN
 70
0
 62
7
  6
CONTINUOUS
370
-3
390
F
  0
LAYER
  5
201
100
AcDbSymbolTableRecord
100
AcDbLayerTableRecord
  2
BAUGRUPPE
 70
0
 62
7
  6
CONTINUOUS
370
-3
390
F
  0
LAYER
  5
202
100
AcDbSymbolTableRecord
100
AcDbLayerTableRecord
  2
EBENEN
 70
0
 62
7
  6
CONTINUOUS
370
-3
390
F
  0
LAYER
  5
203
100
AcDbSymbolTableRecord
100
AcDbLayerTableRecord
  2
KOORDINATEN
 70
0
 62
7
  6
CONTINUOUS
370
-3
390
F
  0
LAYER
  5
204
100
AcDbSymbolTableRecord
100
AcDbLayerTableRecord
  2
STD_ACHSEN
 70
0
 62
7
  6
CONTINUOUS
370
-3
390
F
  0
LAYER
  5
205
100
AcDbSymbolTableRecord
100
AcDbLayerTableRecord
  2
STD_CSYS
 70
0
 62
7
  6
CONTINUOUS
370
-3
390
F
  0
LAYER
  5
206
100
AcDbSymbolTableRecord
100
AcDbLayerTableRecord
  2
STD_EBENEN
 70
0
 62
7
  6
CONTINUOUS
370
-3
390
F
  0
LAYER
  5
207
100
AcDbSymbolTableRecord
100
AcDbLayerTableRecord
  2
TEIL_UMBENNEN
 70
0
 62
7
  6
CONTINUOUS
370
-3
390
F
  0
LAYER
  5
208
100
AcDbSymbolTableRecord
100
AcDbLayerTableRecord
  2
AT110_027_00_new_view_1_BL0
 70
0
 62
7
  6
CONTINUOUS
370
-3
390
F
  0
LAYER
  5
209
100
AcDbSymbolTableRecord
100
AcDbLayerTableRecord
  2
AT110_027_00_rechts_2_BL1
 70
0
 62
7
  6
CONTINUOUS
370
-3
390
F
  0
LAYER
  5
20A
100
AcDbSymbolTableRecord
100
AcDbLayerTableRecord
  2
AT110_027_00_links_3_BL2
 70
0
 62
7
  6
CONTINUOUS
370
-3
390
F
  0
LAYER
  5
20B
100
AcDbSymbolTableRecord
100
AcDbLayerTableRecord
  2
AT110_027_00_oben_4_BL3
 70
0
 62
7
  6
CONTINUOUS
370
-3
390
F
  0
LAYER
  5
20C
100
AcDbSymbolTableRecord
100
AcDbLayerTableRecord
  2
AT110_027_00_new_view_5_BL4
 70
0
 62
7
  6
CONTINUOUS
370
-3
390
F
  0
ENDTAB
  0
TABLE
  2
STYLE
  5
3
100
AcDbSymbolTable
 70
1
  0
STYLE
  5
11
100
AcDbSymbolTableRecord
100
AcDbTextStyleTableRecord
  2
STANDARD
 70
0
 40
0.0
 41
0.8
 50
0.0
 71
0
 42
0.2
  3
txt
  4

  0
STYLE
  5
20D
100
AcDbSymbolTableRecord
100
AcDbTextStyleTableRecord
  2
TEXTSTYLE_1
 70
0
 40
0.0
 41
0.8
 50
0.0
 71
0
 42
0.2
  3
gdt
  4

  0
ENDTAB
  0
TABLE
  2
VIEW
  5
6
100
AcDbSymbolTable
 70
0
  0
ENDTAB
  0
TABLE
  2
UCS
  5
7
100
AcDbSymbolTable
 70
0
  0
ENDTAB
  0
TABLE
  2
APPID
  5
9
100
AcDbSymbolTable
 70
1
  0
APPID
  5
20E
100
AcDbSymbolTableRecord
100
AcDbRegAppTableRecord
  2
ACAD
 70
0
  0
ENDTAB
  0
TABLE
  2
BLOCK_RECORD
  5
1
100
AcDbSymbolTable
 70
0
  0
BLOCK_RECORD
  5
20F
100
AcDbSymbolTableRecord
100
AcDbBlockTableRecord
  2
*Model_Space
  0
BLOCK_RECORD
  5
210
100
AcDbSymbolTableRecord
100
AcDbBlockTableRecord
  2
*Paper_Space
  0
BLOCK_RECORD
  5
211
100
AcDbSymbolTableRecord
100
AcDbBlockTableRecord
  2
SCHRIFTFELD-DATENPLANER_BL5
  0
BLOCK_RECORD
  5
212
100
AcDbSymbolTableRecord
100
AcDbBlockTableRecord
  2
AT110_027_00_NEW_VIEW_1_BL0
  0
BLOCK_RECORD
  5
213
100
AcDbSymbolTableRecord
100
AcDbBlockTableRecord
  2
AT110_027_00_RECHTS_2_BL1
  0
BLOCK_RECORD
  5
214
100
AcDbSymbolTableRecord
100
AcDbBlockTableRecord
  2
AT110_027_00_LINKS_3_BL2
  0
BLOCK_RECORD
  5
215
100
AcDbSymbolTableRecord
100
AcDbBlockTableRecord
  2
AT110_027_00_OBEN_4_BL3
  0
BLOCK_RECORD
  5
216
100
AcDbSymbolTableRecord
100
AcDbBlockTableRecord
  2
AT110_027_00_NEW_VIEW_5_BL4
  0
ENDTAB
  0
TABLE
  2
DIMSTYLE
  5
A
100
AcDbSymbolTable
 70
1
100
AcDbDimStyleTable
 71
0
  0
DIMSTYLE
105
217
100
AcDbSymbolTableRecord
100
AcDbDimStyleTableRecord
  2
STANDARD
 70
0
  3

  4

 40
1.0
 41
3.5
 42
0.0625
 43
0.38
 44
0.18
 45
0.0
 46
0.0
 47
0.01
 48
0.01
140
3.5
141
0.09
142
0.0
143
25.4
144
1.0
145
0.0
146
1.0
147
0.09
 71
1.0
 72
0.0
 73
0
 74
0
 75
0
 76
0
 77
1
 78
8
170
0
171
2
172
0
173
0
174
0
175
0
176
0
177
0
178
0
270
2
271
2
272
2
273
2
274
2
275
0
280
0
281
0
282
0
283
1
284
8
285
0
286
0
287
3
288
0
340
11
  0
ENDTAB
  0
ENDSEC
  0
SECTION
  2
BLOCKS
  0
BLOCK
  5
20
100
AcDbEntity
  8
0
100
AcDbBlockBegin
  2
*Model_Space
 70
0
 10
0.0
 20
0.0
 30
0.0
  3
*Model_Space
  1

  0
ENDBLK
  5
21
100
AcDbEntity
  8
0
100
AcDbBlockEnd
  0
BLOCK
  5
1C
100
AcDbEntity
  8
0
100
AcDbBlockBegin
  2
*Paper_Space
 70
0
 10
0.0
 20
0.0
 30
0.0
  3
*Paper_Space
  1

  0
ENDBLK
  5
1D
100
AcDbEntity
  8
0
100
AcDbBlockEnd
  0
BLOCK
  5
218
100
AcDbEntity
  8
0
100
AcDbBlockBegin
 62
2
  6
CONTINUOUS
  2
SCHRIFTFELD-DATENPLANER_BL5
 70
64
 10
986.9568472424
 20
266.4708326441
  3
SCHRIFTFELD-DATENPLANER_BL5
  1

  0
TEXT
  5
219
100
AcDbEntity
  8
0
100
AcDbText
 62
2
  6
CONTINUOUS
 10
776.7425615281
 20
273.9708326441
  7
STANDARD
 40
30.0
  1
Artikel-Nr.: 3690004
 41
0.7007142857
 72
0
100
AcDbText
  0
TEXT
  5
21A
100
AcDbEntity
  8
0
100
AcDbText
 62
2
  6
CONTINUOUS
 10
776.7425615281
 20
228.9708326441
  7
STANDARD
 40
30.0
  1
Datum: 
 41
0.7129251701
 72
0
100
AcDbText
  0
TEXT
  5
21B
100
AcDbEntity
  8
0
100
AcDbText
 62
2
  6
CONTINUOUS
 10
932.1711329567
 20
228.9708326441
  7
STANDARD
 40
30.0
  1
22.02.12
 41
0.7053571429
 72
0
100
AcDbText
  0
ENDBLK
  5
21C
100
AcDbEntity
  8
0
  6
BYBLOCK
 62
0
100
AcDbBlockEnd
  0
BLOCK
  5
21D
100
AcDbEntity
  8
AT110_027_00_new_view_1_BL0
100
AcDbBlockBegin
  2
AT110_027_00_NEW_VIEW_1_BL0
 70
64
 10
338.2909679878
 20
285.1996604767
  3
AT110_027_00_NEW_VIEW_1_BL0
  1

  0
LINE
  5
21E
100
AcDbEntity
  8
AT110_027_00_new_view_1_BL0
100
AcDbLine
 62
7
  6
CONTINUOUS
 10
98.2909679878
 20
525.1996604767
 11
98.2909679878
 21
45.1996604767
  0
LINE
  5
21F
100
AcDbEntity
  8
AT110_027_00_new_view_1_BL0
100
AcDbLine
 62
7
  6
CONTINUOUS
 10
98.2909679878
 20
45.1996604767
 11
578.2909679878
 21
45.1996604767
  0
LINE
  5
220
100
AcDbEntity
  8
AT110_027_00_new_view_1_BL0
100
AcDbLine
 62
7
  6
CONTINUOUS
 10
578.2909679878
 20
45.1996604767
 11
578.2909679878
 21
525.1996604767
  0
LINE
  5
221
100
AcDbEntity
  8
AT110_027_00_new_view_1_BL0
100
AcDbLine
 62
7
  6
CONTINUOUS
 10
578.2909679878
 20
525.1996604767
 11
98.2909679878
 21
525.1996604767
  0
ARC
  5
222
100
AcDbEntity
  8
AT110_027_00_new_view_1_BL0
100
AcDbCircle
 62
7
  6
CONTINUOUS
 10
338.2909679878
 20
285.1996604767
 40
61.0
100
AcDbArc
 50
270.0
 51
90.0
  0
ARC
  5
223
100
AcDbEntity
  8
AT110_027_00_new_view_1_BL0
100
AcDbCircle
 62
7
  6
CONTINUOUS
 10
338.2909679878
 20
285.1996604767
 40
61.0
100
AcDbArc
 50
90.0
 51
270.0
  0
ENDBLK
  5
224
100
AcDbEntity
  8
0
  6
BYBLOCK
 62
0
100
AcDbBlockEnd
  0
BLOCK
  5
225
100
AcDbEntity
  8
AT110_027_00_rechts_2_BL1
100
AcDbBlockBegin
  2
AT110_027_00_RECHTS_2_BL1
 70
64
 10
-27.9129018847
 20
285.1996604767
  3
AT110_027_00_RECHTS_2_BL1
  1

  0
LINE
  5
226
100
AcDbEntity
  8
AT110_027_00_rechts_2_BL1
100
AcDbLine
 62
7
  6
CONTINUOUS
 10
-27.8629018847
 20
45.1996604767
 11
-27.9629018847
 21
45.1996604767
  0
LINE
  5
227
100
AcDbEntity
  8
AT110_027_00_rechts_2_BL1
100
AcDbLine
 62
7
  6
CONTINUOUS
 10
-27.8629018847
 20
525.1996604767
 11
-27.9629018847
 21
525.1996604767
  0
LINE
  5
228
100
AcDbEntity
  8
AT110_027_00_rechts_2_BL1
100
AcDbLine
 62
7
  6
CONTINUOUS
 10
-27.9629018847
 20
45.1996604767
 11
-27.9629018847
 21
525.1996604767
  0
LINE
  5
229
100
AcDbEntity
  8
AT110_027_00_rechts_2_BL1
100
AcDbLine
 62
7
  6
CONTINUOUS
 10
-27.8629018847
 20
45.1996604767
 11
-27.8629018847
 21
525.1996604767
  0
ENDBLK
  5
22A
100
AcDbEntity
  8
0
  6
BYBLOCK
 62
0
100
AcDbBlockEnd
  0
BLOCK
  5
22B
100
AcDbEntity
  8
AT110_027_00_links_3_BL2
100
AcDbBlockBegin
  2
AT110_027_00_LINKS_3_BL2
 70
64
 10
685.0242776469
 20
285.1996604767
  3
AT110_027_00_LINKS_3_BL2
  1

  0
LINE
  5
22C
100
AcDbEntity
  8
AT110_027_00_links_3_BL2
100
AcDbLine
 62
7
  6
CONTINUOUS
 10
684.9742776469
 20
45.1996604767
 11
685.0742776469
 21
45.1996604767
  0
LINE
  5
22D
100
AcDbEntity
  8
AT110_027_00_links_3_BL2
100
AcDbLine
 62
7
  6
CONTINUOUS
 10
684.9742776469
 20
525.1996604767
 11
685.0742776469
 21
525.1996604767
  0
LINE
  5
22E
100
AcDbEntity
  8
AT110_027_00_links_3_BL2
100
AcDbLine
 62
7
  6
CONTINUOUS
 10
684.9742776469
 20
525.1996604767
 11
684.9742776469
 21
45.1996604767
  0
LINE
  5
22F
100
AcDbEntity
  8
AT110_027_00_links_3_BL2
100
AcDbLine
 62
7
  6
CONTINUOUS
 10
685.0742776469
 20
525.1996604767
 11
685.0742776469
 21
45.1996604767
  0
ENDBLK
  5
230
100
AcDbEntity
  8
0
  6
BYBLOCK
 62
0
100
AcDbBlockEnd
  0
BLOCK
  5
231
100
AcDbEntity
  8
AT110_027_00_oben_4_BL3
100
AcDbBlockBegin
  2
AT110_027_00_OBEN_4_BL3
 70
64
 10
338.2909679878
 20
-42.063088969
  3
AT110_027_00_OBEN_4_BL3
  1

  0
LINE
  5
232
100
AcDbEntity
  8
AT110_027_00_oben_4_BL3
100
AcDbLine
 62
7
  6
CONTINUOUS
 10
578.2909679878
 20
-42.013088969
 11
98.2909679878
 21
-42.013088969
  0
LINE
  5
233
100
AcDbEntity
  8
AT110_027_00_oben_4_BL3
100
AcDbLine
 62
7
  6
CONTINUOUS
 10
98.2909679878
 20
-42.013088969
 11
98.2909679878
 21
-42.113088969
  0
LINE
  5
234
100
AcDbEntity
  8
AT110_027_00_oben_4_BL3
100
AcDbLine
 62
7
  6
CONTINUOUS
 10
578.2909679878
 20
-42.013088969
 11
578.2909679878
 21
-42.113088969
  0
LINE
  5
235
100
AcDbEntity
  8
AT110_027_00_oben_4_BL3
100
AcDbLine
 62
7
  6
CONTINUOUS
 10
578.2909679878
 20
-42.113088969
 11
98.2909679878
 21
-42.113088969
  0
ENDBLK
  5
236
100
AcDbEntity
  8
0
  6
BYBLOCK
 62
0
100
AcDbBlockEnd
  0
BLOCK
  5
237
100
AcDbEntity
  8
AT110_027_00_new_view_5_BL4
100
AcDbBlockBegin
  2
AT110_027_00_NEW_VIEW_5_BL4
 70
64
 10
-388.4513454395
 20
292.4169116813
  3
AT110_027_00_NEW_VIEW_5_BL4
  1

  0
LINE
  5
238
100
AcDbEntity
  8
AT110_027_00_new_view_5_BL4
100
AcDbLine
 62
7
  6
CONTINUOUS
 10
-388.4263454395
 20
239.6110126856
 11
-388.4593228743
 21
239.6205427493
  0
SPLINE
  5
239
100
AcDbEntity
  8
AT110_027_00_new_view_5_BL4
100
AcDbSpline
 62
7
  6
CONTINUOUS
 70
0
 71
3
 72
22
 73
18
 74
0
 42
0.0000001
 43
0.0000001
 44
0.0000000001
 40
0.0
 40
0.0
 40
0.0
 40
0.0
 40
0.1285203193
 40
0.1956316193
 40
0.2639227361
 40
0.4015196088
 40
0.4698086163
 40
0.5369165267
 40
0.6023378245
 40
0.6343005775
 40
0.6657012462
 40
0.7266769474
 40
0.7852011401
 40
0.8413768051
 40
0.8955218437
 40
0.9481634085
 40
1.0
 40
1.0
 40
1.0
 40
1.0
 10
-388.4593228743
 20
239.6205427493
 30
0.0
 10
-393.6468038758
 20
241.1212794417
 30
0.0
 10
-401.2636268629
 20
244.4886542718
 30
0.0
 10
-410.5135576781
 20
250.6302089365
 30
0.0
 10
-419.3298874287
 20
257.9998811741
 30
0.0
 10
-426.9389009043
 20
266.7889384667
 30
0.0
 10
-432.9702749044
 20
276.5664297914
 30
0.0
 10
-436.5903080218
 20
284.2088123551
 30
0.0
 10
-438.8162145582
 20
290.7708462405
 30
0.0
 10
-440.0746040426
 20
296.0371588417
 30
0.0
 10
-440.9649975873
 20
301.1881449177
 30
0.0
 10
-441.432780003
 20
307.5326390777
 30
0.0
 10
-440.9242683639
 20
314.923434881
 30
0.0
 10
-439.3452896398
 20
321.8716221516
 30
0.0
 10
-436.7199552263
 20
328.2336786591
 30
0.0
 10
-433.098110121
 20
333.8717129166
 30
0.0
 10
-430.0537806105
 20
337.0779305199
 30
0.0
 10
-428.4100512506
 20
338.5069869334
 30
0.0
  0
LINE
  5
23A
100
AcDbEntity
  8
AT110_027_00_new_view_5_BL4
100
AcDbLine
 62
7
  6
CONTINUOUS
 10
-180.5802485312
 20
440.2846592247
 11
-180.6148639158
 21
440.2946518255
  0
LINE
  5
23B
100
AcDbEntity
  8
AT110_027_00_new_view_5_BL4
100
AcDbLine
 62
7
  6
CONTINUOUS
 10
-180.6148639158
 20
440.2946518255
 11
-596.2724423478
 21
560.2846592247
  0
SPLINE
  5
23C
100
AcDbEntity
  8
AT110_027_00_new_view_5_BL4
100
AcDbSpline
 62
7
  6
CONTINUOUS
 70
0
 71
3
 72
14
 73
10
 74
0
 42
0.0000001
 43
0.0000001
 44
0.0000000001
 40
0.0
 40
0.0
 40
0.0
 40
0.0
 40
0.1162258158
 40
0.2334825171
 40
0.352714683
 40
0.4747338281
 40
0.6001753436
 40
0.7294750366
 40
1.0
 40
1.0
 40
1.0
 40
1.0
 10
-348.5425999231
 20
246.2835699536
 30
0.0
 10
-349.7784596351
 20
245.2174494021
 30
0.0
 10
-352.4184070084
 20
243.2508195923
 30
0.0
 10
-356.7826526105
 20
240.8758108506
 30
0.0
 10
-361.5085552724
 20
239.0952344926
 30
0.0
 10
-366.5387768959
 20
237.9291437278
 30
0.0
 10
-371.8159224751
 20
237.3891610252
 30
0.0
 10
-379.2039115441
 20
237.5105884863
 30
0.0
 10
-384.7763886375
 20
238.5573609145
 30
0.0
 10
-388.4263454395
 20
239.6110126856
 30
0.0
  0
LINE
  5
23D
100
AcDbEntity
  8
AT110_027_00_new_view_5_BL4
100
AcDbLine
 62
7
  6
CONTINUOUS
 10
-428.410127896
 20
338.5070046168
 11
-428.3739769408
 21
338.5382681198
  0
LINE
  5
23E
100
AcDbEntity
  8
AT110_027_00_new_view_5_BL4
100
AcDbLine
 62
7
  6
CONTINUOUS
 10
-428.3739769408
 20
338.5382681198
 11
-428.3600909559
 21
338.550253409
  0
SPLINE
  5
23F
100
AcDbEntity
  8
AT110_027_00_new_view_5_BL4
100
AcDbSpline
 62
7
  6
CONTINUOUS
 70
0
 71
3
 72
14
 73
10
 74
0
 42
0.0000001
 43
0.0000001
 44
0.0000000001
 40
0.0
 40
0.0
 40
0.0
 40
0.0
 40
0.1162258158
 40
0.2334825171
 40
0.352714683
 40
0.4747338281
 40
0.6001753436
 40
0.7294750366
 40
1.0
 40
1.0
 40
1.0
 40
1.0
 10
-428.3600909559
 20
338.550253409
 30
0.0
 10
-427.1242312439
 20
339.6163739606
 30
0.0
 10
-424.4842838706
 20
341.5830037703
 30
0.0
 10
-420.1200382684
 20
343.958012512
 30
0.0
 10
-415.3941356066
 20
345.73858887
 30
0.0
 10
-410.3639139831
 20
346.9046796348
 30
0.0
 10
-405.0867684039
 20
347.4446623374
 30
0.0
 10
-397.6987793349
 20
347.3232348763
 30
0.0
 10
-392.1263022415
 20
346.2764624482
 30
0.0
 10
-388.4763454395
 20
345.2228106771
 30
0.0
  0
LINE
  5
240
100
AcDbEntity
  8
AT110_027_00_new_view_5_BL4
100
AcDbLine
 62
7
  6
CONTINUOUS
 10
-180.5802485312
 20
24.5924654081
 11
-180.5802485312
 21
440.2413579545
  0
LINE
  5
241
100
AcDbEntity
  8
AT110_027_00_new_view_5_BL4
100
AcDbLine
 62
7
  6
CONTINUOUS
 10
-180.5802485312
 20
440.2413579545
 11
-180.5802485312
 21
440.2846592247
  0
SPLINE
  5
242
100
AcDbEntity
  8
AT110_027_00_new_view_5_BL4
100
AcDbSpline
 62
7
  6
CONTINUOUS
 70
0
 71
3
 72
22
 73
18
 74
0
 42
0.0000001
 43
0.0000001
 44
0.0000000001
 40
0.0
 40
0.0
 40
0.0
 40
0.0
 40
0.1285031851
 40
0.1956092595
 40
0.263897413
 40
0.4014943399
 40
0.4697858142
 40
0.5368972104
 40
0.6023225394
 40
0.6342873713
 40
0.6656900836
 40
0.726669557
 40
0.7851968521
 40
0.8413747492
 40
0.895521116
 40
0.9481632587
 40
1.0
 40
1.0
 40
1.0
 40
1.0
 10
-388.4763454395
 20
345.2228106771
 30
0.0
 10
-383.2872846716
 20
343.7248578615
 30
0.0
 10
-375.6675083006
 20
340.3606457635
 30
0.0
 10
-366.413405486
 20
334.2218460851
 30
0.0
 10
-357.5921966849
 20
326.8536570686
 30
0.0
 10
-349.9783149741
 20
318.0645936312
 30
0.0
 10
-343.9424048534
 20
308.2859364546
 30
0.0
 10
-340.3192017242
 20
300.6420445727
 30
0.0
 10
-338.090959435
 20
294.0783857926
 30
0.0
 10
-336.8309353418
 20
288.8106002072
 30
0.0
 10
-335.9391048599
 20
283.6580858211
 30
0.0
 10
-335.4698550768
 20
277.3115860486
 30
0.0
 10
-335.9771691445
 20
269.9182994906
 30
0.0
 10
-337.5555549788
 20
262.9676946277
 30
0.0
 10
-340.1809061379
 20
256.6034189277
 30
0.0
 10
-343.8033561457
 20
250.9634873381
 30
0.0
 10
-346.8484596148
 20
247.7562846405
 30
0.0
 10
-348.4926396284
 20
246.3268364293
 30
0.0
  0
LINE
  5
243
100
AcDbEntity
  8
AT110_027_00_new_view_5_BL4
100
AcDbLine
 62
7
  6
CONTINUOUS
 10
-348.4926396284
 20
246.3268364293
 11
-348.5286948922
 21
246.2955340427
  0
LINE
  5
244
100
AcDbEntity
  8
AT110_027_00_new_view_5_BL4
100
AcDbLine
 62
7
  6
CONTINUOUS
 10
-348.5286948922
 20
246.2955340427
 11
-348.542562983
 21
246.2835174757
  0
LINE
  5
245
100
AcDbEntity
  8
AT110_027_00_new_view_5_BL4
100
AcDbLine
 62
7
  6
CONTINUOUS
 10
-596.3224423478
 20
144.549164138
 11
-180.6302485312
 21
24.549164138
  0
LINE
  5
246
100
AcDbEntity
  8
AT110_027_00_new_view_5_BL4
100
AcDbLine
 62
7
  6
CONTINUOUS
 10
-596.3224423478
 20
560.2413579545
 11
-596.3224423478
 21
144.549164138
  0
LINE
  5
247
100
AcDbEntity
  8
AT110_027_00_new_view_5_BL4
100
AcDbLine
 62
7
  6
CONTINUOUS
 10
-596.2724423478
 20
560.2846592247
 11
-596.3224423478
 21
560.2413579545
  0
LINE
  5
248
100
AcDbEntity
  8
AT110_027_00_new_view_5_BL4
100
AcDbLine
 62
7
  6
CONTINUOUS
 10
-180.5802485312
 20
24.5924654081
 11
-180.6302485312
 21
24.549164138
  0
SPLINE
  5
249
100
AcDbEntity
  8
AT110_027_00_new_view_5_BL4
100
AcDbSpline
 62
7
  6
CONTINUOUS
 70
0
 71
3
 72
22
 73
18
 74
0
 42
0.0000001
 43
0.0000001
 44
0.0000000001
 40
0.0
 40
0.0
 40
0.0
 40
0.0
 40
0.1285195456
 40
0.1956352901
 40
0.263932952
 40
0.4015445637
 40
0.4698398325
 40
0.536951732
 40
0.6023739852
 40
0.6343359794
 40
0.6657350326
 40
0.7267050258
 40
0.7852210303
 40
0.8413874977
 40
0.8955244512
 40
0.9481615971
 40
1.0
 40
1.0
 40
1.0
 40
1.0
 10
-388.4763454395
 20
239.5677114154
 30
0.0
 10
-393.6687744972
 20
241.0666365725
 30
0.0
 10
-401.2933689396
 20
244.4337579532
 30
0.0
 10
-410.5524532213
 20
250.5782613615
 30
0.0
 10
-419.3775947689
 20
257.9533533495
 30
0.0
 10
-426.9933871818
 20
266.7505351332
 30
0.0
 10
-433.0285151257
 20
276.537692264
 30
0.0
 10
-436.6495698563
 20
284.1875750083
 30
0.0
 10
-438.8747425786
 20
290.7558885247
 30
0.0
 10
-440.1314901999
 20
296.0269550659
 30
0.0
 10
-441.019569321
 20
301.1822095717
 30
0.0
 10
-441.4832553458
 20
307.53146295
 30
0.0
 10
-440.9678070384
 20
314.9267674157
 30
0.0
 10
-439.3800320493
 20
321.8777368626
 30
0.0
 10
-436.7442435505
 20
328.2404954156
 30
0.0
 10
-433.1106012617
 20
333.8768368496
 30
0.0
 10
-430.0579703572
 20
337.0799362275
 30
0.0
 10
-428.410127896
 20
338.5070046168
 30
0.0
  0
SPLINE
  5
24A
100
AcDbEntity
  8
AT110_027_00_new_view_5_BL4
100
AcDbSpline
 62
7
  6
CONTINUOUS
 70
0
 71
3
 72
14
 73
10
 74
0
 42
0.0000001
 43
0.0000001
 44
0.0000000001
 40
0.0
 40
0.0
 40
0.0
 40
0.0
 40
0.1162440325
 40
0.2335075337
 40
0.3527382348
 40
0.4747510445
 40
0.6001846075
 40
0.7294775564
 40
1.0
 40
1.0
 40
1.0
 40
1.0
 10
-348.542562983
 20
246.2835174757
 30
0.0
 10
-349.7773868627
 20
245.214132406
 30
0.0
 10
-352.4157288407
 20
243.2410253392
 30
0.0
 10
-356.7791610617
 20
240.8567882699
 30
0.0
 10
-361.5055301207
 20
239.0677759488
 30
0.0
 10
-366.5373782725
 20
237.8941828865
 30
0.0
 10
-371.8171787135
 20
237.3477362851
 30
0.0
 10
-379.210037312
 20
237.4619252553
 30
0.0
 10
-384.7870528586
 20
238.5052250236
 30
0.0
 10
-388.4400921687
 20
239.5572584434
 30
0.0
  0
LINE
  5
24B
100
AcDbEntity
  8
AT110_027_00_new_view_5_BL4
100
AcDbLine
 62
7
  6
CONTINUOUS
 10
-388.4400921687
 20
239.5572584434
 11
-388.4763454395
 21
239.5677114154
  0
LINE
  5
24C
100
AcDbEntity
  8
AT110_027_00_new_view_5_BL4
100
AcDbLine
 62
7
  6
CONTINUOUS
 10
-180.5802485312
 20
440.2846592247
 11
-180.6302485312
 21
440.2413579545
  0
LINE
  5
24D
100
AcDbEntity
  8
AT110_027_00_new_view_5_BL4
100
AcDbLine
 62
7
  6
CONTINUOUS
 10
-180.6302485312
 20
440.2413579545
 11
-596.3224423478
 21
560.2413579545
  0
LINE
  5
24E
100
AcDbEntity
  8
AT110_027_00_new_view_5_BL4
100
AcDbLine
 62
7
  6
CONTINUOUS
 10
-180.6302485312
 20
24.549164138
 11
-180.6302485312
 21
440.2413579545
  0
ENDBLK
  5
24F
100
AcDbEntity
  8
0
  6
BYBLOCK
 62
0
100
AcDbBlockEnd
  0
ENDSEC
  0
SECTION
  2
ENTITIES
  0
INSERT
  5
250
100
AcDbEntity
  8
0
100
AcDbBlockReference
 62
2
  6
CONTINUOUS
  2
SCHRIFTFELD-DATENPLANER_BL5
 10
986.9568472424
 20
266.4708326441
  0
INSERT
  5
251
100
AcDbEntity
  8
AT110_027_00_new_view_1_BL0
100
AcDbBlockReference
  2
AT110_027_00_NEW_VIEW_1_BL0
 10
338.2909679878
 20
285.1996604767
  0
INSERT
  5
252
100
AcDbEntity
  8
AT110_027_00_rechts_2_BL1
100
AcDbBlockReference
  2
AT110_027_00_RECHTS_2_BL1
 10
-27.9129018847
 20
285.1996604767
  0
INSERT
  5
253
100
AcDbEntity
  8
AT110_027_00_links_3_BL2
100
AcDbBlockReference
  2
AT110_027_00_LINKS_3_BL2
 10
685.0242776469
 20
285.1996604767
  0
INSERT
  5
254
100
AcDbEntity
  8
AT110_027_00_oben_4_BL3
100
AcDbBlockReference
  2
AT110_027_00_OBEN_4_BL3
 10
338.2909679878
 20
-42.063088969
  0
INSERT
  5
255
100
AcDbEntity
  8
AT110_027_00_new_view_5_BL4
100
AcDbBlockReference
  2
AT110_027_00_NEW_VIEW_5_BL4
 10
-388.4513454395
 20
292.4169116813
  0
ENDSEC
  0
SECTION
  2
OBJECTS
  0
DICTIONARY
  5
C
100
AcDbDictionary
280
0
281
1
  3
ACAD_GROUP
350
D
  3
ACAD_MLINESTYLE
350
17
  3
ACAD_LAYOUT
350
1A
  3
ACAD_PLOTSETTINGS
350
19
  3
ACAD_PLOTSTYLENAME
350
E
  0
DICTIONARY
  5
D
102
{ACAD_REACTORS
330
C
102
}
100
AcDbDictionary
280
0
281
1
  0
ACDBDICTIONARYWDFLT
  5
E
102
{ACAD_REACTORS
330
C
102
}
100
AcDbDictionary
281
1
  3
Normal
350
F
100
AcDbDictionaryWithDefault
340
F
  0
DICTIONARY
  5
17
102
{ACAD_REACTORS
330
C
102
}
100
AcDbDictionary
280
0
281
1
  3
Standard
350
18
  0
DICTIONARY
  5
19
102
{ACAD_REACTORS
330
C
102
}
100
AcDbDictionary
281
1
  0
DICTIONARY
  5
1A
102
{ACAD_REACTORS
330
C
102
}
100
AcDbDictionary
281
1
  3
Model
350
256
  3
Layout1
350
257
  0
ACDBPLACEHOLDER
  5
F
102
{ACAD_REACTORS
330
E
102
}
  0
MLINESTYLE
  5
18
102
{ACAD_REACTORS
330
17
102
}
100
AcDbMlineStyle
  2
STANDARD
 70
0
  3

 62
256
 51
90.0
 52
90.0
 71
2
 49
0.5
 62
256
  6
BYLAYER
 49
-0.5
 62
256
  6
BYLAYER
  0
LAYOUT
  5
256
102
{ACAD_REACTORS
330
1A
102
}
100
AcDbPlotSettings
  1

  2
none_device
  4
ISO_A1_(594.00_x_841.00_MM)
  6

 40
0.0
 41
0.0
 42
0.0
 43
0.0
 44
841.0
 45
594.0
 46
0.0
 47
0.0
 48
0.0
 49
0.0
140
0.0
141
0.0
142
1.0
143
1.0
 70
1024
 72
1
 73
0
 74
0
  7

 75
0
147
1.0
148
0.0
149
0.0
100
AcDbLayout
  1
Model
 70
0
 71
0
 10
0.0
 20
0.0
 11
841.0
 21
594.0
 12
0.0
 22
0.0
 32
0.0
 14
0.0
 24
0.0
 34
0.0
 15
0.0
 25
0.0
 35
0.0
146
0.0
 13
0.0
 23
0.0
 33
0.0
 16
1.0
 26
0.0
 36
0.0
 17
0.0
 27
1.0
 37
0.0
 76
0
330
20F
345
0
346
0
  0
LAYOUT
  5
257
102
{ACAD_REACTORS
330
1A
102
}
100
AcDbPlotSettings
  1

  2
none_device
  4
ISO_A1_(594.00_x_841.00_MM)
  6

 40
0.0
 41
0.0
 42
0.0
 43
0.0
 44
841.0
 45
594.0
 46
0.0
 47
0.0
 48
0.0
 49
0.0
140
0.0
141
0.0
142
1.0
143
1.0
 70
0
 72
1
 73
0
 74
0
  7

 75
0
147
1.0
148
0.0
149
0.0
100
AcDbLayout
  1
Layout1
 70
0
 71
1
 10
0.0
 20
0.0
 11
841.0
 21
594.0
 12
0.0
 22
0.0
 32
0.0
 14
0.0
 24
0.0
 34
0.0
 15
0.0
 25
0.0
 35
0.0
146
0.0
 13
0.0
 23
0.0
 33
0.0
 16
1.0
 26
0.0
 36
0.0
 17
0.0
 27
1.0
 37
0.0
 76
0
330
210
345
0
346
0
  0
ENDSEC
  0
EOF
