  0
SECTION
  2
HEADER
  9
$ACADVER
  1
AC1014
  9
$ACADMAINTVER
 70
     9
  9
$DWGCODEPAGE
  3
ANSI_1250
  9
$INSBASE
 10
0.0
 20
0.0
 30
0.0
  9
$EXTMIN
 10
-29.6537
 20
-18.4462
 30
0.0
  9
$EXTMAX
 10
29.7729
 20
18.3647
 30
0.0
  9
$LIMMIN
 10
0.0
 20
0.0
  9
$LIMMAX
 10
12.0
 20
9.0
  9
$ORTHOMODE
 70
     0
  9
$REGENMODE
 70
     1
  9
$FILLMODE
 70
     1
  9
$QTEXTMODE
 70
     0
  9
$MIRRTEXT
 70
     1
  9
$DRAGMODE
 70
     2
  9
$LTSCALE
 40
1.0
  9
$OSMODE
 70
    37
  9
$ATTMODE
 70
     1
  9
$TEXTSIZE
 40
0.2
  9
$TRACEWID
 40
0.05
  9
$TEXTSTYLE
  7
STANDARD
  9
$CLAYER
  8
0
  9
$CELTYPE
  6
BYLAYER
  9
$CECOLOR
 62
   256
  9
$CELTSCALE
 40
1.0
  9
$DELOBJ
 70
     1
  9
$DISPSILH
 70
     0
  9
$DIMSCALE
 40
1.0
  9
$DIMASZ
 40
0.18
  9
$DIMEXO
 40
0.0625
  9
$DIMDLI
 40
0.38
  9
$DIMRND
 40
0.0
  9
$DIMDLE
 40
0.0
  9
$DIMEXE
 40
0.18
  9
$DIMTP
 40
0.0
  9
$DIMTM
 40
0.0
  9
$DIMTXT
 40
0.18
  9
$DIMCEN
 40
0.09
  9
$DIMTSZ
 40
0.0
  9
$DIMTOL
 70
     0
  9
$DIMLIM
 70
     0
  9
$DIMTIH
 70
     1
  9
$DIMTOH
 70
     1
  9
$DIMSE1
 70
     0
  9
$DIMSE2
 70
     0
  9
$DIMTAD
 70
     0
  9
$DIMZIN
 70
     0
  9
$DIMBLK
  1

  9
$DIMASO
 70
     1
  9
$DIMSHO
 70
     1
  9
$DIMPOST
  1

  9
$DIMAPOST
  1

  9
$DIMALT
 70
     0
  9
$DIMALTD
 70
     2
  9
$DIMALTF
 40
25.4
  9
$DIMLFAC
 40
1.0
  9
$DIMTOFL
 70
     0
  9
$DIMTVP
 40
0.0
  9
$DIMTIX
 70
     0
  9
$DIMSOXD
 70
     0
  9
$DIMSAH
 70
     0
  9
$DIMBLK1
  1

  9
$DIMBLK2
  1

  9
$DIMSTYLE
  2
STANDARD
  9
$DIMCLRD
 70
     0
  9
$DIMCLRE
 70
     0
  9
$DIMCLRT
 70
     0
  9
$DIMTFAC
 40
1.0
  9
$DIMGAP
 40
0.09
  9
$DIMJUST
 70
     0
  9
$DIMSD1
 70
     0
  9
$DIMSD2
 70
     0
  9
$DIMTOLJ
 70
     1
  9
$DIMTZIN
 70
     0
  9
$DIMALTZ
 70
     0
  9
$DIMALTTZ
 70
     0
  9
$DIMFIT
 70
     3
  9
$DIMUPT
 70
     0
  9
$DIMUNIT
 70
     2
  9
$DIMDEC
 70
     4
  9
$DIMTDEC
 70
     4
  9
$DIMALTU
 70
     2
  9
$DIMALTTD
 70
     2
  9
$DIMTXSTY
  7
STANDARD
  9
$DIMAUNIT
 70
     0
  9
$LUNITS
 70
     2
  9
$LUPREC
 70
     4
  9
$SKETCHINC
 40
0.1
  9
$FILLETRAD
 40
0.5
  9
$AUNITS
 70
     0
  9
$AUPREC
 70
     0
  9
$MENU
  1
.
  9
$ELEVATION
 40
0.0
  9
$PELEVATION
 40
0.0
  9
$THICKNESS
 40
0.0
  9
$LIMCHECK
 70
     0
  9
$CHAMFERA
 40
0.5
  9
$CHAMFERB
 40
0.5
  9
$CHAMFERC
 40
1.0
  9
$CHAMFERD
 40
0.0
  9
$SKPOLY
 70
     0
  9
$TDCREATE
 40
2456220.565712847
  9
$TDUPDATE
 40
2456220.565712859
  9
$TDINDWG
 40
0.0000000116
  9
$TDUSRTIMER
 40
0.0000000116
  9
$USRTIMER
 70
     1
  9
$ANGBASE
 50
0.0
  9
$ANGDIR
 70
     0
  9
$PDMODE
 70
     0
  9
$PDSIZE
 40
0.0
  9
$PLINEWID
 40
0.0
  9
$COORDS
 70
     1
  9
$SPLFRAME
 70
     0
  9
$SPLINETYPE
 70
     6
  9
$SPLINESEGS
 70
     8
  9
$ATTDIA
 70
     0
  9
$ATTREQ
 70
     1
  9
$HANDLING
 70
     1
  9
$HANDSEED
  5
C7
  9
$SURFTAB1
 70
     6
  9
$SURFTAB2
 70
     6
  9
$SURFTYPE
 70
     6
  9
$SURFU
 70
     6
  9
$SURFV
 70
     6
  9
$UCSNAME
  2

  9
$UCSORG
 10
0.0
 20
0.0
 30
0.0
  9
$UCSXDIR
 10
1.0
 20
0.0
 30
0.0
  9
$UCSYDIR
 10
0.0
 20
1.0
 30
0.0
  9
$PUCSNAME
  2

  9
$PUCSORG
 10
0.0
 20
0.0
 30
0.0
  9
$PUCSXDIR
 10
1.0
 20
0.0
 30
0.0
  9
$PUCSYDIR
 10
0.0
 20
1.0
 30
0.0
  9
$USERI1
 70
     0
  9
$USERI2
 70
     0
  9
$USERI3
 70
     0
  9
$USERI4
 70
     0
  9
$USERI5
 70
     0
  9
$USERR1
 40
0.0
  9
$USERR2
 40
0.0
  9
$USERR3
 40
0.0
  9
$USERR4
 40
0.0
  9
$USERR5
 40
0.0
  9
$WORLDVIEW
 70
     1
  9
$SHADEDGE
 70
     3
  9
$SHADEDIF
 70
    70
  9
$TILEMODE
 70
     1
  9
$MAXACTVP
 70
    64
  9
$PINSBASE
 10
0.0
 20
0.0
 30
0.0
  9
$PLIMCHECK
 70
     0
  9
$PEXTMIN
 10
1.000000000000000E+20
 20
1.000000000000000E+20
 30
1.000000000000000E+20
  9
$PEXTMAX
 10
-1.000000000000000E+20
 20
-1.000000000000000E+20
 30
-1.000000000000000E+20
  9
$PLIMMIN
 10
0.0
 20
0.0
  9
$PLIMMAX
 10
12.0
 20
9.0
  9
$UNITMODE
 70
     0
  9
$VISRETAIN
 70
     1
  9
$PLINEGEN
 70
     0
  9
$PSLTSCALE
 70
     1
  9
$TREEDEPTH
 70
  3020
  9
$PICKSTYLE
 70
     1
  9
$CMLSTYLE
  2
STANDARD
  9
$CMLJUST
 70
     0
  9
$CMLSCALE
 40
1.0
  9
$PROXYGRAPHICS
 70
     1
  9
$MEASUREMENT
 70
     0
  0
ENDSEC
  0
SECTION
  2
CLASSES
  0
CLASS
  1
ACDBDICTIONARYWDFLT
  2
AcDbDictionaryWithDefault
  3
ObjectDBX Classes
 90
        0
280
     0
281
     0
  0
CLASS
  1
VISUALSTYLE
  2
AcDbVisualStyle
  3
ObjectDBX Classes
 90
     4095
280
     0
281
     0
  0
CLASS
  1
MATERIAL
  2
AcDbMaterial
  3
ObjectDBX Classes
 90
     1153
280
     0
281
     0
  0
CLASS
  1
DICTIONARYVAR
  2
AcDbDictionaryVar
  3
ObjectDBX Classes
 90
        0
280
     0
281
     0
  0
CLASS
  1
XRECORD
  2
AcDbXrecord
  3
AutoCAD 2000
 90
        0
280
     0
281
     0
  0
CLASS
  1
LWPOLYLINE
  2
AcDbPolyline
  3
AutoCAD 2000
 90
        0
280
     0
281
     1
  0
CLASS
  1
HATCH
  2
AcDbHatch
  3
AutoCAD 2000
 90
        0
280
     0
281
     1
  0
CLASS
  1
ACDBPLACEHOLDER
  2
AcDbPlaceHolder
  3
ObjectDBX Classes
 90
        0
280
     0
281
     0
  0
CLASS
  1
LAYOUT
  2
AcDbLayout
  3
ObjectDBX Classes
 90
        0
280
     0
281
     0
  0
ENDSEC
  0
SECTION
  2
TABLES
  0
TABLE
  2
VPORT
  5
8
330
0
100
AcDbSymbolTable
 70
     1
  0
VPORT
  5
29
330
8
100
AcDbSymbolTableRecord
100
AcDbViewportTableRecord
  2
*ACTIVE
 70
     0
 10
0.0
 20
0.0
 11
1.0
 21
1.0
 12
10.42990654205607
 22
4.5
 13
0.0
 23
0.0
 14
0.5
 24
0.5
 15
0.5
 25
0.5
 16
0.0
 26
0.0
 36
1.0
 17
0.0
 27
0.0
 37
0.0
 40
9.0
 41
1.972972972850329
 42
50.0
 43
0.0
 44
0.0
 50
0.0
 51
0.0
 71
     0
 72
   100
 73
     1
 74
     3
 75
     0
 76
     0
 77
     0
 78
     0
  0
ENDTAB
  0
TABLE
  2
LTYPE
  5
5
330
0
100
AcDbSymbolTable
 70
     1
  0
LTYPE
  5
14
330
5
100
AcDbSymbolTableRecord
100
AcDbLinetypeTableRecord
  2
BYBLOCK
 70
     0
  3

 72
    65
 73
     0
 40
0.0
  0
LTYPE
  5
15
330
5
100
AcDbSymbolTableRecord
100
AcDbLinetypeTableRecord
  2
BYLAYER
 70
     0
  3

 72
    65
 73
     0
 40
0.0
  0
LTYPE
  5
16
330
5
100
AcDbSymbolTableRecord
100
AcDbLinetypeTableRecord
  2
CONTINUOUS
 70
     0
  3
Solid line
 72
    65
 73
     0
 40
0.0
  0
ENDTAB
  0
TABLE
  2
LAYER
  5
2
330
0
100
AcDbSymbolTable
 70
     2
  0
LAYER
  5
10
330
2
100
AcDbSymbolTableRecord
100
AcDbLayerTableRecord
  2
0
 70
     0
 62
     7
  6
CONTINUOUS
  0
LAYER
  5
40
330
2
100
AcDbSymbolTableRecord
100
AcDbLayerTableRecord
  2
AXIS
 70
     0
 62
     7
  6
CONTINUOUS
  0
ENDTAB
  0
TABLE
  2
STYLE
  5
3
330
0
100
AcDbSymbolTable
 70
     1
  0
STYLE
  5
11
330
3
100
AcDbSymbolTableRecord
100
AcDbTextStyleTableRecord
  2
STANDARD
 70
     0
 40
0.0
 41
1.0
 50
0.0
 71
     0
 42
0.2
  3
txt
  4

  0
ENDTAB
  0
TABLE
  2
VIEW
  5
6
330
0
100
AcDbSymbolTable
 70
     0
  0
ENDTAB
  0
TABLE
  2
UCS
  5
7
330
0
100
AcDbSymbolTable
 70
     0
  0
ENDTAB
  0
TABLE
  2
APPID
  5
9
330
0
100
AcDbSymbolTable
 70
     2
  0
APPID
  5
12
330
9
100
AcDbSymbolTableRecord
100
AcDbRegAppTableRecord
  2
ACAD
 70
     0
  0
APPID
  5
3F
330
9
100
AcDbSymbolTableRecord
100
AcDbRegAppTableRecord
  2
ODA
 70
     0
  0
ENDTAB
  0
TABLE
  2
DIMSTYLE
  5
A
330
0
100
AcDbSymbolTable
 70
     1
  0
DIMSTYLE
105
27
330
A
100
AcDbSymbolTableRecord
100
AcDbDimStyleTableRecord
  2
STANDARD
 70
     0
  3

  4

  5

  6

  7

 40
1.0
 41
0.18
 42
0.0625
 43
0.38
 44
0.18
 45
0.0
 46
0.0
 47
0.0
 48
0.0
140
0.18
141
0.09
142
0.0
143
25.4
144
1.0
145
0.0
146
1.0
147
0.09
 71
     0
 72
     0
 73
     1
 74
     1
 75
     0
 76
     0
 77
     0
 78
     0
170
     0
171
     2
172
     0
173
     0
174
     0
175
     0
176
     0
177
     0
178
     0
270
     2
271
     4
272
     4
273
     2
274
     2
340
11
275
     0
280
     0
281
     0
282
     0
283
     1
284
     0
285
     0
286
     0
287
     3
288
     0
  0
ENDTAB
  0
TABLE
  2
BLOCK_RECORD
  5
1
330
0
100
AcDbSymbolTable
 70
     1
  0
BLOCK_RECORD
  5
1F
330
1
100
AcDbSymbolTableRecord
100
AcDbBlockTableRecord
  2
*MODEL_SPACE
  0
BLOCK_RECORD
  5
1B
330
1
100
AcDbSymbolTableRecord
100
AcDbBlockTableRecord
  2
*PAPER_SPACE
  0
ENDTAB
  0
ENDSEC
  0
SECTION
  2
BLOCKS
  0
BLOCK
  5
20
330
1F
100
AcDbEntity
  8
0
100
AcDbBlockBegin
  2
*MODEL_SPACE
 70
     0
 10
0.0
 20
0.0
 30
0.0
  3
*MODEL_SPACE
  1

  0
ENDBLK
  5
21
330
1F
100
AcDbEntity
  8
0
100
AcDbBlockEnd
  0
BLOCK
  5
1C
330
1B
100
AcDbEntity
 67
     1
  8
0
100
AcDbBlockBegin
  2
*PAPER_SPACE
 70
     0
 10
0.0
 20
0.0
 30
0.0
  3
*PAPER_SPACE
  1

  0
ENDBLK
  5
1D
330
1B
100
AcDbEntity
 67
     1
  8
0
100
AcDbBlockEnd
  0
ENDSEC
  0
SECTION
  2
ENTITIES
  0
SPLINE
  5
41
330
1F
100
AcDbEntity
  8
AXIS
 62
   250
100
AcDbSpline
210
0.0
220
0.0
230
1.0
 70
    24
 71
     3
 72
     8
 73
     4
 74
     0
 42
0.0000000001
 43
0.0000000001
 40
0.0
 40
0.0
 40
0.0
 40
0.0
 40
1.0
 40
1.0
 40
1.0
 40
1.0
 10
-24.4417
 20
-13.8913
 30
0.0
 10
-24.4417
 20
-13.8913
 30
0.0
 10
15.0097
 20
-13.8913
 30
0.0
 10
15.0097
 20
-13.8913
 30
0.0
  0
SPLINE
  5
42
330
1F
100
AcDbEntity
  8
AXIS
 62
   250
100
AcDbSpline
210
0.0
220
0.0
230
1.0
 70
    24
 71
     3
 72
     8
 73
     4
 74
     0
 42
0.0000000001
 43
0.0000000001
 40
0.0
 40
0.0
 40
0.0
 40
0.0
 40
1.0
 40
1.0
 40
1.0
 40
1.0
 10
-24.4418
 20
13.5793
 30
0.0
 10
-24.4418
 20
13.5793
 30
0.0
 10
15.0098
 20
13.5793
 30
0.0
 10
15.0098
 20
13.5793
 30
0.0
  0
SPLINE
  5
43
330
1F
100
AcDbEntity
  8
AXIS
 62
   250
100
AcDbSpline
210
0.0
220
0.0
230
1.0
 70
    24
 71
     3
 72
     8
 73
     4
 74
     0
 42
0.0000000001
 43
0.0000000001
 40
0.0
 40
0.0
 40
0.0
 40
0.0
 40
1.0
 40
1.0
 40
1.0
 40
1.0
 10
-25.2774
 20
-13.0566
 30
0.0
 10
-25.2774
 20
-13.0566
 30
0.0
 10
-25.2774
 20
12.7428
 30
0.0
 10
-25.2774
 20
12.7428
 30
0.0
  0
SPLINE
  5
44
330
1F
100
AcDbEntity
  8
AXIS
 62
   250
100
AcDbSpline
210
0.0
220
0.0
230
1.0
 70
    24
 71
     3
 72
     8
 73
     4
 74
     0
 42
0.0000000001
 43
0.0000000001
 40
0.0
 40
0.0
 40
0.0
 40
0.0
 40
1.0
 40
1.0
 40
1.0
 40
1.0
 10
-24.4471
 20
-13.8913
 30
0.0
 10
-24.4471
 20
-13.8913
 30
0.0
 10
-24.4417
 20
-13.8913
 30
0.0
 10
-24.4417
 20
-13.8913
 30
0.0
  0
SPLINE
  5
45
330
1F
100
AcDbEntity
  8
AXIS
 62
   250
100
AcDbSpline
210
0.0
220
0.0
230
1.0
 70
    27
 71
     3
 72
     8
 73
     4
 74
     0
 42
0.0000000001
 43
0.0000000001
 40
0.0
 40
0.0
 40
0.0
 40
0.0
 40
1.0
 40
1.0
 40
1.0
 40
1.0
 10
15.0097
 20
-13.8913
 30
0.0
 10
15.0097
 20
-13.8913
 30
0.0
 10
15.0097
 20
-13.8913
 30
0.0
 10
15.0097
 20
-13.8913
 30
0.0
  0
SPLINE
  5
46
330
1F
100
AcDbEntity
  8
AXIS
 62
   250
100
AcDbSpline
210
0.0
220
0.0
230
1.0
 70
    24
 71
     3
 72
     8
 73
     4
 74
     0
 42
0.0000000001
 43
0.0000000001
 40
0.0
 40
0.0
 40
0.0
 40
0.0
 40
1.0
 40
1.0
 40
1.0
 40
1.0
 10
-24.3412
 20
-12.2224
 30
0.0
 10
-24.3412
 20
-12.2224
 30
0.0
 10
14.9092
 20
-12.2224
 30
0.0
 10
14.9092
 20
-12.2224
 30
0.0
  0
SPLINE
  5
47
330
1F
100
AcDbEntity
  8
AXIS
 62
   250
100
AcDbSpline
210
0.0
220
0.0
230
1.0
 70
    24
 71
     3
 72
     8
 73
     4
 74
     0
 42
0.0000000001
 43
0.0000000001
 40
0.0
 40
0.0
 40
0.0
 40
0.0
 40
1.0
 40
1.0
 40
1.0
 40
1.0
 10
-24.3847
 20
12.3879
 30
0.0
 10
-24.3847
 20
12.3879
 30
0.0
 10
14.9528
 20
12.3879
 30
0.0
 10
14.9528
 20
12.3879
 30
0.0
  0
SPLINE
  5
48
330
1F
100
AcDbEntity
  8
AXIS
 62
   250
100
AcDbSpline
210
0.0
220
0.0
230
1.0
 70
    24
 71
     3
 72
     8
 73
     4
 74
     0
 42
0.0000000001
 43
0.0000000001
 40
0.0
 40
0.0
 40
0.0
 40
0.0
 40
1.0
 40
1.0
 40
1.0
 40
1.0
 10
-24.4417
 20
13.5792
 30
0.0
 10
-24.4417
 20
13.5792
 30
0.0
 10
-24.4498
 20
13.5792
 30
0.0
 10
-24.4498
 20
13.5792
 30
0.0
  0
SPLINE
  5
49
330
1F
100
AcDbEntity
  8
AXIS
 62
   250
100
AcDbSpline
210
0.0
220
0.0
230
1.0
 70
    27
 71
     3
 72
     8
 73
     4
 74
     0
 42
0.0000000001
 43
0.0000000001
 40
0.0
 40
0.0
 40
0.0
 40
0.0
 40
1.0
 40
1.0
 40
1.0
 40
1.0
 10
15.0098
 20
13.5793
 30
0.0
 10
15.0098
 20
13.5793
 30
0.0
 10
15.0098
 20
13.5793
 30
0.0
 10
15.0098
 20
13.5793
 30
0.0
  0
SPLINE
  5
4A
330
1F
100
AcDbEntity
  8
AXIS
 62
   250
100
AcDbSpline
210
0.0
220
0.0
230
1.0
 70
    24
 71
     3
 72
     8
 73
     4
 74
     0
 42
0.0000000001
 43
0.0000000001
 40
0.0
 40
0.0
 40
0.0
 40
0.0
 40
1.0
 40
1.0
 40
1.0
 40
1.0
 10
15.0174
 20
13.5792
 30
0.0
 10
15.0174
 20
13.5792
 30
0.0
 10
15.0098
 20
13.5792
 30
0.0
 10
15.0098
 20
13.5792
 30
0.0
  0
SPLINE
  5
4B
330
1F
100
AcDbEntity
  8
AXIS
 62
   250
100
AcDbSpline
210
0.0
220
0.0
230
1.0
 70
    24
 71
     3
 72
     8
 73
     4
 74
     0
 42
0.0000000001
 43
0.0000000001
 40
0.0
 40
0.0
 40
0.0
 40
0.0
 40
1.0
 40
1.0
 40
1.0
 40
1.0
 10
-24.4417
 20
13.5793
 30
0.0
 10
-24.4417
 20
13.5793
 30
0.0
 10
-24.4418
 20
13.5793
 30
0.0
 10
-24.4418
 20
13.5793
 30
0.0
  0
SPLINE
  5
4C
330
1F
100
AcDbEntity
  8
AXIS
 62
   250
100
AcDbSpline
210
0.0
220
0.0
230
1.0
 70
    24
 71
     3
 72
     8
 73
     4
 74
     0
 42
0.0000000001
 43
0.0000000001
 40
0.0
 40
0.0
 40
0.0
 40
0.0
 40
1.0
 40
1.0
 40
1.0
 40
1.0
 10
15.8454
 20
-13.0566
 30
0.0
 10
15.8454
 20
-13.0566
 30
0.0
 10
15.8454
 20
12.7428
 30
0.0
 10
15.8454
 20
12.7428
 30
0.0
  0
SPLINE
  5
4D
330
1F
100
AcDbEntity
  8
AXIS
 62
   250
100
AcDbSpline
210
0.0
220
0.0
230
1.0
 70
     8
 71
     3
 72
    28
 73
    24
 74
     0
 42
0.0000000001
 43
0.0000000001
 40
0.0
 40
0.0
 40
0.0
 40
0.0
 40
0.1428571428571428
 40
0.1428571428571428
 40
0.1428571428571428
 40
0.1428571428571428
 40
0.2857142857142857
 40
0.2857142857142857
 40
0.2857142857142857
 40
0.2857142857142857
 40
0.4285714285714285
 40
0.4285714285714285
 40
0.4285714285714285
 40
0.4285714285714285
 40
0.5714285714285714
 40
0.5714285714285714
 40
0.5714285714285714
 40
0.5714285714285714
 40
0.7142857142857143
 40
0.7142857142857143
 40
0.7142857142857143
 40
0.7142857142857143
 40
1.0
 40
1.0
 40
1.0
 40
1.0
 10
15.8454
 20
-13.0566
 30
0.0
 10
15.8454
 20
-13.0566
 30
0.0
 10
15.8176
 20
-13.2698
 30
0.0
 10
15.8176
 20
-13.2698
 30
0.0
 10
15.8176
 20
-13.2698
 30
0.0
 10
15.8176
 20
-13.2698
 30
0.0
 10
15.7334
 20
-13.4738
 30
0.0
 10
15.7334
 20
-13.4738
 30
0.0
 10
15.7334
 20
-13.4738
 30
0.0
 10
15.7334
 20
-13.4738
 30
0.0
 10
15.6009
 20
-13.6465
 30
0.0
 10
15.6009
 20
-13.6465
 30
0.0
 10
15.6009
 20
-13.6465
 30
0.0
 10
15.6009
 20
-13.6465
 30
0.0
 10
15.4282
 20
-13.7791
 30
0.0
 10
15.4282
 20
-13.7791
 30
0.0
 10
15.4282
 20
-13.7791
 30
0.0
 10
15.4282
 20
-13.7791
 30
0.0
 10
15.2235
 20
-13.8636
 30
0.0
 10
15.2235
 20
-13.8636
 30
0.0
 10
15.2235
 20
-13.8636
 30
0.0
 10
15.2235
 20
-13.8636
 30
0.0
 10
15.0152
 20
-13.8913
 30
0.0
 10
15.0152
 20
-13.8913
 30
0.0
  0
SPLINE
  5
4E
330
1F
100
AcDbEntity
  8
AXIS
 62
   250
100
AcDbSpline
210
0.0
220
0.0
230
1.0
 70
     8
 71
     3
 72
    28
 73
    24
 74
     0
 42
0.0000000001
 43
0.0000000001
 40
0.0
 40
0.0
 40
0.0
 40
0.0
 40
0.1428571428571428
 40
0.1428571428571428
 40
0.1428571428571428
 40
0.1428571428571428
 40
0.2857142857142857
 40
0.2857142857142857
 40
0.2857142857142857
 40
0.2857142857142857
 40
0.4285714285714285
 40
0.4285714285714285
 40
0.4285714285714285
 40
0.4285714285714285
 40
0.5714285714285714
 40
0.5714285714285714
 40
0.5714285714285714
 40
0.5714285714285714
 40
0.7142857142857143
 40
0.7142857142857143
 40
0.7142857142857143
 40
0.7142857142857143
 40
1.0
 40
1.0
 40
1.0
 40
1.0
 10
-25.2774
 20
12.7428
 30
0.0
 10
-25.2774
 20
12.7428
 30
0.0
 10
-25.2496
 20
12.957
 30
0.0
 10
-25.2496
 20
12.957
 30
0.0
 10
-25.2496
 20
12.957
 30
0.0
 10
-25.2496
 20
12.957
 30
0.0
 10
-25.1652
 20
13.1616
 30
0.0
 10
-25.1652
 20
13.1616
 30
0.0
 10
-25.1652
 20
13.1616
 30
0.0
 10
-25.1652
 20
13.1616
 30
0.0
 10
-25.0326
 20
13.3344
 30
0.0
 10
-25.0326
 20
13.3344
 30
0.0
 10
-25.0326
 20
13.3344
 30
0.0
 10
-25.0326
 20
13.3344
 30
0.0
 10
-24.8599
 20
13.4671
 30
0.0
 10
-24.8599
 20
13.4671
 30
0.0
 10
-24.8599
 20
13.4671
 30
0.0
 10
-24.8599
 20
13.4671
 30
0.0
 10
-24.6553
 20
13.5515
 30
0.0
 10
-24.6553
 20
13.5515
 30
0.0
 10
-24.6553
 20
13.5515
 30
0.0
 10
-24.6553
 20
13.5515
 30
0.0
 10
-24.4498
 20
13.5792
 30
0.0
 10
-24.4498
 20
13.5792
 30
0.0
  0
SPLINE
  5
4F
330
1F
100
AcDbEntity
  8
AXIS
 62
   250
100
AcDbSpline
210
0.0
220
0.0
230
1.0
 70
     8
 71
     3
 72
    28
 73
    24
 74
     0
 42
0.0000000001
 43
0.0000000001
 40
0.0
 40
0.0
 40
0.0
 40
0.0
 40
0.1428571428571428
 40
0.1428571428571428
 40
0.1428571428571428
 40
0.1428571428571428
 40
0.2857142857142857
 40
0.2857142857142857
 40
0.2857142857142857
 40
0.2857142857142857
 40
0.4285714285714285
 40
0.4285714285714285
 40
0.4285714285714285
 40
0.4285714285714285
 40
0.5714285714285714
 40
0.5714285714285714
 40
0.5714285714285714
 40
0.5714285714285714
 40
0.7142857142857143
 40
0.7142857142857143
 40
0.7142857142857143
 40
0.7142857142857143
 40
1.0
 40
1.0
 40
1.0
 40
1.0
 10
-24.4471
 20
-13.8913
 30
0.0
 10
-24.4471
 20
-13.8913
 30
0.0
 10
-24.6555
 20
-13.8636
 30
0.0
 10
-24.6555
 20
-13.8636
 30
0.0
 10
-24.6555
 20
-13.8636
 30
0.0
 10
-24.6555
 20
-13.8636
 30
0.0
 10
-24.8602
 20
-13.7791
 30
0.0
 10
-24.8602
 20
-13.7791
 30
0.0
 10
-24.8602
 20
-13.7791
 30
0.0
 10
-24.8602
 20
-13.7791
 30
0.0
 10
-25.033
 20
-13.6465
 30
0.0
 10
-25.033
 20
-13.6465
 30
0.0
 10
-25.033
 20
-13.6465
 30
0.0
 10
-25.033
 20
-13.6465
 30
0.0
 10
-25.1655
 20
-13.4738
 30
0.0
 10
-25.1655
 20
-13.4738
 30
0.0
 10
-25.1655
 20
-13.4738
 30
0.0
 10
-25.1655
 20
-13.4738
 30
0.0
 10
-25.2497
 20
-13.2698
 30
0.0
 10
-25.2497
 20
-13.2698
 30
0.0
 10
-25.2497
 20
-13.2698
 30
0.0
 10
-25.2497
 20
-13.2698
 30
0.0
 10
-25.2774
 20
-13.0566
 30
0.0
 10
-25.2774
 20
-13.0566
 30
0.0
  0
SPLINE
  5
50
330
1F
100
AcDbEntity
  8
AXIS
 62
   250
100
AcDbSpline
210
0.0
220
0.0
230
1.0
 70
     8
 71
     3
 72
    28
 73
    24
 74
     0
 42
0.0000000001
 43
0.0000000001
 40
0.0
 40
0.0
 40
0.0
 40
0.0
 40
0.1428571428571428
 40
0.1428571428571428
 40
0.1428571428571428
 40
0.1428571428571428
 40
0.2857142857142857
 40
0.2857142857142857
 40
0.2857142857142857
 40
0.2857142857142857
 40
0.4285714285714285
 40
0.4285714285714285
 40
0.4285714285714285
 40
0.4285714285714285
 40
0.5714285714285714
 40
0.5714285714285714
 40
0.5714285714285714
 40
0.5714285714285714
 40
0.7142857142857143
 40
0.7142857142857143
 40
0.7142857142857143
 40
0.7142857142857143
 40
1.0
 40
1.0
 40
1.0
 40
1.0
 10
15.0174
 20
13.5792
 30
0.0
 10
15.0174
 20
13.5792
 30
0.0
 10
15.2233
 20
13.5515
 30
0.0
 10
15.2233
 20
13.5515
 30
0.0
 10
15.2233
 20
13.5515
 30
0.0
 10
15.2233
 20
13.5515
 30
0.0
 10
15.4278
 20
13.4671
 30
0.0
 10
15.4278
 20
13.4671
 30
0.0
 10
15.4278
 20
13.4671
 30
0.0
 10
15.4278
 20
13.4671
 30
0.0
 10
15.6006
 20
13.3344
 30
0.0
 10
15.6006
 20
13.3344
 30
0.0
 10
15.6006
 20
13.3344
 30
0.0
 10
15.6006
 20
13.3344
 30
0.0
 10
15.7332
 20
13.1616
 30
0.0
 10
15.7332
 20
13.1616
 30
0.0
 10
15.7332
 20
13.1616
 30
0.0
 10
15.7332
 20
13.1616
 30
0.0
 10
15.8175
 20
12.957
 30
0.0
 10
15.8175
 20
12.957
 30
0.0
 10
15.8175
 20
12.957
 30
0.0
 10
15.8175
 20
12.957
 30
0.0
 10
15.8454
 20
12.7428
 30
0.0
 10
15.8454
 20
12.7428
 30
0.0
  0
SPLINE
  5
51
330
1F
100
AcDbEntity
  8
AXIS
 62
   250
100
AcDbSpline
210
0.0
220
0.0
230
1.0
 70
    24
 71
     3
 72
     8
 73
     4
 74
     0
 42
0.0000000001
 43
0.0000000001
 40
0.0
 40
0.0
 40
0.0
 40
0.0
 40
1.0
 40
1.0
 40
1.0
 40
1.0
 10
15.0098
 20
13.5793
 30
0.0
 10
15.0098
 20
13.5793
 30
0.0
 10
14.9966
 20
13.5406
 30
0.0
 10
14.9966
 20
13.5406
 30
0.0
  0
SPLINE
  5
52
330
1F
100
AcDbEntity
  8
AXIS
 62
   250
100
AcDbSpline
210
0.0
220
0.0
230
1.0
 70
     8
 71
     3
 72
    16
 73
    12
 74
     0
 42
0.0000000001
 43
0.0000000001
 40
0.0
 40
0.0
 40
0.0
 40
0.0
 40
0.25
 40
0.25
 40
0.25
 40
0.25
 40
0.5
 40
0.5
 40
0.5
 40
0.5
 40
1.0
 40
1.0
 40
1.0
 40
1.0
 10
14.9966
 20
13.5406
 30
0.0
 10
14.9966
 20
13.5406
 30
0.0
 10
14.9842
 20
13.4267
 30
0.0
 10
14.9842
 20
13.4267
 30
0.0
 10
14.9842
 20
13.4267
 30
0.0
 10
14.9842
 20
13.4267
 30
0.0
 10
14.973
 20
13.2435
 30
0.0
 10
14.973
 20
13.2435
 30
0.0
 10
14.973
 20
13.2435
 30
0.0
 10
14.973
 20
13.2435
 30
0.0
 10
14.9669
 20
13.0814
 30
0.0
 10
14.9669
 20
13.0814
 30
0.0
  0
SPLINE
  5
53
330
1F
100
AcDbEntity
  8
AXIS
 62
   250
100
AcDbSpline
210
0.0
220
0.0
230
1.0
 70
     8
 71
     3
 72
    16
 73
    12
 74
     0
 42
0.0000000001
 43
0.0000000001
 40
0.0
 40
0.0
 40
0.0
 40
0.0
 40
0.25
 40
0.25
 40
0.25
 40
0.25
 40
0.5
 40
0.5
 40
0.5
 40
0.5
 40
1.0
 40
1.0
 40
1.0
 40
1.0
 10
14.9669
 20
13.0814
 30
0.0
 10
14.9669
 20
13.0814
 30
0.0
 10
14.9638
 20
13.0006
 30
0.0
 10
14.9638
 20
13.0006
 30
0.0
 10
14.9638
 20
13.0006
 30
0.0
 10
14.9638
 20
13.0006
 30
0.0
 10
14.9569
 20
12.7104
 30
0.0
 10
14.9569
 20
12.7104
 30
0.0
 10
14.9569
 20
12.7104
 30
0.0
 10
14.9569
 20
12.7104
 30
0.0
 10
14.9528
 20
12.3879
 30
0.0
 10
14.9528
 20
12.3879
 30
0.0
  0
SPLINE
  5
54
330
1F
100
AcDbEntity
  8
AXIS
 62
   250
100
AcDbSpline
210
0.0
220
0.0
230
1.0
 70
     8
 71
     3
 72
    24
 73
    20
 74
     0
 42
0.0000000001
 43
0.0000000001
 40
0.0
 40
0.0
 40
0.0
 40
0.0
 40
0.1666666666666667
 40
0.1666666666666667
 40
0.1666666666666667
 40
0.1666666666666667
 40
0.3333333333333333
 40
0.3333333333333333
 40
0.3333333333333333
 40
0.3333333333333333
 40
0.5
 40
0.5
 40
0.5
 40
0.5
 40
0.6666666666666666
 40
0.6666666666666666
 40
0.6666666666666666
 40
0.6666666666666666
 40
1.0
 40
1.0
 40
1.0
 40
1.0
 10
14.9528
 20
12.3879
 30
0.0
 10
14.9528
 20
12.3879
 30
0.0
 10
14.8808
 20
7.5097
 30
0.0
 10
14.8808
 20
7.5097
 30
0.0
 10
14.8808
 20
7.5097
 30
0.0
 10
14.8808
 20
7.5097
 30
0.0
 10
14.8403
 20
2.5807
 30
0.0
 10
14.8403
 20
2.5807
 30
0.0
 10
14.8403
 20
2.5807
 30
0.0
 10
14.8403
 20
2.5807
 30
0.0
 10
14.8315
 20
-2.3703
 30
0.0
 10
14.8315
 20
-2.3703
 30
0.0
 10
14.8315
 20
-2.3703
 30
0.0
 10
14.8315
 20
-2.3703
 30
0.0
 10
14.8546
 20
-7.3143
 30
0.0
 10
14.8546
 20
-7.3143
 30
0.0
 10
14.8546
 20
-7.3143
 30
0.0
 10
14.8546
 20
-7.3143
 30
0.0
 10
14.9092
 20
-12.2224
 30
0.0
 10
14.9092
 20
-12.2224
 30
0.0
  0
SPLINE
  5
55
330
1F
100
AcDbEntity
  8
AXIS
 62
   250
100
AcDbSpline
210
0.0
220
0.0
230
1.0
 70
     8
 71
     3
 72
    20
 73
    16
 74
     0
 42
0.0000000001
 43
0.0000000001
 40
0.0
 40
0.0
 40
0.0
 40
0.0
 40
0.2
 40
0.2
 40
0.2
 40
0.2
 40
0.4
 40
0.4
 40
0.4
 40
0.4
 40
0.6
 40
0.6
 40
0.6
 40
0.6
 40
1.0
 40
1.0
 40
1.0
 40
1.0
 10
14.9092
 20
-12.2224
 30
0.0
 10
14.9092
 20
-12.2224
 30
0.0
 10
14.9146
 20
-12.6085
 30
0.0
 10
14.9146
 20
-12.6085
 30
0.0
 10
14.9146
 20
-12.6085
 30
0.0
 10
14.9146
 20
-12.6085
 30
0.0
 10
14.9238
 20
-12.9659
 30
0.0
 10
14.9238
 20
-12.9659
 30
0.0
 10
14.9238
 20
-12.9659
 30
0.0
 10
14.9238
 20
-12.9659
 30
0.0
 10
14.9364
 20
-13.28
 30
0.0
 10
14.9364
 20
-13.28
 30
0.0
 10
14.9364
 20
-13.28
 30
0.0
 10
14.9364
 20
-13.28
 30
0.0
 10
14.9429
 20
-13.3959
 30
0.0
 10
14.9429
 20
-13.3959
 30
0.0
  0
SPLINE
  5
56
330
1F
100
AcDbEntity
  8
AXIS
 62
   250
100
AcDbSpline
210
0.0
220
0.0
230
1.0
 70
     8
 71
     3
 72
    20
 73
    16
 74
     0
 42
0.0000000001
 43
0.0000000001
 40
0.0
 40
0.0
 40
0.0
 40
0.0
 40
0.2
 40
0.2
 40
0.2
 40
0.2
 40
0.4
 40
0.4
 40
0.4
 40
0.4
 40
0.6
 40
0.6
 40
0.6
 40
0.6
 40
1.0
 40
1.0
 40
1.0
 40
1.0
 10
14.9429
 20
-13.3959
 30
0.0
 10
14.9429
 20
-13.3959
 30
0.0
 10
14.9519
 20
-13.5387
 30
0.0
 10
14.9519
 20
-13.5387
 30
0.0
 10
14.9519
 20
-13.5387
 30
0.0
 10
14.9519
 20
-13.5387
 30
0.0
 10
14.9699
 20
-13.7317
 30
0.0
 10
14.9699
 20
-13.7317
 30
0.0
 10
14.9699
 20
-13.7317
 30
0.0
 10
14.9699
 20
-13.7317
 30
0.0
 10
14.9894
 20
-13.851
 30
0.0
 10
14.9894
 20
-13.851
 30
0.0
 10
14.9894
 20
-13.851
 30
0.0
 10
14.9894
 20
-13.851
 30
0.0
 10
15.0097
 20
-13.8913
 30
0.0
 10
15.0097
 20
-13.8913
 30
0.0
  0
SPLINE
  5
57
330
1F
100
AcDbEntity
  8
AXIS
 62
   250
100
AcDbSpline
210
0.0
220
0.0
230
1.0
 70
     8
 71
     3
 72
    16
 73
    12
 74
     0
 42
0.0000000001
 43
0.0000000001
 40
0.0
 40
0.0
 40
0.0
 40
0.0
 40
0.25
 40
0.25
 40
0.25
 40
0.25
 40
0.5
 40
0.5
 40
0.5
 40
0.5
 40
1.0
 40
1.0
 40
1.0
 40
1.0
 10
-24.3847
 20
12.3879
 30
0.0
 10
-24.3847
 20
12.3879
 30
0.0
 10
-24.3881
 20
12.6659
 30
0.0
 10
-24.3881
 20
12.6659
 30
0.0
 10
-24.3881
 20
12.6659
 30
0.0
 10
-24.3881
 20
12.6659
 30
0.0
 10
-24.3936
 20
12.9219
 30
0.0
 10
-24.3936
 20
12.9219
 30
0.0
 10
-24.3936
 20
12.9219
 30
0.0
 10
-24.3936
 20
12.9219
 30
0.0
 10
-24.3983
 20
13.0812
 30
0.0
 10
-24.3983
 20
13.0812
 30
0.0
  0
SPLINE
  5
58
330
1F
100
AcDbEntity
  8
AXIS
 62
   250
100
AcDbSpline
210
0.0
220
0.0
230
1.0
 70
     8
 71
     3
 72
    16
 73
    12
 74
     0
 42
0.0000000001
 43
0.0000000001
 40
0.0
 40
0.0
 40
0.0
 40
0.0
 40
0.25
 40
0.25
 40
0.25
 40
0.25
 40
0.5
 40
0.5
 40
0.5
 40
0.5
 40
1.0
 40
1.0
 40
1.0
 40
1.0
 10
-24.3983
 20
13.0812
 30
0.0
 10
-24.3983
 20
13.0812
 30
0.0
 10
-24.4008
 20
13.146
 30
0.0
 10
-24.4008
 20
13.146
 30
0.0
 10
-24.4008
 20
13.146
 30
0.0
 10
-24.4008
 20
13.146
 30
0.0
 10
-24.4096
 20
13.33
 30
0.0
 10
-24.4096
 20
13.33
 30
0.0
 10
-24.4096
 20
13.33
 30
0.0
 10
-24.4096
 20
13.33
 30
0.0
 10
-24.4196
 20
13.4667
 30
0.0
 10
-24.4196
 20
13.4667
 30
0.0
  0
SPLINE
  5
59
330
1F
100
AcDbEntity
  8
AXIS
 62
   250
100
AcDbSpline
210
0.0
220
0.0
230
1.0
 70
     8
 71
     3
 72
    12
 73
     8
 74
     0
 42
0.0000000001
 43
0.0000000001
 40
0.0
 40
0.0
 40
0.0
 40
0.0
 40
0.3333333333333333
 40
0.3333333333333333
 40
0.3333333333333333
 40
0.3333333333333333
 40
1.0
 40
1.0
 40
1.0
 40
1.0
 10
-24.4196
 20
13.4667
 30
0.0
 10
-24.4196
 20
13.4667
 30
0.0
 10
-24.4305
 20
13.5509
 30
0.0
 10
-24.4305
 20
13.5509
 30
0.0
 10
-24.4305
 20
13.5509
 30
0.0
 10
-24.4305
 20
13.5509
 30
0.0
 10
-24.4417
 20
13.5793
 30
0.0
 10
-24.4417
 20
13.5793
 30
0.0
  0
SPLINE
  5
5A
330
1F
100
AcDbEntity
  8
AXIS
 62
   250
100
AcDbSpline
210
0.0
220
0.0
230
1.0
 70
     8
 71
     3
 72
    24
 73
    20
 74
     0
 42
0.0000000001
 43
0.0000000001
 40
0.0
 40
0.0
 40
0.0
 40
0.0
 40
0.1666666666666667
 40
0.1666666666666667
 40
0.1666666666666667
 40
0.1666666666666667
 40
0.3333333333333333
 40
0.3333333333333333
 40
0.3333333333333333
 40
0.3333333333333333
 40
0.5
 40
0.5
 40
0.5
 40
0.5
 40
0.6666666666666666
 40
0.6666666666666666
 40
0.6666666666666666
 40
0.6666666666666666
 40
1.0
 40
1.0
 40
1.0
 40
1.0
 10
-24.3412
 20
-12.2224
 30
0.0
 10
-24.3412
 20
-12.2224
 30
0.0
 10
-24.2865
 20
-7.3143
 30
0.0
 10
-24.2865
 20
-7.3143
 30
0.0
 10
-24.2865
 20
-7.3143
 30
0.0
 10
-24.2865
 20
-7.3143
 30
0.0
 10
-24.2635
 20
-2.3703
 30
0.0
 10
-24.2635
 20
-2.3703
 30
0.0
 10
-24.2635
 20
-2.3703
 30
0.0
 10
-24.2635
 20
-2.3703
 30
0.0
 10
-24.2723
 20
2.5807
 30
0.0
 10
-24.2723
 20
2.5807
 30
0.0
 10
-24.2723
 20
2.5807
 30
0.0
 10
-24.2723
 20
2.5807
 30
0.0
 10
-24.3128
 20
7.5097
 30
0.0
 10
-24.3128
 20
7.5097
 30
0.0
 10
-24.3128
 20
7.5097
 30
0.0
 10
-24.3128
 20
7.5097
 30
0.0
 10
-24.3847
 20
12.3879
 30
0.0
 10
-24.3847
 20
12.3879
 30
0.0
  0
SPLINE
  5
5B
330
1F
100
AcDbEntity
  8
AXIS
 62
   250
100
AcDbSpline
210
0.0
220
0.0
230
1.0
 70
     8
 71
     3
 72
    20
 73
    16
 74
     0
 42
0.0000000001
 43
0.0000000001
 40
0.0
 40
0.0
 40
0.0
 40
0.0
 40
0.2
 40
0.2
 40
0.2
 40
0.2
 40
0.4
 40
0.4
 40
0.4
 40
0.4
 40
0.6
 40
0.6
 40
0.6
 40
0.6
 40
1.0
 40
1.0
 40
1.0
 40
1.0
 10
-24.4417
 20
-13.8913
 30
0.0
 10
-24.4417
 20
-13.8913
 30
0.0
 10
-24.4214
 20
-13.851
 30
0.0
 10
-24.4214
 20
-13.851
 30
0.0
 10
-24.4214
 20
-13.851
 30
0.0
 10
-24.4214
 20
-13.851
 30
0.0
 10
-24.4018
 20
-13.7317
 30
0.0
 10
-24.4018
 20
-13.7317
 30
0.0
 10
-24.4018
 20
-13.7317
 30
0.0
 10
-24.4018
 20
-13.7317
 30
0.0
 10
-24.3839
 20
-13.5387
 30
0.0
 10
-24.3839
 20
-13.5387
 30
0.0
 10
-24.3839
 20
-13.5387
 30
0.0
 10
-24.3839
 20
-13.5387
 30
0.0
 10
-24.3748
 20
-13.3959
 30
0.0
 10
-24.3748
 20
-13.3959
 30
0.0
  0
SPLINE
  5
5C
330
1F
100
AcDbEntity
  8
AXIS
 62
   250
100
AcDbSpline
210
0.0
220
0.0
230
1.0
 70
     8
 71
     3
 72
    20
 73
    16
 74
     0
 42
0.0000000001
 43
0.0000000001
 40
0.0
 40
0.0
 40
0.0
 40
0.0
 40
0.2
 40
0.2
 40
0.2
 40
0.2
 40
0.4
 40
0.4
 40
0.4
 40
0.4
 40
0.6
 40
0.6
 40
0.6
 40
0.6
 40
1.0
 40
1.0
 40
1.0
 40
1.0
 10
-24.3748
 20
-13.3959
 30
0.0
 10
-24.3748
 20
-13.3959
 30
0.0
 10
-24.3684
 20
-13.28
 30
0.0
 10
-24.3684
 20
-13.28
 30
0.0
 10
-24.3684
 20
-13.28
 30
0.0
 10
-24.3684
 20
-13.28
 30
0.0
 10
-24.3557
 20
-12.9659
 30
0.0
 10
-24.3557
 20
-12.9659
 30
0.0
 10
-24.3557
 20
-12.9659
 30
0.0
 10
-24.3557
 20
-12.9659
 30
0.0
 10
-24.3466
 20
-12.6085
 30
0.0
 10
-24.3466
 20
-12.6085
 30
0.0
 10
-24.3466
 20
-12.6085
 30
0.0
 10
-24.3466
 20
-12.6085
 30
0.0
 10
-24.3412
 20
-12.2224
 30
0.0
 10
-24.3412
 20
-12.2224
 30
0.0
  0
SPLINE
  5
5D
330
1F
100
AcDbEntity
  8
AXIS
 62
   250
100
AcDbSpline
210
0.0
220
0.0
230
1.0
 70
    24
 71
     3
 72
     8
 73
     4
 74
     0
 42
0.0000000001
 43
0.0000000001
 40
0.0
 40
0.0
 40
0.0
 40
0.0
 40
1.0
 40
1.0
 40
1.0
 40
1.0
 10
-0.3371
 20
7.7141
 30
0.0
 10
-0.3371
 20
7.7141
 30
0.0
 10
4.1723
 20
7.7141
 30
0.0
 10
4.1723
 20
7.7141
 30
0.0
  0
SPLINE
  5
5E
330
1F
100
AcDbEntity
  8
AXIS
 62
   250
100
AcDbSpline
210
0.0
220
0.0
230
1.0
 70
    24
 71
     3
 72
     8
 73
     4
 74
     0
 42
0.0000000001
 43
0.0000000001
 40
0.0
 40
0.0
 40
0.0
 40
0.0
 40
1.0
 40
1.0
 40
1.0
 40
1.0
 10
-19.2072
 20
-8.3159
 30
0.0
 10
-19.2072
 20
-8.3159
 30
0.0
 10
-19.2072
 20
7.967
 30
0.0
 10
-19.2072
 20
7.967
 30
0.0
  0
SPLINE
  5
5F
330
1F
100
AcDbEntity
  8
AXIS
 62
   250
100
AcDbSpline
210
0.0
220
0.0
230
1.0
 70
    24
 71
     3
 72
     8
 73
     4
 74
     0
 42
0.0000000001
 43
0.0000000001
 40
0.0
 40
0.0
 40
0.0
 40
0.0
 40
1.0
 40
1.0
 40
1.0
 40
1.0
 10
-19.2072
 20
-8.3105
 30
0.0
 10
-19.2072
 20
-8.3105
 30
0.0
 10
9.7164
 20
-8.3105
 30
0.0
 10
9.7164
 20
-8.3105
 30
0.0
  0
SPLINE
  5
60
330
1F
100
AcDbEntity
  8
AXIS
 62
   250
100
AcDbSpline
210
0.0
220
0.0
230
1.0
 70
    24
 71
     3
 72
     8
 73
     4
 74
     0
 42
0.0000000001
 43
0.0000000001
 40
0.0
 40
0.0
 40
0.0
 40
0.0
 40
1.0
 40
1.0
 40
1.0
 40
1.0
 10
9.4623
 20
-8.0614
 30
0.0
 10
9.4623
 20
-8.0614
 30
0.0
 10
-0.3355
 20
-8.0614
 30
0.0
 10
-0.3355
 20
-8.0614
 30
0.0
  0
SPLINE
  5
61
330
1F
100
AcDbEntity
  8
AXIS
 62
   250
100
AcDbSpline
210
0.0
220
0.0
230
1.0
 70
    24
 71
     3
 72
     8
 73
     4
 74
     0
 42
0.0000000001
 43
0.0000000001
 40
0.0
 40
0.0
 40
0.0
 40
0.0
 40
1.0
 40
1.0
 40
1.0
 40
1.0
 10
-0.5944
 20
-8.0614
 30
0.0
 10
-0.5944
 20
-8.0614
 30
0.0
 10
-18.953
 20
-8.0614
 30
0.0
 10
-18.953
 20
-8.0614
 30
0.0
  0
SPLINE
  5
62
330
1F
100
AcDbEntity
  8
AXIS
 62
   250
100
AcDbSpline
210
0.0
220
0.0
230
1.0
 70
    24
 71
     3
 72
     8
 73
     4
 74
     0
 42
0.0000000001
 43
0.0000000001
 40
0.0
 40
0.0
 40
0.0
 40
0.0
 40
1.0
 40
1.0
 40
1.0
 40
1.0
 10
-0.5897
 20
7.7141
 30
0.0
 10
-0.5897
 20
7.7141
 30
0.0
 10
-0.5897
 20
-8.0614
 30
0.0
 10
-0.5897
 20
-8.0614
 30
0.0
  0
SPLINE
  5
63
330
1F
100
AcDbEntity
  8
AXIS
 62
   250
100
AcDbSpline
210
0.0
220
0.0
230
1.0
 70
    24
 71
     3
 72
     8
 73
     4
 74
     0
 42
0.0000000001
 43
0.0000000001
 40
0.0
 40
0.0
 40
0.0
 40
0.0
 40
1.0
 40
1.0
 40
1.0
 40
1.0
 10
-0.3403
 20
-8.0614
 30
0.0
 10
-0.3403
 20
-8.0614
 30
0.0
 10
-0.3403
 20
7.7141
 30
0.0
 10
-0.3403
 20
7.7141
 30
0.0
  0
SPLINE
  5
64
330
1F
100
AcDbEntity
  8
AXIS
 62
   250
100
AcDbSpline
210
0.0
220
0.0
230
1.0
 70
    24
 71
     3
 72
     8
 73
     4
 74
     0
 42
0.0000000001
 43
0.0000000001
 40
0.0
 40
0.0
 40
0.0
 40
0.0
 40
1.0
 40
1.0
 40
1.0
 40
1.0
 10
-18.9546
 20
7.7141
 30
0.0
 10
-18.9546
 20
7.7141
 30
0.0
 10
-0.5929
 20
7.7141
 30
0.0
 10
-0.5929
 20
7.7141
 30
0.0
  0
SPLINE
  5
65
330
1F
100
AcDbEntity
  8
AXIS
 62
   250
100
AcDbSpline
210
0.0
220
0.0
230
1.0
 70
    24
 71
     3
 72
     8
 73
     4
 74
     0
 42
0.0000000001
 43
0.0000000001
 40
0.0
 40
0.0
 40
0.0
 40
0.0
 40
1.0
 40
1.0
 40
1.0
 40
1.0
 10
-0.3371
 20
7.7141
 30
0.0
 10
-0.3371
 20
7.7141
 30
0.0
 10
9.4639
 20
7.7141
 30
0.0
 10
9.4639
 20
7.7141
 30
0.0
  0
SPLINE
  5
66
330
1F
100
AcDbEntity
  8
AXIS
 62
   250
100
AcDbSpline
210
0.0
220
0.0
230
1.0
 70
    24
 71
     3
 72
     8
 73
     4
 74
     0
 42
0.0000000001
 43
0.0000000001
 40
0.0
 40
0.0
 40
0.0
 40
0.0
 40
1.0
 40
1.0
 40
1.0
 40
1.0
 10
9.7164
 20
7.9632
 30
0.0
 10
9.7164
 20
7.9632
 30
0.0
 10
-19.2072
 20
7.9632
 30
0.0
 10
-19.2072
 20
7.9632
 30
0.0
  0
SPLINE
  5
67
330
1F
100
AcDbEntity
  8
AXIS
 62
   250
100
AcDbSpline
210
0.0
220
0.0
230
1.0
 70
    24
 71
     3
 72
     8
 73
     4
 74
     0
 42
0.0000000001
 43
0.0000000001
 40
0.0
 40
0.0
 40
0.0
 40
0.0
 40
1.0
 40
1.0
 40
1.0
 40
1.0
 10
9.7164
 20
7.967
 30
0.0
 10
9.7164
 20
7.967
 30
0.0
 10
9.7164
 20
-8.3159
 30
0.0
 10
9.7164
 20
-8.3159
 30
0.0
  0
SPLINE
  5
68
330
1F
100
AcDbEntity
  8
AXIS
 62
   250
100
AcDbSpline
210
0.0
220
0.0
230
1.0
 70
    24
 71
     3
 72
   192
 73
   188
 74
     0
 42
0.0000000001
 43
0.0000000001
 40
0.0
 40
0.0
 40
0.0
 40
0.0
 40
0.0208333333333333
 40
0.0208333333333333
 40
0.0208333333333333
 40
0.0208333333333333
 40
0.0416666666666667
 40
0.0416666666666667
 40
0.0416666666666667
 40
0.0416666666666667
 40
0.0625
 40
0.0625
 40
0.0625
 40
0.0625
 40
0.0833333333333333
 40
0.0833333333333333
 40
0.0833333333333333
 40
0.0833333333333333
 40
0.1041666666666667
 40
0.1041666666666667
 40
0.1041666666666667
 40
0.1041666666666667
 40
0.125
 40
0.125
 40
0.125
 40
0.125
 40
0.1458333333333333
 40
0.1458333333333333
 40
0.1458333333333333
 40
0.1458333333333333
 40
0.1666666666666667
 40
0.1666666666666667
 40
0.1666666666666667
 40
0.1666666666666667
 40
0.1875
 40
0.1875
 40
0.1875
 40
0.1875
 40
0.2083333333333333
 40
0.2083333333333333
 40
0.2083333333333333
 40
0.2083333333333333
 40
0.2291666666666667
 40
0.2291666666666667
 40
0.2291666666666667
 40
0.2291666666666667
 40
0.25
 40
0.25
 40
0.25
 40
0.25
 40
0.2708333333333333
 40
0.2708333333333333
 40
0.2708333333333333
 40
0.2708333333333333
 40
0.2916666666666667
 40
0.2916666666666667
 40
0.2916666666666667
 40
0.2916666666666667
 40
0.3125
 40
0.3125
 40
0.3125
 40
0.3125
 40
0.3333333333333333
 40
0.3333333333333333
 40
0.3333333333333333
 40
0.3333333333333333
 40
0.3541666666666667
 40
0.3541666666666667
 40
0.3541666666666667
 40
0.3541666666666667
 40
0.375
 40
0.375
 40
0.375
 40
0.375
 40
0.3958333333333333
 40
0.3958333333333333
 40
0.3958333333333333
 40
0.3958333333333333
 40
0.4166666666666667
 40
0.4166666666666667
 40
0.4166666666666667
 40
0.4166666666666667
 40
0.4375
 40
0.4375
 40
0.4375
 40
0.4375
 40
0.4583333333333333
 40
0.4583333333333333
 40
0.4583333333333333
 40
0.4583333333333333
 40
0.4791666666666667
 40
0.4791666666666667
 40
0.4791666666666667
 40
0.4791666666666667
 40
0.5
 40
0.5
 40
0.5
 40
0.5
 40
0.5208333333333334
 40
0.5208333333333334
 40
0.5208333333333334
 40
0.5208333333333334
 40
0.5416666666666666
 40
0.5416666666666666
 40
0.5416666666666666
 40
0.5416666666666666
 40
0.5625
 40
0.5625
 40
0.5625
 40
0.5625
 40
0.5833333333333334
 40
0.5833333333333334
 40
0.5833333333333334
 40
0.5833333333333334
 40
0.6041666666666666
 40
0.6041666666666666
 40
0.6041666666666666
 40
0.6041666666666666
 40
0.625
 40
0.625
 40
0.625
 40
0.625
 40
0.6458333333333334
 40
0.6458333333333334
 40
0.6458333333333334
 40
0.6458333333333334
 40
0.6666666666666666
 40
0.6666666666666666
 40
0.6666666666666666
 40
0.6666666666666666
 40
0.6875
 40
0.6875
 40
0.6875
 40
0.6875
 40
0.7083333333333334
 40
0.7083333333333334
 40
0.7083333333333334
 40
0.7083333333333334
 40
0.7291666666666666
 40
0.7291666666666666
 40
0.7291666666666666
 40
0.7291666666666666
 40
0.75
 40
0.75
 40
0.75
 40
0.75
 40
0.7708333333333334
 40
0.7708333333333334
 40
0.7708333333333334
 40
0.7708333333333334
 40
0.7916666666666666
 40
0.7916666666666666
 40
0.7916666666666666
 40
0.7916666666666666
 40
0.8125
 40
0.8125
 40
0.8125
 40
0.8125
 40
0.8333333333333334
 40
0.8333333333333334
 40
0.8333333333333334
 40
0.8333333333333334
 40
0.8541666666666666
 40
0.8541666666666666
 40
0.8541666666666666
 40
0.8541666666666666
 40
0.875
 40
0.875
 40
0.875
 40
0.875
 40
0.8958333333333334
 40
0.8958333333333334
 40
0.8958333333333334
 40
0.8958333333333334
 40
0.9166666666666666
 40
0.9166666666666666
 40
0.9166666666666666
 40
0.9166666666666666
 40
0.9375
 40
0.9375
 40
0.9375
 40
0.9375
 40
0.9583333333333334
 40
0.9583333333333334
 40
0.9583333333333334
 40
0.9583333333333334
 40
1.0
 40
1.0
 40
1.0
 40
1.0
 10
-18.9578
 20
-8.0614
 30
0.0
 10
-18.9578
 20
-8.0614
 30
0.0
 10
-18.9578
 20
-7.1434
 30
0.0
 10
-18.9578
 20
-7.1434
 30
0.0
 10
-18.9578
 20
-7.1434
 30
0.0
 10
-18.9578
 20
-7.1434
 30
0.0
 10
-18.9578
 20
-6.6843
 30
0.0
 10
-18.9578
 20
-6.6843
 30
0.0
 10
-18.9578
 20
-6.6843
 30
0.0
 10
-18.9578
 20
-6.6843
 30
0.0
 10
-18.9578
 20
-6.2254
 30
0.0
 10
-18.9578
 20
-6.2254
 30
0.0
 10
-18.9578
 20
-6.2254
 30
0.0
 10
-18.9578
 20
-6.2254
 30
0.0
 10
-18.9578
 20
-5.9959
 30
0.0
 10
-18.9578
 20
-5.9959
 30
0.0
 10
-18.9578
 20
-5.9959
 30
0.0
 10
-18.9578
 20
-5.9959
 30
0.0
 10
-18.9578
 20
-5.7663
 30
0.0
 10
-18.9578
 20
-5.7663
 30
0.0
 10
-18.9578
 20
-5.7663
 30
0.0
 10
-18.9578
 20
-5.7663
 30
0.0
 10
-18.9578
 20
-5.6516
 30
0.0
 10
-18.9578
 20
-5.6516
 30
0.0
 10
-18.9578
 20
-5.6516
 30
0.0
 10
-18.9578
 20
-5.6516
 30
0.0
 10
-18.9578
 20
-5.5927
 30
0.0
 10
-18.9578
 20
-5.5927
 30
0.0
 10
-18.9578
 20
-5.5927
 30
0.0
 10
-18.9578
 20
-5.5927
 30
0.0
 10
-18.9578
 20
-5.5309
 30
0.0
 10
-18.9578
 20
-5.5309
 30
0.0
 10
-18.9578
 20
-5.5309
 30
0.0
 10
-18.9578
 20
-5.5309
 30
0.0
 10
-18.9578
 20
-5.4072
 30
0.0
 10
-18.9578
 20
-5.4072
 30
0.0
 10
-18.9578
 20
-5.4072
 30
0.0
 10
-18.9578
 20
-5.4072
 30
0.0
 10
-18.9578
 20
-5.2834
 30
0.0
 10
-18.9578
 20
-5.2834
 30
0.0
 10
-18.9578
 20
-5.2834
 30
0.0
 10
-18.9578
 20
-5.2834
 30
0.0
 10
-18.9578
 20
-4.7886
 30
0.0
 10
-18.9578
 20
-4.7886
 30
0.0
 10
-18.9578
 20
-4.7886
 30
0.0
 10
-18.9578
 20
-4.7886
 30
0.0
 10
-18.9578
 20
-4.2938
 30
0.0
 10
-18.9578
 20
-4.2938
 30
0.0
 10
-18.9578
 20
-4.2938
 30
0.0
 10
-18.9578
 20
-4.2938
 30
0.0
 10
-18.9578
 20
-3.7989
 30
0.0
 10
-18.9578
 20
-3.7989
 30
0.0
 10
-18.9578
 20
-3.7989
 30
0.0
 10
-18.9578
 20
-3.7989
 30
0.0
 10
-18.9578
 20
-3.304
 30
0.0
 10
-18.9578
 20
-3.304
 30
0.0
 10
-18.9578
 20
-3.304
 30
0.0
 10
-18.9578
 20
-3.304
 30
0.0
 10
-18.9578
 20
-3.0566
 30
0.0
 10
-18.9578
 20
-3.0566
 30
0.0
 10
-18.9578
 20
-3.0566
 30
0.0
 10
-18.9578
 20
-3.0566
 30
0.0
 10
-18.9578
 20
-2.9327
 30
0.0
 10
-18.9578
 20
-2.9327
 30
0.0
 10
-18.9578
 20
-2.9327
 30
0.0
 10
-18.9578
 20
-2.9327
 30
0.0
 10
-18.9578
 20
-2.8086
 30
0.0
 10
-18.9578
 20
-2.8086
 30
0.0
 10
-18.9578
 20
-2.8086
 30
0.0
 10
-18.9578
 20
-2.8086
 30
0.0
 10
-18.9578
 20
-2.5602
 30
0.0
 10
-18.9578
 20
-2.5602
 30
0.0
 10
-18.9578
 20
-2.5602
 30
0.0
 10
-18.9578
 20
-2.5602
 30
0.0
 10
-18.9578
 20
-2.3119
 30
0.0
 10
-18.9578
 20
-2.3119
 30
0.0
 10
-18.9578
 20
-2.3119
 30
0.0
 10
-18.9578
 20
-2.3119
 30
0.0
 10
-18.9578
 20
-1.3185
 30
0.0
 10
-18.9578
 20
-1.3185
 30
0.0
 10
-18.9578
 20
-1.3185
 30
0.0
 10
-18.9578
 20
-1.3185
 30
0.0
 10
-18.9578
 20
-0.8218
 30
0.0
 10
-18.9578
 20
-0.8218
 30
0.0
 10
-18.9578
 20
-0.8218
 30
0.0
 10
-18.9578
 20
-0.8218
 30
0.0
 10
-18.9578
 20
-0.5735
 30
0.0
 10
-18.9578
 20
-0.5735
 30
0.0
 10
-18.9578
 20
-0.5735
 30
0.0
 10
-18.9578
 20
-0.5735
 30
0.0
 10
-18.9578
 20
-0.4493
 30
0.0
 10
-18.9578
 20
-0.4493
 30
0.0
 10
-18.9578
 20
-0.4493
 30
0.0
 10
-18.9578
 20
-0.4493
 30
0.0
 10
-18.9578
 20
-0.3251
 30
0.0
 10
-18.9578
 20
-0.3251
 30
0.0
 10
-18.9578
 20
-0.3251
 30
0.0
 10
-18.9578
 20
-0.3251
 30
0.0
 10
-18.9578
 20
-0.2008
 30
0.0
 10
-18.9578
 20
-0.2008
 30
0.0
 10
-18.9578
 20
-0.2008
 30
0.0
 10
-18.9578
 20
-0.2008
 30
0.0
 10
-18.9578
 20
-0.0766
 30
0.0
 10
-18.9578
 20
-0.0766
 30
0.0
 10
-18.9578
 20
-0.0766
 30
0.0
 10
-18.9578
 20
-0.0766
 30
0.0
 10
-18.9578
 20
0.172
 30
0.0
 10
-18.9578
 20
0.172
 30
0.0
 10
-18.9578
 20
0.172
 30
0.0
 10
-18.9578
 20
0.172
 30
0.0
 10
-18.9578
 20
0.6692
 30
0.0
 10
-18.9578
 20
0.6692
 30
0.0
 10
-18.9578
 20
0.6692
 30
0.0
 10
-18.9578
 20
0.6692
 30
0.0
 10
-18.9578
 20
1.6635
 30
0.0
 10
-18.9578
 20
1.6635
 30
0.0
 10
-18.9578
 20
1.6635
 30
0.0
 10
-18.9578
 20
1.6635
 30
0.0
 10
-18.9578
 20
1.9121
 30
0.0
 10
-18.9578
 20
1.9121
 30
0.0
 10
-18.9578
 20
1.9121
 30
0.0
 10
-18.9578
 20
1.9121
 30
0.0
 10
-18.9578
 20
2.1607
 30
0.0
 10
-18.9578
 20
2.1607
 30
0.0
 10
-18.9578
 20
2.1607
 30
0.0
 10
-18.9578
 20
2.1607
 30
0.0
 10
-18.9578
 20
2.2849
 30
0.0
 10
-18.9578
 20
2.2849
 30
0.0
 10
-18.9578
 20
2.2849
 30
0.0
 10
-18.9578
 20
2.2849
 30
0.0
 10
-18.9578
 20
2.4091
 30
0.0
 10
-18.9578
 20
2.4091
 30
0.0
 10
-18.9578
 20
2.4091
 30
0.0
 10
-18.9578
 20
2.4091
 30
0.0
 10
-18.9578
 20
2.6572
 30
0.0
 10
-18.9578
 20
2.6572
 30
0.0
 10
-18.9578
 20
2.6572
 30
0.0
 10
-18.9578
 20
2.6572
 30
0.0
 10
-18.9578
 20
3.1535
 30
0.0
 10
-18.9578
 20
3.1535
 30
0.0
 10
-18.9578
 20
3.1535
 30
0.0
 10
-18.9578
 20
3.1535
 30
0.0
 10
-18.9578
 20
3.6498
 30
0.0
 10
-18.9578
 20
3.6498
 30
0.0
 10
-18.9578
 20
3.6498
 30
0.0
 10
-18.9578
 20
3.6498
 30
0.0
 10
-18.9578
 20
4.146
 30
0.0
 10
-18.9578
 20
4.146
 30
0.0
 10
-18.9578
 20
4.146
 30
0.0
 10
-18.9578
 20
4.146
 30
0.0
 10
-18.9578
 20
4.6423
 30
0.0
 10
-18.9578
 20
4.6423
 30
0.0
 10
-18.9578
 20
4.6423
 30
0.0
 10
-18.9578
 20
4.6423
 30
0.0
 10
-18.9578
 20
4.7664
 30
0.0
 10
-18.9578
 20
4.7664
 30
0.0
 10
-18.9578
 20
4.7664
 30
0.0
 10
-18.9578
 20
4.7664
 30
0.0
 10
-18.9578
 20
4.8905
 30
0.0
 10
-18.9578
 20
4.8905
 30
0.0
 10
-18.9578
 20
4.8905
 30
0.0
 10
-18.9578
 20
4.8905
 30
0.0
 10
-18.9578
 20
5.016
 30
0.0
 10
-18.9578
 20
5.016
 30
0.0
 10
-18.9578
 20
5.016
 30
0.0
 10
-18.9578
 20
5.016
 30
0.0
 10
-18.9578
 20
5.1445
 30
0.0
 10
-18.9578
 20
5.1445
 30
0.0
 10
-18.9578
 20
5.1445
 30
0.0
 10
-18.9578
 20
5.1445
 30
0.0
 10
-18.9578
 20
5.4015
 30
0.0
 10
-18.9578
 20
5.4015
 30
0.0
 10
-18.9578
 20
5.4015
 30
0.0
 10
-18.9578
 20
5.4015
 30
0.0
 10
-18.9578
 20
5.6584
 30
0.0
 10
-18.9578
 20
5.6584
 30
0.0
 10
-18.9578
 20
5.6584
 30
0.0
 10
-18.9578
 20
5.6584
 30
0.0
 10
-18.9578
 20
6.1723
 30
0.0
 10
-18.9578
 20
6.1723
 30
0.0
 10
-18.9578
 20
6.1723
 30
0.0
 10
-18.9578
 20
6.1723
 30
0.0
 10
-18.9578
 20
6.6863
 30
0.0
 10
-18.9578
 20
6.6863
 30
0.0
 10
-18.9578
 20
6.6863
 30
0.0
 10
-18.9578
 20
6.6863
 30
0.0
 10
-18.9578
 20
7.7141
 30
0.0
 10
-18.9578
 20
7.7141
 30
0.0
  0
SPLINE
  5
69
330
1F
100
AcDbEntity
  8
AXIS
 62
   250
100
AcDbSpline
210
0.0
220
0.0
230
1.0
 70
    24
 71
     3
 72
   192
 73
   188
 74
     0
 42
0.0000000001
 43
0.0000000001
 40
0.0
 40
0.0
 40
0.0
 40
0.0
 40
0.0208333333333333
 40
0.0208333333333333
 40
0.0208333333333333
 40
0.0208333333333333
 40
0.0416666666666667
 40
0.0416666666666667
 40
0.0416666666666667
 40
0.0416666666666667
 40
0.0625
 40
0.0625
 40
0.0625
 40
0.0625
 40
0.0833333333333333
 40
0.0833333333333333
 40
0.0833333333333333
 40
0.0833333333333333
 40
0.1041666666666667
 40
0.1041666666666667
 40
0.1041666666666667
 40
0.1041666666666667
 40
0.125
 40
0.125
 40
0.125
 40
0.125
 40
0.1458333333333333
 40
0.1458333333333333
 40
0.1458333333333333
 40
0.1458333333333333
 40
0.1666666666666667
 40
0.1666666666666667
 40
0.1666666666666667
 40
0.1666666666666667
 40
0.1875
 40
0.1875
 40
0.1875
 40
0.1875
 40
0.2083333333333333
 40
0.2083333333333333
 40
0.2083333333333333
 40
0.2083333333333333
 40
0.2291666666666667
 40
0.2291666666666667
 40
0.2291666666666667
 40
0.2291666666666667
 40
0.25
 40
0.25
 40
0.25
 40
0.25
 40
0.2708333333333333
 40
0.2708333333333333
 40
0.2708333333333333
 40
0.2708333333333333
 40
0.2916666666666667
 40
0.2916666666666667
 40
0.2916666666666667
 40
0.2916666666666667
 40
0.3125
 40
0.3125
 40
0.3125
 40
0.3125
 40
0.3333333333333333
 40
0.3333333333333333
 40
0.3333333333333333
 40
0.3333333333333333
 40
0.3541666666666667
 40
0.3541666666666667
 40
0.3541666666666667
 40
0.3541666666666667
 40
0.375
 40
0.375
 40
0.375
 40
0.375
 40
0.3958333333333333
 40
0.3958333333333333
 40
0.3958333333333333
 40
0.3958333333333333
 40
0.4166666666666667
 40
0.4166666666666667
 40
0.4166666666666667
 40
0.4166666666666667
 40
0.4375
 40
0.4375
 40
0.4375
 40
0.4375
 40
0.4583333333333333
 40
0.4583333333333333
 40
0.4583333333333333
 40
0.4583333333333333
 40
0.4791666666666667
 40
0.4791666666666667
 40
0.4791666666666667
 40
0.4791666666666667
 40
0.5
 40
0.5
 40
0.5
 40
0.5
 40
0.5208333333333334
 40
0.5208333333333334
 40
0.5208333333333334
 40
0.5208333333333334
 40
0.5416666666666666
 40
0.5416666666666666
 40
0.5416666666666666
 40
0.5416666666666666
 40
0.5625
 40
0.5625
 40
0.5625
 40
0.5625
 40
0.5833333333333334
 40
0.5833333333333334
 40
0.5833333333333334
 40
0.5833333333333334
 40
0.6041666666666666
 40
0.6041666666666666
 40
0.6041666666666666
 40
0.6041666666666666
 40
0.625
 40
0.625
 40
0.625
 40
0.625
 40
0.6458333333333334
 40
0.6458333333333334
 40
0.6458333333333334
 40
0.6458333333333334
 40
0.6666666666666666
 40
0.6666666666666666
 40
0.6666666666666666
 40
0.6666666666666666
 40
0.6875
 40
0.6875
 40
0.6875
 40
0.6875
 40
0.7083333333333334
 40
0.7083333333333334
 40
0.7083333333333334
 40
0.7083333333333334
 40
0.7291666666666666
 40
0.7291666666666666
 40
0.7291666666666666
 40
0.7291666666666666
 40
0.75
 40
0.75
 40
0.75
 40
0.75
 40
0.7708333333333334
 40
0.7708333333333334
 40
0.7708333333333334
 40
0.7708333333333334
 40
0.7916666666666666
 40
0.7916666666666666
 40
0.7916666666666666
 40
0.7916666666666666
 40
0.8125
 40
0.8125
 40
0.8125
 40
0.8125
 40
0.8333333333333334
 40
0.8333333333333334
 40
0.8333333333333334
 40
0.8333333333333334
 40
0.8541666666666666
 40
0.8541666666666666
 40
0.8541666666666666
 40
0.8541666666666666
 40
0.875
 40
0.875
 40
0.875
 40
0.875
 40
0.8958333333333334
 40
0.8958333333333334
 40
0.8958333333333334
 40
0.8958333333333334
 40
0.9166666666666666
 40
0.9166666666666666
 40
0.9166666666666666
 40
0.9166666666666666
 40
0.9375
 40
0.9375
 40
0.9375
 40
0.9375
 40
0.9583333333333334
 40
0.9583333333333334
 40
0.9583333333333334
 40
0.9583333333333334
 40
1.0
 40
1.0
 40
1.0
 40
1.0
 10
9.4671
 20
7.7141
 30
0.0
 10
9.4671
 20
7.7141
 30
0.0
 10
9.4671
 20
6.7924
 30
0.0
 10
9.4671
 20
6.7924
 30
0.0
 10
9.4671
 20
6.7924
 30
0.0
 10
9.4671
 20
6.7924
 30
0.0
 10
9.4671
 20
6.3315
 30
0.0
 10
9.4671
 20
6.3315
 30
0.0
 10
9.4671
 20
6.3315
 30
0.0
 10
9.4671
 20
6.3315
 30
0.0
 10
9.4671
 20
5.8706
 30
0.0
 10
9.4671
 20
5.8706
 30
0.0
 10
9.4671
 20
5.8706
 30
0.0
 10
9.4671
 20
5.8706
 30
0.0
 10
9.4671
 20
5.6401
 30
0.0
 10
9.4671
 20
5.6401
 30
0.0
 10
9.4671
 20
5.6401
 30
0.0
 10
9.4671
 20
5.6401
 30
0.0
 10
9.4671
 20
5.4097
 30
0.0
 10
9.4671
 20
5.4097
 30
0.0
 10
9.4671
 20
5.4097
 30
0.0
 10
9.4671
 20
5.4097
 30
0.0
 10
9.4671
 20
5.2945
 30
0.0
 10
9.4671
 20
5.2945
 30
0.0
 10
9.4671
 20
5.2945
 30
0.0
 10
9.4671
 20
5.2945
 30
0.0
 10
9.4671
 20
5.2354
 30
0.0
 10
9.4671
 20
5.2354
 30
0.0
 10
9.4671
 20
5.2354
 30
0.0
 10
9.4671
 20
5.2354
 30
0.0
 10
9.4671
 20
5.1734
 30
0.0
 10
9.4671
 20
5.1734
 30
0.0
 10
9.4671
 20
5.1734
 30
0.0
 10
9.4671
 20
5.1734
 30
0.0
 10
9.4671
 20
5.0494
 30
0.0
 10
9.4671
 20
5.0494
 30
0.0
 10
9.4671
 20
5.0494
 30
0.0
 10
9.4671
 20
5.0494
 30
0.0
 10
9.4671
 20
4.9253
 30
0.0
 10
9.4671
 20
4.9253
 30
0.0
 10
9.4671
 20
4.9253
 30
0.0
 10
9.4671
 20
4.9253
 30
0.0
 10
9.4671
 20
4.4292
 30
0.0
 10
9.4671
 20
4.4292
 30
0.0
 10
9.4671
 20
4.4292
 30
0.0
 10
9.4671
 20
4.4292
 30
0.0
 10
9.4671
 20
3.9331
 30
0.0
 10
9.4671
 20
3.9331
 30
0.0
 10
9.4671
 20
3.9331
 30
0.0
 10
9.4671
 20
3.9331
 30
0.0
 10
9.4671
 20
3.437
 30
0.0
 10
9.4671
 20
3.437
 30
0.0
 10
9.4671
 20
3.437
 30
0.0
 10
9.4671
 20
3.437
 30
0.0
 10
9.4671
 20
2.941
 30
0.0
 10
9.4671
 20
2.941
 30
0.0
 10
9.4671
 20
2.941
 30
0.0
 10
9.4671
 20
2.941
 30
0.0
 10
9.4671
 20
2.6929
 30
0.0
 10
9.4671
 20
2.6929
 30
0.0
 10
9.4671
 20
2.6929
 30
0.0
 10
9.4671
 20
2.6929
 30
0.0
 10
9.4671
 20
2.5688
 30
0.0
 10
9.4671
 20
2.5688
 30
0.0
 10
9.4671
 20
2.5688
 30
0.0
 10
9.4671
 20
2.5688
 30
0.0
 10
9.4671
 20
2.4445
 30
0.0
 10
9.4671
 20
2.4445
 30
0.0
 10
9.4671
 20
2.4445
 30
0.0
 10
9.4671
 20
2.4445
 30
0.0
 10
9.4671
 20
2.1959
 30
0.0
 10
9.4671
 20
2.1959
 30
0.0
 10
9.4671
 20
2.1959
 30
0.0
 10
9.4671
 20
2.1959
 30
0.0
 10
9.4671
 20
1.9474
 30
0.0
 10
9.4671
 20
1.9474
 30
0.0
 10
9.4671
 20
1.9474
 30
0.0
 10
9.4671
 20
1.9474
 30
0.0
 10
9.4671
 20
0.9531
 30
0.0
 10
9.4671
 20
0.9531
 30
0.0
 10
9.4671
 20
0.9531
 30
0.0
 10
9.4671
 20
0.9531
 30
0.0
 10
9.4671
 20
0.456
 30
0.0
 10
9.4671
 20
0.456
 30
0.0
 10
9.4671
 20
0.456
 30
0.0
 10
9.4671
 20
0.456
 30
0.0
 10
9.4671
 20
0.2074
 30
0.0
 10
9.4671
 20
0.2074
 30
0.0
 10
9.4671
 20
0.2074
 30
0.0
 10
9.4671
 20
0.2074
 30
0.0
 10
9.4671
 20
0.0831
 30
0.0
 10
9.4671
 20
0.0831
 30
0.0
 10
9.4671
 20
0.0831
 30
0.0
 10
9.4671
 20
0.0831
 30
0.0
 10
9.4671
 20
-0.0411
 30
0.0
 10
9.4671
 20
-0.0411
 30
0.0
 10
9.4671
 20
-0.0411
 30
0.0
 10
9.4671
 20
-0.0411
 30
0.0
 10
9.4671
 20
-0.1654
 30
0.0
 10
9.4671
 20
-0.1654
 30
0.0
 10
9.4671
 20
-0.1654
 30
0.0
 10
9.4671
 20
-0.1654
 30
0.0
 10
9.4671
 20
-0.2895
 30
0.0
 10
9.4671
 20
-0.2895
 30
0.0
 10
9.4671
 20
-0.2895
 30
0.0
 10
9.4671
 20
-0.2895
 30
0.0
 10
9.4671
 20
-0.5379
 30
0.0
 10
9.4671
 20
-0.5379
 30
0.0
 10
9.4671
 20
-0.5379
 30
0.0
 10
9.4671
 20
-0.5379
 30
0.0
 10
9.4671
 20
-1.0347
 30
0.0
 10
9.4671
 20
-1.0347
 30
0.0
 10
9.4671
 20
-1.0347
 30
0.0
 10
9.4671
 20
-1.0347
 30
0.0
 10
9.4671
 20
-2.0284
 30
0.0
 10
9.4671
 20
-2.0284
 30
0.0
 10
9.4671
 20
-2.0284
 30
0.0
 10
9.4671
 20
-2.0284
 30
0.0
 10
9.4671
 20
-2.2768
 30
0.0
 10
9.4671
 20
-2.2768
 30
0.0
 10
9.4671
 20
-2.2768
 30
0.0
 10
9.4671
 20
-2.2768
 30
0.0
 10
9.4671
 20
-2.5252
 30
0.0
 10
9.4671
 20
-2.5252
 30
0.0
 10
9.4671
 20
-2.5252
 30
0.0
 10
9.4671
 20
-2.5252
 30
0.0
 10
9.4671
 20
-2.6493
 30
0.0
 10
9.4671
 20
-2.6493
 30
0.0
 10
9.4671
 20
-2.6493
 30
0.0
 10
9.4671
 20
-2.6493
 30
0.0
 10
9.4671
 20
-2.7733
 30
0.0
 10
9.4671
 20
-2.7733
 30
0.0
 10
9.4671
 20
-2.7733
 30
0.0
 10
9.4671
 20
-2.7733
 30
0.0
 10
9.4671
 20
-3.0208
 30
0.0
 10
9.4671
 20
-3.0208
 30
0.0
 10
9.4671
 20
-3.0208
 30
0.0
 10
9.4671
 20
-3.0208
 30
0.0
 10
9.4671
 20
-3.5159
 30
0.0
 10
9.4671
 20
-3.5159
 30
0.0
 10
9.4671
 20
-3.5159
 30
0.0
 10
9.4671
 20
-3.5159
 30
0.0
 10
9.4671
 20
-4.0111
 30
0.0
 10
9.4671
 20
-4.0111
 30
0.0
 10
9.4671
 20
-4.0111
 30
0.0
 10
9.4671
 20
-4.0111
 30
0.0
 10
9.4671
 20
-4.5062
 30
0.0
 10
9.4671
 20
-4.5062
 30
0.0
 10
9.4671
 20
-4.5062
 30
0.0
 10
9.4671
 20
-4.5062
 30
0.0
 10
9.4671
 20
-5.0013
 30
0.0
 10
9.4671
 20
-5.0013
 30
0.0
 10
9.4671
 20
-5.0013
 30
0.0
 10
9.4671
 20
-5.0013
 30
0.0
 10
9.4671
 20
-5.1251
 30
0.0
 10
9.4671
 20
-5.1251
 30
0.0
 10
9.4671
 20
-5.1251
 30
0.0
 10
9.4671
 20
-5.1251
 30
0.0
 10
9.4671
 20
-5.2489
 30
0.0
 10
9.4671
 20
-5.2489
 30
0.0
 10
9.4671
 20
-5.2489
 30
0.0
 10
9.4671
 20
-5.2489
 30
0.0
 10
9.4671
 20
-5.374
 30
0.0
 10
9.4671
 20
-5.374
 30
0.0
 10
9.4671
 20
-5.374
 30
0.0
 10
9.4671
 20
-5.374
 30
0.0
 10
9.4671
 20
-5.502
 30
0.0
 10
9.4671
 20
-5.502
 30
0.0
 10
9.4671
 20
-5.502
 30
0.0
 10
9.4671
 20
-5.502
 30
0.0
 10
9.4671
 20
-5.7579
 30
0.0
 10
9.4671
 20
-5.7579
 30
0.0
 10
9.4671
 20
-5.7579
 30
0.0
 10
9.4671
 20
-5.7579
 30
0.0
 10
9.4671
 20
-6.0139
 30
0.0
 10
9.4671
 20
-6.0139
 30
0.0
 10
9.4671
 20
-6.0139
 30
0.0
 10
9.4671
 20
-6.0139
 30
0.0
 10
9.4671
 20
-6.5257
 30
0.0
 10
9.4671
 20
-6.5257
 30
0.0
 10
9.4671
 20
-6.5257
 30
0.0
 10
9.4671
 20
-6.5257
 30
0.0
 10
9.4671
 20
-7.0377
 30
0.0
 10
9.4671
 20
-7.0377
 30
0.0
 10
9.4671
 20
-7.0377
 30
0.0
 10
9.4671
 20
-7.0377
 30
0.0
 10
9.4671
 20
-8.0614
 30
0.0
 10
9.4671
 20
-8.0614
 30
0.0
  0
SPLINE
  5
6A
330
1F
100
AcDbEntity
  8
AXIS
 62
   250
100
AcDbSpline
210
0.0
220
0.0
230
1.0
 70
    11
 71
     3
 72
    20
 73
    16
 74
     0
 42
0.0000000001
 43
0.0000000001
 40
0.0
 40
0.0
 40
0.0
 40
0.0
 40
0.2
 40
0.2
 40
0.2
 40
0.2
 40
0.4
 40
0.4
 40
0.4
 40
0.4
 40
0.6
 40
0.6
 40
0.6
 40
0.6
 40
1.0
 40
1.0
 40
1.0
 40
1.0
 10
-26.907
 20
-10.8382
 30
0.0
 10
-26.907
 20
-10.8382
 30
0.0
 10
-27.3304
 20
-13.8384
 30
0.0
 10
-27.3304
 20
-13.8384
 30
0.0
 10
-27.3304
 20
-13.8384
 30
0.0
 10
-27.3304
 20
-13.8384
 30
0.0
 10
-27.4244
 20
-13.8384
 30
0.0
 10
-27.4244
 20
-13.8384
 30
0.0
 10
-27.4244
 20
-13.8384
 30
0.0
 10
-27.4244
 20
-13.8384
 30
0.0
 10
-27.876
 20
-10.8382
 30
0.0
 10
-27.876
 20
-10.8382
 30
0.0
 10
-27.876
 20
-10.8382
 30
0.0
 10
-27.876
 20
-10.8382
 30
0.0
 10
-26.907
 20
-10.8382
 30
0.0
 10
-26.907
 20
-10.8382
 30
0.0
  0
SPLINE
  5
6B
330
1F
100
AcDbEntity
  8
AXIS
 62
   250
100
AcDbSpline
210
0.0
220
0.0
230
1.0
 70
    11
 71
     3
 72
    20
 73
    16
 74
     0
 42
0.0000000001
 43
0.0000000001
 40
0.0
 40
0.0
 40
0.0
 40
0.0
 40
0.2
 40
0.2
 40
0.2
 40
0.2
 40
0.4
 40
0.4
 40
0.4
 40
0.4
 40
0.6
 40
0.6
 40
0.6
 40
0.6
 40
1.0
 40
1.0
 40
1.0
 40
1.0
 10
-27.8312
 20
10.4806
 30
0.0
 10
-27.8312
 20
10.4806
 30
0.0
 10
-27.4078
 20
13.4809
 30
0.0
 10
-27.4078
 20
13.4809
 30
0.0
 10
-27.4078
 20
13.4809
 30
0.0
 10
-27.4078
 20
13.4809
 30
0.0
 10
-27.3137
 20
13.4809
 30
0.0
 10
-27.3137
 20
13.4809
 30
0.0
 10
-27.3137
 20
13.4809
 30
0.0
 10
-27.3137
 20
13.4809
 30
0.0
 10
-26.8622
 20
10.4806
 30
0.0
 10
-26.8622
 20
10.4806
 30
0.0
 10
-26.8622
 20
10.4806
 30
0.0
 10
-26.8622
 20
10.4806
 30
0.0
 10
-27.8312
 20
10.4806
 30
0.0
 10
-27.8312
 20
10.4806
 30
0.0
  0
SPLINE
  5
6C
330
1F
100
AcDbEntity
  8
AXIS
 62
   250
100
AcDbSpline
210
0.0
220
0.0
230
1.0
 70
    11
 71
     3
 72
    20
 73
    16
 74
     0
 42
0.0000000001
 43
0.0000000001
 40
0.0
 40
0.0
 40
0.0
 40
0.0
 40
0.2
 40
0.2
 40
0.2
 40
0.2
 40
0.4
 40
0.4
 40
0.4
 40
0.4
 40
0.6
 40
0.6
 40
0.6
 40
0.6
 40
1.0
 40
1.0
 40
1.0
 40
1.0
 10
14.2137
 20
-5.2702
 30
0.0
 10
14.2137
 20
-5.2702
 30
0.0
 10
13.7902
 20
-8.2712
 30
0.0
 10
13.7902
 20
-8.2712
 30
0.0
 10
13.7902
 20
-8.2712
 30
0.0
 10
13.7902
 20
-8.2712
 30
0.0
 10
13.6961
 20
-8.2712
 30
0.0
 10
13.6961
 20
-8.2712
 30
0.0
 10
13.6961
 20
-8.2712
 30
0.0
 10
13.6961
 20
-8.2712
 30
0.0
 10
13.2444
 20
-5.2702
 30
0.0
 10
13.2444
 20
-5.2702
 30
0.0
 10
13.2444
 20
-5.2702
 30
0.0
 10
13.2444
 20
-5.2702
 30
0.0
 10
14.2137
 20
-5.2702
 30
0.0
 10
14.2137
 20
-5.2702
 30
0.0
  0
SPLINE
  5
6D
330
1F
100
AcDbEntity
  8
AXIS
 62
   250
100
AcDbSpline
210
0.0
220
0.0
230
1.0
 70
    11
 71
     3
 72
    20
 73
    16
 74
     0
 42
0.0000000001
 43
0.0000000001
 40
0.0
 40
0.0
 40
0.0
 40
0.0
 40
0.2
 40
0.2
 40
0.2
 40
0.2
 40
0.4
 40
0.4
 40
0.4
 40
0.4
 40
0.6
 40
0.6
 40
0.6
 40
0.6
 40
1.0
 40
1.0
 40
1.0
 40
1.0
 10
13.2903
 20
4.9669
 30
0.0
 10
13.2903
 20
4.9669
 30
0.0
 10
13.7137
 20
7.9674
 30
0.0
 10
13.7137
 20
7.9674
 30
0.0
 10
13.7137
 20
7.9674
 30
0.0
 10
13.7137
 20
7.9674
 30
0.0
 10
13.8078
 20
7.9674
 30
0.0
 10
13.8078
 20
7.9674
 30
0.0
 10
13.8078
 20
7.9674
 30
0.0
 10
13.8078
 20
7.9674
 30
0.0
 10
14.2594
 20
4.9669
 30
0.0
 10
14.2594
 20
4.9669
 30
0.0
 10
14.2594
 20
4.9669
 30
0.0
 10
14.2594
 20
4.9669
 30
0.0
 10
13.2903
 20
4.9669
 30
0.0
 10
13.2903
 20
4.9669
 30
0.0
  0
SPLINE
  5
6E
330
1F
100
AcDbEntity
  8
AXIS
 62
   250
100
AcDbSpline
210
0.0
220
0.0
230
1.0
 70
    11
 71
     3
 72
    20
 73
    16
 74
     0
 42
0.0000000001
 43
0.0000000001
 40
0.0
 40
0.0
 40
0.0
 40
0.0
 40
0.2
 40
0.2
 40
0.2
 40
0.2
 40
0.4
 40
0.4
 40
0.4
 40
0.4
 40
0.6
 40
0.6
 40
0.6
 40
0.6
 40
1.0
 40
1.0
 40
1.0
 40
1.0
 10
6.6724
 20
-16.736
 30
0.0
 10
6.6724
 20
-16.736
 30
0.0
 10
9.6739
 20
-17.1596
 30
0.0
 10
9.6739
 20
-17.1596
 30
0.0
 10
9.6739
 20
-17.1596
 30
0.0
 10
9.6739
 20
-17.1596
 30
0.0
 10
9.6739
 20
-17.2537
 30
0.0
 10
9.6739
 20
-17.2537
 30
0.0
 10
9.6739
 20
-17.2537
 30
0.0
 10
9.6739
 20
-17.2537
 30
0.0
 10
6.6724
 20
-17.7055
 30
0.0
 10
6.6724
 20
-17.7055
 30
0.0
 10
6.6724
 20
-17.7055
 30
0.0
 10
6.6724
 20
-17.7055
 30
0.0
 10
6.6724
 20
-16.736
 30
0.0
 10
6.6724
 20
-16.736
 30
0.0
  0
SPLINE
  5
6F
330
1F
100
AcDbEntity
  8
AXIS
 62
   250
100
AcDbSpline
210
0.0
220
0.0
230
1.0
 70
    11
 71
     3
 72
    20
 73
    16
 74
     0
 42
0.0000000001
 43
0.0000000001
 40
0.0
 40
0.0
 40
0.0
 40
0.0
 40
0.2
 40
0.2
 40
0.2
 40
0.2
 40
0.4
 40
0.4
 40
0.4
 40
0.4
 40
0.6
 40
0.6
 40
0.6
 40
0.6
 40
1.0
 40
1.0
 40
1.0
 40
1.0
 10
-16.2857
 20
-17.6544
 30
0.0
 10
-16.2857
 20
-17.6544
 30
0.0
 10
-19.2863
 20
-17.2309
 30
0.0
 10
-19.2863
 20
-17.2309
 30
0.0
 10
-19.2863
 20
-17.2309
 30
0.0
 10
-19.2863
 20
-17.2309
 30
0.0
 10
-19.2863
 20
-17.1369
 30
0.0
 10
-19.2863
 20
-17.1369
 30
0.0
 10
-19.2863
 20
-17.1369
 30
0.0
 10
-19.2863
 20
-17.1369
 30
0.0
 10
-16.2857
 20
-16.6852
 30
0.0
 10
-16.2857
 20
-16.6852
 30
0.0
 10
-16.2857
 20
-16.6852
 30
0.0
 10
-16.2857
 20
-16.6852
 30
0.0
 10
-16.2857
 20
-17.6544
 30
0.0
 10
-16.2857
 20
-17.6544
 30
0.0
  0
SPLINE
  5
70
330
1F
100
AcDbEntity
  8
AXIS
 62
   250
100
AcDbSpline
210
0.0
220
0.0
230
1.0
 70
    11
 71
     3
 72
    20
 73
    16
 74
     0
 42
0.0000000001
 43
0.0000000001
 40
0.0
 40
0.0
 40
0.0
 40
0.0
 40
0.2
 40
0.2
 40
0.2
 40
0.2
 40
0.4
 40
0.4
 40
0.4
 40
0.4
 40
0.6
 40
0.6
 40
0.6
 40
0.6
 40
1.0
 40
1.0
 40
1.0
 40
1.0
 10
12.7725
 20
16.4064
 30
0.0
 10
12.7725
 20
16.4064
 30
0.0
 10
15.7755
 20
15.9826
 30
0.0
 10
15.7755
 20
15.9826
 30
0.0
 10
15.7755
 20
15.9826
 30
0.0
 10
15.7755
 20
15.9826
 30
0.0
 10
15.7755
 20
15.8885
 30
0.0
 10
15.7755
 20
15.8885
 30
0.0
 10
15.7755
 20
15.8885
 30
0.0
 10
15.7755
 20
15.8885
 30
0.0
 10
12.7725
 20
15.4365
 30
0.0
 10
12.7725
 20
15.4365
 30
0.0
 10
12.7725
 20
15.4365
 30
0.0
 10
12.7725
 20
15.4365
 30
0.0
 10
12.7725
 20
16.4064
 30
0.0
 10
12.7725
 20
16.4064
 30
0.0
  0
SPLINE
  5
71
330
1F
100
AcDbEntity
  8
AXIS
 62
   250
100
AcDbSpline
210
0.0
220
0.0
230
1.0
 70
    11
 71
     3
 72
    20
 73
    16
 74
     0
 42
0.0000000001
 43
0.0000000001
 40
0.0
 40
0.0
 40
0.0
 40
0.0
 40
0.2
 40
0.2
 40
0.2
 40
0.2
 40
0.4
 40
0.4
 40
0.4
 40
0.4
 40
0.6
 40
0.6
 40
0.6
 40
0.6
 40
1.0
 40
1.0
 40
1.0
 40
1.0
 10
-22.1954
 20
15.4585
 30
0.0
 10
-22.1954
 20
15.4585
 30
0.0
 10
-25.1954
 20
15.8818
 30
0.0
 10
-25.1954
 20
15.8818
 30
0.0
 10
-25.1954
 20
15.8818
 30
0.0
 10
-25.1954
 20
15.8818
 30
0.0
 10
-25.1954
 20
15.9759
 30
0.0
 10
-25.1954
 20
15.9759
 30
0.0
 10
-25.1954
 20
15.9759
 30
0.0
 10
-25.1954
 20
15.9759
 30
0.0
 10
-22.1954
 20
16.4274
 30
0.0
 10
-22.1954
 20
16.4274
 30
0.0
 10
-22.1954
 20
16.4274
 30
0.0
 10
-22.1954
 20
16.4274
 30
0.0
 10
-22.1954
 20
15.4585
 30
0.0
 10
-22.1954
 20
15.4585
 30
0.0
  0
SPLINE
  5
72
330
1F
100
AcDbEntity
  8
AXIS
 62
   250
100
AcDbSpline
210
0.0
220
0.0
230
1.0
 70
    11
 71
     3
 72
    20
 73
    16
 74
     0
 42
0.0000000001
 43
0.0000000001
 40
0.0
 40
0.0
 40
0.0
 40
0.0
 40
0.2
 40
0.2
 40
0.2
 40
0.2
 40
0.4
 40
0.4
 40
0.4
 40
0.4
 40
0.6
 40
0.6
 40
0.6
 40
0.6
 40
1.0
 40
1.0
 40
1.0
 40
1.0
 10
20.1978
 20
-17.3949
 30
0.0
 10
20.1978
 20
-17.3949
 30
0.0
 10
23.1995
 20
-17.8185
 30
0.0
 10
23.1995
 20
-17.8185
 30
0.0
 10
23.1995
 20
-17.8185
 30
0.0
 10
23.1995
 20
-17.8185
 30
0.0
 10
23.1995
 20
-17.9126
 30
0.0
 10
23.1995
 20
-17.9126
 30
0.0
 10
23.1995
 20
-17.9126
 30
0.0
 10
23.1995
 20
-17.9126
 30
0.0
 10
20.1978
 20
-18.3644
 30
0.0
 10
20.1978
 20
-18.3644
 30
0.0
 10
20.1978
 20
-18.3644
 30
0.0
 10
20.1978
 20
-18.3644
 30
0.0
 10
20.1978
 20
-17.3949
 30
0.0
 10
20.1978
 20
-17.3949
 30
0.0
  0
SPLINE
  5
73
330
1F
100
AcDbEntity
  8
AXIS
 62
   250
100
AcDbSpline
210
0.0
220
0.0
230
1.0
 70
    11
 71
     3
 72
    20
 73
    16
 74
     0
 42
0.0000000001
 43
0.0000000001
 40
0.0
 40
0.0
 40
0.0
 40
0.0
 40
0.2
 40
0.2
 40
0.2
 40
0.2
 40
0.4
 40
0.4
 40
0.4
 40
0.4
 40
0.6
 40
0.6
 40
0.6
 40
0.6
 40
1.0
 40
1.0
 40
1.0
 40
1.0
 10
29.2296
 20
-18.3404
 30
0.0
 10
29.2296
 20
-18.3404
 30
0.0
 10
26.2274
 20
-17.9168
 30
0.0
 10
26.2274
 20
-17.9168
 30
0.0
 10
26.2274
 20
-17.9168
 30
0.0
 10
26.2274
 20
-17.9168
 30
0.0
 10
26.2274
 20
-17.8227
 30
0.0
 10
26.2274
 20
-17.8227
 30
0.0
 10
26.2274
 20
-17.8227
 30
0.0
 10
26.2274
 20
-17.8227
 30
0.0
 10
29.2296
 20
-17.3708
 30
0.0
 10
29.2296
 20
-17.3708
 30
0.0
 10
29.2296
 20
-17.3708
 30
0.0
 10
29.2296
 20
-17.3708
 30
0.0
 10
29.2296
 20
-18.3404
 30
0.0
 10
29.2296
 20
-18.3404
 30
0.0
  0
SPLINE
  5
74
330
1F
100
AcDbEntity
  8
AXIS
 62
   250
100
AcDbSpline
210
0.0
220
0.0
230
1.0
 70
    24
 71
     3
 72
     8
 73
     4
 74
     0
 42
0.0000000001
 43
0.0000000001
 40
0.0
 40
0.0
 40
0.0
 40
0.0
 40
1.0
 40
1.0
 40
1.0
 40
1.0
 10
-25.0308
 20
-13.8911
 30
0.0
 10
-25.0308
 20
-13.8911
 30
0.0
 10
-27.6168
 20
-13.8911
 30
0.0
 10
-27.6168
 20
-13.8911
 30
0.0
  0
SPLINE
  5
75
330
1F
100
AcDbEntity
  8
AXIS
 62
   250
100
AcDbSpline
210
0.0
220
0.0
230
1.0
 70
    24
 71
     3
 72
     8
 73
     4
 74
     0
 42
0.0000000001
 43
0.0000000001
 40
0.0
 40
0.0
 40
0.0
 40
0.0
 40
1.0
 40
1.0
 40
1.0
 40
1.0
 10
-24.9736
 20
13.5801
 30
0.0
 10
-24.9736
 20
13.5801
 30
0.0
 10
-27.6168
 20
13.5801
 30
0.0
 10
-27.6168
 20
13.5801
 30
0.0
  0
SPLINE
  5
76
330
1F
100
AcDbEntity
  8
AXIS
 62
   250
100
AcDbSpline
210
0.0
220
0.0
230
1.0
 70
    24
 71
     3
 72
     8
 73
     4
 74
     0
 42
0.0000000001
 43
0.0000000001
 40
0.0
 40
0.0
 40
0.0
 40
0.0
 40
1.0
 40
1.0
 40
1.0
 40
1.0
 10
-27.379
 20
13.5801
 30
0.0
 10
-27.379
 20
13.5801
 30
0.0
 10
-27.379
 20
-13.4644
 30
0.0
 10
-27.379
 20
-13.4644
 30
0.0
  0
SPLINE
  5
77
330
1F
100
AcDbEntity
  8
AXIS
 62
   250
100
AcDbSpline
210
0.0
220
0.0
230
1.0
 70
    24
 71
     3
 72
     8
 73
     4
 74
     0
 42
0.0000000001
 43
0.0000000001
 40
0.0
 40
0.0
 40
0.0
 40
0.0
 40
1.0
 40
1.0
 40
1.0
 40
1.0
 10
-19.331
 20
-8.895
 30
0.0
 10
-19.331
 20
-8.895
 30
0.0
 10
-19.331
 20
-17.5882
 30
0.0
 10
-19.331
 20
-17.5882
 30
0.0
  0
SPLINE
  5
78
330
1F
100
AcDbEntity
  8
AXIS
 62
   250
100
AcDbSpline
210
0.0
220
0.0
230
1.0
 70
    24
 71
     3
 72
     8
 73
     4
 74
     0
 42
0.0000000001
 43
0.0000000001
 40
0.0
 40
0.0
 40
0.0
 40
0.0
 40
1.0
 40
1.0
 40
1.0
 40
1.0
 10
9.7037
 20
-9.006
 30
0.0
 10
9.7037
 20
-9.006
 30
0.0
 10
9.7037
 20
-17.6577
 30
0.0
 10
9.7037
 20
-17.6577
 30
0.0
  0
SPLINE
  5
79
330
1F
100
AcDbEntity
  8
AXIS
 62
   250
100
AcDbSpline
210
0.0
220
0.0
230
1.0
 70
    24
 71
     3
 72
     8
 73
     4
 74
     0
 42
0.0000000001
 43
0.0000000001
 40
0.0
 40
0.0
 40
0.0
 40
0.0
 40
1.0
 40
1.0
 40
1.0
 40
1.0
 10
8.7024
 20
-17.1932
 30
0.0
 10
8.7024
 20
-17.1932
 30
0.0
 10
-19.2182
 20
-17.1932
 30
0.0
 10
-19.2182
 20
-17.1932
 30
0.0
  0
SPLINE
  5
7A
330
1F
100
AcDbEntity
  8
AXIS
 62
   250
100
AcDbSpline
210
0.0
220
0.0
230
1.0
 70
    24
 71
     3
 72
     8
 73
     4
 74
     0
 42
0.0000000001
 43
0.0000000001
 40
0.0
 40
0.0
 40
0.0
 40
0.0
 40
1.0
 40
1.0
 40
1.0
 40
1.0
 10
15.8465
 20
13.367
 30
0.0
 10
15.8465
 20
13.367
 30
0.0
 10
15.8465
 20
16.1791
 30
0.0
 10
15.8465
 20
16.1791
 30
0.0
  0
SPLINE
  5
7B
330
1F
100
AcDbEntity
  8
AXIS
 62
   250
100
AcDbSpline
210
0.0
220
0.0
230
1.0
 70
    24
 71
     3
 72
     8
 73
     4
 74
     0
 42
0.0000000001
 43
0.0000000001
 40
0.0
 40
0.0
 40
0.0
 40
0.0
 40
1.0
 40
1.0
 40
1.0
 40
1.0
 10
-25.2769
 20
13.3621
 30
0.0
 10
-25.2769
 20
13.3621
 30
0.0
 10
-25.2769
 20
16.1791
 30
0.0
 10
-25.2769
 20
16.1791
 30
0.0
  0
SPLINE
  5
7C
330
1F
100
AcDbEntity
  8
AXIS
 62
   250
100
AcDbSpline
210
0.0
220
0.0
230
1.0
 70
    24
 71
     3
 72
     8
 73
     4
 74
     0
 42
0.0000000001
 43
0.0000000001
 40
0.0
 40
0.0
 40
0.0
 40
0.0
 40
1.0
 40
1.0
 40
1.0
 40
1.0
 10
15.8465
 20
15.9412
 30
0.0
 10
15.8465
 20
15.9412
 30
0.0
 10
-24.8836
 20
15.9412
 30
0.0
 10
-24.8836
 20
15.9412
 30
0.0
  0
SPLINE
  5
7D
330
1F
100
AcDbEntity
  8
AXIS
 62
   250
100
AcDbSpline
210
0.0
220
0.0
230
1.0
 70
    24
 71
     3
 72
     8
 73
     4
 74
     0
 42
0.0000000001
 43
0.0000000001
 40
0.0
 40
0.0
 40
0.0
 40
0.0
 40
1.0
 40
1.0
 40
1.0
 40
1.0
 10
10.3095
 20
8.0326
 30
0.0
 10
10.3095
 20
8.0326
 30
0.0
 10
14.2234
 20
8.0326
 30
0.0
 10
14.2234
 20
8.0326
 30
0.0
  0
SPLINE
  5
7E
330
1F
100
AcDbEntity
  8
AXIS
 62
   250
100
AcDbSpline
210
0.0
220
0.0
230
1.0
 70
    24
 71
     3
 72
     8
 73
     4
 74
     0
 42
0.0000000001
 43
0.0000000001
 40
0.0
 40
0.0
 40
0.0
 40
0.0
 40
1.0
 40
1.0
 40
1.0
 40
1.0
 10
10.1784
 20
-8.3641
 30
0.0
 10
10.1784
 20
-8.3641
 30
0.0
 10
14.2878
 20
-8.3641
 30
0.0
 10
14.2878
 20
-8.3641
 30
0.0
  0
SPLINE
  5
7F
330
1F
100
AcDbEntity
  8
AXIS
 62
   250
100
AcDbSpline
210
0.0
220
0.0
230
1.0
 70
    24
 71
     3
 72
     8
 73
     4
 74
     0
 42
0.0000000001
 43
0.0000000001
 40
0.0
 40
0.0
 40
0.0
 40
0.0
 40
1.0
 40
1.0
 40
1.0
 40
1.0
 10
13.7639
 20
7.1117
 30
0.0
 10
13.7639
 20
7.1117
 30
0.0
 10
13.7639
 20
-8.198
 30
0.0
 10
13.7639
 20
-8.198
 30
0.0
  0
SPLINE
  5
80
330
1F
100
AcDbEntity
  8
AXIS
 62
   250
100
AcDbSpline
210
0.0
220
0.0
230
1.0
 70
    24
 71
     3
 72
     8
 73
     4
 74
     0
 42
0.0000000001
 43
0.0000000001
 40
0.0
 40
0.0
 40
0.0
 40
0.0
 40
1.0
 40
1.0
 40
1.0
 40
1.0
 10
23.2716
 20
-14.1912
 30
0.0
 10
23.2716
 20
-14.1912
 30
0.0
 10
23.2716
 20
-18.1285
 30
0.0
 10
23.2716
 20
-18.1285
 30
0.0
  0
SPLINE
  5
81
330
1F
100
AcDbEntity
  8
AXIS
 62
   250
100
AcDbSpline
210
0.0
220
0.0
230
1.0
 70
    24
 71
     3
 72
     8
 73
     4
 74
     0
 42
0.0000000001
 43
0.0000000001
 40
0.0
 40
0.0
 40
0.0
 40
0.0
 40
1.0
 40
1.0
 40
1.0
 40
1.0
 10
26.1522
 20
-7.3525
 30
0.0
 10
26.1522
 20
-7.3525
 30
0.0
 10
26.1522
 20
-18.1286
 30
0.0
 10
26.1522
 20
-18.1286
 30
0.0
  0
SPLINE
  5
82
330
1F
100
AcDbEntity
  8
AXIS
 62
   250
100
AcDbSpline
210
0.0
220
0.0
230
1.0
 70
    24
 71
     3
 72
     8
 73
     4
 74
     0
 42
0.0000000001
 43
0.0000000001
 40
0.0
 40
0.0
 40
0.0
 40
0.0
 40
1.0
 40
1.0
 40
1.0
 40
1.0
 10
29.7729
 20
-17.8906
 30
0.0
 10
29.7729
 20
-17.8906
 30
0.0
 10
16.4455
 20
-17.8906
 30
0.0
 10
16.4455
 20
-17.8906
 30
0.0
  0
SPLINE
  5
83
330
1F
100
AcDbEntity
  8
AXIS
 62
   250
100
AcDbSpline
210
0.0
220
0.0
230
1.0
 70
    24
 71
     3
 72
     8
 73
     4
 74
     0
 42
0.0000000001
 43
0.0000000001
 40
0.0
 40
0.0
 40
0.0
 40
0.0
 40
1.0
 40
1.0
 40
1.0
 40
1.0
 10
23.2716
 20
-13.891
 30
0.0
 10
23.2716
 20
-13.891
 30
0.0
 10
23.2716
 20
13.5801
 30
0.0
 10
23.2716
 20
13.5801
 30
0.0
  0
SPLINE
  5
84
330
1F
100
AcDbEntity
  8
AXIS
 62
   250
100
AcDbSpline
210
0.0
220
0.0
230
1.0
 70
     8
 71
     3
 72
     8
 73
     4
 74
     0
 42
0.0000000001
 43
0.0000000001
 40
0.0
 40
0.0
 40
0.0
 40
0.0
 40
1.0
 40
1.0
 40
1.0
 40
1.0
 10
25.2423
 20
-12.222
 30
0.0
 10
26.605
 20
-4.0584
 30
0.0
 10
26.4341
 20
4.2877
 30
0.0
 10
24.7383
 20
12.3887
 30
0.0
  0
SPLINE
  5
85
330
1F
100
AcDbEntity
  8
AXIS
 62
   250
100
AcDbSpline
210
0.0
220
0.0
230
1.0
 70
     8
 71
     3
 72
     8
 73
     4
 74
     0
 42
0.0000000001
 43
0.0000000001
 40
0.0
 40
0.0
 40
0.0
 40
0.0
 40
1.0
 40
1.0
 40
1.0
 40
1.0
 10
23.2716
 20
-13.891
 30
0.0
 10
24.2481
 20
-13.891
 30
0.0
 10
25.0815
 20
-13.1852
 30
0.0
 10
25.2423
 20
-12.222
 30
0.0
  0
SPLINE
  5
86
330
1F
100
AcDbEntity
  8
AXIS
 62
   250
100
AcDbSpline
210
0.0
220
0.0
230
1.0
 70
     8
 71
     3
 72
     8
 73
     4
 74
     0
 42
0.0000000001
 43
0.0000000001
 40
0.0
 40
0.0
 40
0.0
 40
0.0
 40
1.0
 40
1.0
 40
1.0
 40
1.0
 10
24.7383
 20
12.3887
 30
0.0
 10
24.5929
 20
13.0828
 30
0.0
 10
23.9809
 20
13.5801
 30
0.0
 10
23.2716
 20
13.5801
 30
0.0
  0
SPLINE
  5
87
330
1F
100
AcDbEntity
  8
AXIS
 62
   250
100
AcDbSpline
210
0.0
220
0.0
230
1.0
 70
     8
 71
     3
 72
     8
 73
     4
 74
     0
 42
0.0000000001
 43
0.0000000001
 40
0.0
 40
0.0
 40
0.0
 40
0.0
 40
1.0
 40
1.0
 40
1.0
 40
1.0
 10
26.1413
 20
-2.4071
 30
0.0
 10
26.1417
 20
-2.3818
 30
0.0
 10
26.1422
 20
-2.3565
 30
0.0
 10
26.1426
 20
-2.3312
 30
0.0
  0
SPLINE
  5
88
330
1F
100
AcDbEntity
  8
AXIS
 62
   250
100
AcDbSpline
210
0.0
220
0.0
230
1.0
 70
    11
 71
     3
 72
    40
 73
    36
 74
     0
 42
0.0000000001
 43
0.0000000001
 40
0.0
 40
0.0
 40
0.0
 40
0.0
 40
0.1
 40
0.1
 40
0.1
 40
0.1
 40
0.2
 40
0.2
 40
0.2
 40
0.2
 40
0.3
 40
0.3
 40
0.3
 40
0.3
 40
0.4
 40
0.4
 40
0.4
 40
0.4
 40
0.5
 40
0.5
 40
0.5
 40
0.5
 40
0.6
 40
0.6
 40
0.6
 40
0.6
 40
0.7
 40
0.7
 40
0.7
 40
0.7
 40
0.8
 40
0.8
 40
0.8
 40
0.8
 40
1.0
 40
1.0
 40
1.0
 40
1.0
 10
17.2582
 20
-16.9601
 30
0.0
 10
17.2582
 20
-16.9601
 30
0.0
 10
17.0103
 20
-16.9601
 30
0.0
 10
17.0103
 20
-16.9601
 30
0.0
 10
17.0103
 20
-16.9601
 30
0.0
 10
17.0103
 20
-16.9601
 30
0.0
 10
17.0103
 20
-15.3797
 30
0.0
 10
17.0103
 20
-15.3797
 30
0.0
 10
17.0103
 20
-15.3797
 30
0.0
 10
16.9505
 20
-15.4366
 30
0.0
 10
16.8725
 20
-15.4935
 30
0.0
 10
16.7756
 20
-15.5504
 30
0.0
 10
16.7756
 20
-15.5504
 30
0.0
 10
16.6782
 20
-15.6073
 30
0.0
 10
16.5912
 20
-15.6501
 30
0.0
 10
16.514
 20
-15.6784
 30
0.0
 10
16.514
 20
-15.6784
 30
0.0
 10
16.514
 20
-15.6784
 30
0.0
 10
16.514
 20
-15.4389
 30
0.0
 10
16.514
 20
-15.4389
 30
0.0
 10
16.514
 20
-15.4389
 30
0.0
 10
16.6528
 20
-15.3736
 30
0.0
 10
16.7742
 20
-15.2945
 30
0.0
 10
16.8781
 20
-15.2019
 30
0.0
 10
16.8781
 20
-15.2019
 30
0.0
 10
16.9816
 20
-15.1087
 30
0.0
 10
17.0554
 20
-15.0189
 30
0.0
 10
17.0987
 20
-14.9314
 30
0.0
 10
17.0987
 20
-14.9314
 30
0.0
 10
17.0987
 20
-14.9314
 30
0.0
 10
17.2582
 20
-14.9314
 30
0.0
 10
17.2582
 20
-14.9314
 30
0.0
 10
17.2582
 20
-14.9314
 30
0.0
 10
17.2582
 20
-14.9314
 30
0.0
 10
17.2582
 20
-16.9601
 30
0.0
 10
17.2582
 20
-16.9601
 30
0.0
  0
SPLINE
  5
89
330
1F
100
AcDbEntity
  8
AXIS
 62
   250
100
AcDbSpline
210
0.0
220
0.0
230
1.0
 70
    11
 71
     3
 72
    48
 73
    44
 74
     0
 42
0.0000000001
 43
0.0000000001
 40
0.0
 40
0.0
 40
0.0
 40
0.0
 40
0.0833333333333333
 40
0.0833333333333333
 40
0.0833333333333333
 40
0.0833333333333333
 40
0.1666666666666667
 40
0.1666666666666667
 40
0.1666666666666667
 40
0.1666666666666667
 40
0.25
 40
0.25
 40
0.25
 40
0.25
 40
0.3333333333333333
 40
0.3333333333333333
 40
0.3333333333333333
 40
0.3333333333333333
 40
0.4166666666666667
 40
0.4166666666666667
 40
0.4166666666666667
 40
0.4166666666666667
 40
0.5
 40
0.5
 40
0.5
 40
0.5
 40
0.5833333333333334
 40
0.5833333333333334
 40
0.5833333333333334
 40
0.5833333333333334
 40
0.6666666666666666
 40
0.6666666666666666
 40
0.6666666666666666
 40
0.6666666666666666
 40
0.75
 40
0.75
 40
0.75
 40
0.75
 40
0.8333333333333334
 40
0.8333333333333334
 40
0.8333333333333334
 40
0.8333333333333334
 40
1.0
 40
1.0
 40
1.0
 40
1.0
 10
17.9101
 20
-15.2047
 30
0.0
 10
17.9101
 20
-15.2047
 30
0.0
 10
17.9101
 20
-14.9662
 30
0.0
 10
17.9101
 20
-14.9662
 30
0.0
 10
17.9101
 20
-14.9662
 30
0.0
 10
17.9101
 20
-14.9662
 30
0.0
 10
19.2177
 20
-14.9662
 30
0.0
 10
19.2177
 20
-14.9662
 30
0.0
 10
19.2177
 20
-14.9662
 30
0.0
 10
19.2177
 20
-14.9662
 30
0.0
 10
19.2177
 20
-15.1591
 30
0.0
 10
19.2177
 20
-15.1591
 30
0.0
 10
19.2177
 20
-15.1591
 30
0.0
 10
19.0893
 20
-15.2959
 30
0.0
 10
18.9618
 20
-15.478
 30
0.0
 10
18.8353
 20
-15.7047
 30
0.0
 10
18.8353
 20
-15.7047
 30
0.0
 10
18.7092
 20
-15.9314
 30
0.0
 10
18.6114
 20
-16.1652
 30
0.0
 10
18.5427
 20
-16.4046
 30
0.0
 10
18.5427
 20
-16.4046
 30
0.0
 10
18.4929
 20
-16.5739
 30
0.0
 10
18.4614
 20
-16.7588
 30
0.0
 10
18.4477
 20
-16.9601
 30
0.0
 10
18.4477
 20
-16.9601
 30
0.0
 10
18.4477
 20
-16.9601
 30
0.0
 10
18.1928
 20
-16.9601
 30
0.0
 10
18.1928
 20
-16.9601
 30
0.0
 10
18.1928
 20
-16.9601
 30
0.0
 10
18.1956
 20
-16.8011
 30
0.0
 10
18.2266
 20
-16.6092
 30
0.0
 10
18.2864
 20
-16.3839
 30
0.0
 10
18.2864
 20
-16.3839
 30
0.0
 10
18.3461
 20
-16.1591
 30
0.0
 10
18.4317
 20
-15.9418
 30
0.0
 10
18.5432
 20
-15.7329
 30
0.0
 10
18.5432
 20
-15.7329
 30
0.0
 10
18.6551
 20
-15.5241
 30
0.0
 10
18.7737
 20
-15.3477
 30
0.0
 10
18.8997
 20
-15.2047
 30
0.0
 10
18.8997
 20
-15.2047
 30
0.0
 10
18.8997
 20
-15.2047
 30
0.0
 10
17.9101
 20
-15.2047
 30
0.0
 10
17.9101
 20
-15.2047
 30
0.0
  0
SPLINE
  5
8A
330
1F
100
AcDbEntity
  8
AXIS
 62
   250
100
AcDbSpline
210
0.0
220
0.0
230
1.0
 70
    11
 71
     3
 72
    40
 73
    36
 74
     0
 42
0.0000000001
 43
0.0000000001
 40
0.0
 40
0.0
 40
0.0
 40
0.0
 40
0.1
 40
0.1
 40
0.1
 40
0.1
 40
0.2
 40
0.2
 40
0.2
 40
0.2
 40
0.3
 40
0.3
 40
0.3
 40
0.3
 40
0.4
 40
0.4
 40
0.4
 40
0.4
 40
0.5
 40
0.5
 40
0.5
 40
0.5
 40
0.6
 40
0.6
 40
0.6
 40
0.6
 40
0.7
 40
0.7
 40
0.7
 40
0.7
 40
0.8
 40
0.8
 40
0.8
 40
0.8
 40
1.0
 40
1.0
 40
1.0
 40
1.0
 10
19.5968
 20
-16.9601
 30
0.0
 10
19.5968
 20
-16.9601
 30
0.0
 10
19.5968
 20
-16.6774
 30
0.0
 10
19.5968
 20
-16.6774
 30
0.0
 10
19.5968
 20
-16.6774
 30
0.0
 10
19.5968
 20
-16.6774
 30
0.0
 10
19.8795
 20
-16.6774
 30
0.0
 10
19.8795
 20
-16.6774
 30
0.0
 10
19.8795
 20
-16.6774
 30
0.0
 10
19.8795
 20
-16.6774
 30
0.0
 10
19.8795
 20
-16.9601
 30
0.0
 10
19.8795
 20
-16.9601
 30
0.0
 10
19.8795
 20
-16.9601
 30
0.0
 10
19.8795
 20
-17.0641
 30
0.0
 10
19.8612
 20
-17.1478
 30
0.0
 10
19.8245
 20
-17.2117
 30
0.0
 10
19.8245
 20
-17.2117
 30
0.0
 10
19.7873
 20
-17.2752
 30
0.0
 10
19.729
 20
-17.3246
 30
0.0
 10
19.6495
 20
-17.3599
 30
0.0
 10
19.6495
 20
-17.3599
 30
0.0
 10
19.6495
 20
-17.3599
 30
0.0
 10
19.5803
 20
-17.2536
 30
0.0
 10
19.5803
 20
-17.2536
 30
0.0
 10
19.5803
 20
-17.2536
 30
0.0
 10
19.6326
 20
-17.2306
 30
0.0
 10
19.6711
 20
-17.1967
 30
0.0
 10
19.6961
 20
-17.1525
 30
0.0
 10
19.6961
 20
-17.1525
 30
0.0
 10
19.721
 20
-17.1078
 30
0.0
 10
19.7346
 20
-17.0438
 30
0.0
 10
19.7374
 20
-16.9601
 30
0.0
 10
19.7374
 20
-16.9601
 30
0.0
 10
19.7374
 20
-16.9601
 30
0.0
 10
19.5968
 20
-16.9601
 30
0.0
 10
19.5968
 20
-16.9601
 30
0.0
  0
SPLINE
  5
8B
330
1F
100
AcDbEntity
  8
AXIS
 62
   250
100
AcDbSpline
210
0.0
220
0.0
230
1.0
 70
    11
 71
     3
 72
    92
 73
    88
 74
     0
 42
0.0000000001
 43
0.0000000001
 40
0.0
 40
0.0
 40
0.0
 40
0.0
 40
0.0434782608695652
 40
0.0434782608695652
 40
0.0434782608695652
 40
0.0434782608695652
 40
0.0869565217391304
 40
0.0869565217391304
 40
0.0869565217391304
 40
0.0869565217391304
 40
0.1304347826086956
 40
0.1304347826086956
 40
0.1304347826086956
 40
0.1304347826086956
 40
0.1739130434782609
 40
0.1739130434782609
 40
0.1739130434782609
 40
0.1739130434782609
 40
0.2173913043478261
 40
0.2173913043478261
 40
0.2173913043478261
 40
0.2173913043478261
 40
0.2608695652173913
 40
0.2608695652173913
 40
0.2608695652173913
 40
0.2608695652173913
 40
0.3043478260869565
 40
0.3043478260869565
 40
0.3043478260869565
 40
0.3043478260869565
 40
0.3478260869565217
 40
0.3478260869565217
 40
0.3478260869565217
 40
0.3478260869565217
 40
0.391304347826087
 40
0.391304347826087
 40
0.391304347826087
 40
0.391304347826087
 40
0.4347826086956522
 40
0.4347826086956522
 40
0.4347826086956522
 40
0.4347826086956522
 40
0.4782608695652174
 40
0.4782608695652174
 40
0.4782608695652174
 40
0.4782608695652174
 40
0.5217391304347826
 40
0.5217391304347826
 40
0.5217391304347826
 40
0.5217391304347826
 40
0.5652173913043478
 40
0.5652173913043478
 40
0.5652173913043478
 40
0.5652173913043478
 40
0.6086956521739131
 40
0.6086956521739131
 40
0.6086956521739131
 40
0.6086956521739131
 40
0.6521739130434783
 40
0.6521739130434783
 40
0.6521739130434783
 40
0.6521739130434783
 40
0.6956521739130435
 40
0.6956521739130435
 40
0.6956521739130435
 40
0.6956521739130435
 40
0.7391304347826086
 40
0.7391304347826086
 40
0.7391304347826086
 40
0.7391304347826086
 40
0.782608695652174
 40
0.782608695652174
 40
0.782608695652174
 40
0.782608695652174
 40
0.8260869565217391
 40
0.8260869565217391
 40
0.8260869565217391
 40
0.8260869565217391
 40
0.8695652173913043
 40
0.8695652173913043
 40
0.8695652173913043
 40
0.8695652173913043
 40
0.9130434782608695
 40
0.9130434782608695
 40
0.9130434782608695
 40
0.9130434782608695
 40
1.0
 40
1.0
 40
1.0
 40
1.0
 10
20.2473
 20
-16.4309
 30
0.0
 10
20.2473
 20
-16.4309
 30
0.0
 10
20.5079
 20
-16.4088
 30
0.0
 10
20.5079
 20
-16.4088
 30
0.0
 10
20.5079
 20
-16.4088
 30
0.0
 10
20.5272
 20
-16.5358
 30
0.0
 10
20.5719
 20
-16.6308
 30
0.0
 10
20.642
 20
-16.6948
 30
0.0
 10
20.642
 20
-16.6948
 30
0.0
 10
20.7125
 20
-16.7588
 30
0.0
 10
20.7972
 20
-16.7908
 30
0.0
 10
20.8964
 20
-16.7908
 30
0.0
 10
20.8964
 20
-16.7908
 30
0.0
 10
21.0159
 20
-16.7908
 30
0.0
 10
21.117
 20
-16.7456
 30
0.0
 10
21.1993
 20
-16.6558
 30
0.0
 10
21.1993
 20
-16.6558
 30
0.0
 10
21.2821
 20
-16.5655
 30
0.0
 10
21.3235
 20
-16.446
 30
0.0
 10
21.3235
 20
-16.2974
 30
0.0
 10
21.3235
 20
-16.2974
 30
0.0
 10
21.3235
 20
-16.1558
 30
0.0
 10
21.284
 20
-16.0443
 30
0.0
 10
21.2045
 20
-15.9625
 30
0.0
 10
21.2045
 20
-15.9625
 30
0.0
 10
21.125
 20
-15.8806
 30
0.0
 10
21.0211
 20
-15.8397
 30
0.0
 10
20.8922
 20
-15.8397
 30
0.0
 10
20.8922
 20
-15.8397
 30
0.0
 10
20.8122
 20
-15.8397
 30
0.0
 10
20.7403
 20
-15.858
 30
0.0
 10
20.6758
 20
-15.8942
 30
0.0
 10
20.6758
 20
-15.8942
 30
0.0
 10
20.6114
 20
-15.9305
 30
0.0
 10
20.5611
 20
-15.9775
 30
0.0
 10
20.5244
 20
-16.0354
 30
0.0
 10
20.5244
 20
-16.0354
 30
0.0
 10
20.5244
 20
-16.0354
 30
0.0
 10
20.2915
 20
-16.0053
 30
0.0
 10
20.2915
 20
-16.0053
 30
0.0
 10
20.2915
 20
-16.0053
 30
0.0
 10
20.2915
 20
-16.0053
 30
0.0
 10
20.4872
 20
-14.9676
 30
0.0
 10
20.4872
 20
-14.9676
 30
0.0
 10
20.4872
 20
-14.9676
 30
0.0
 10
20.4872
 20
-14.9676
 30
0.0
 10
21.4919
 20
-14.9676
 30
0.0
 10
21.4919
 20
-14.9676
 30
0.0
 10
21.4919
 20
-14.9676
 30
0.0
 10
21.4919
 20
-14.9676
 30
0.0
 10
21.4919
 20
-15.2047
 30
0.0
 10
21.4919
 20
-15.2047
 30
0.0
 10
21.4919
 20
-15.2047
 30
0.0
 10
21.4919
 20
-15.2047
 30
0.0
 10
20.6857
 20
-15.2047
 30
0.0
 10
20.6857
 20
-15.2047
 30
0.0
 10
20.6857
 20
-15.2047
 30
0.0
 10
20.6857
 20
-15.2047
 30
0.0
 10
20.5766
 20
-15.7475
 30
0.0
 10
20.5766
 20
-15.7475
 30
0.0
 10
20.5766
 20
-15.7475
 30
0.0
 10
20.6979
 20
-15.6628
 30
0.0
 10
20.8254
 20
-15.6205
 30
0.0
 10
20.9585
 20
-15.6205
 30
0.0
 10
20.9585
 20
-15.6205
 30
0.0
 10
21.1349
 20
-15.6205
 30
0.0
 10
21.2835
 20
-15.6816
 30
0.0
 10
21.4049
 20
-15.8039
 30
0.0
 10
21.4049
 20
-15.8039
 30
0.0
 10
21.5262
 20
-15.9262
 30
0.0
 10
21.5869
 20
-16.0833
 30
0.0
 10
21.5869
 20
-16.2752
 30
0.0
 10
21.5869
 20
-16.2752
 30
0.0
 10
21.5869
 20
-16.4582
 30
0.0
 10
21.5333
 20
-16.6163
 30
0.0
 10
21.427
 20
-16.7494
 30
0.0
 10
21.427
 20
-16.7494
 30
0.0
 10
21.2972
 20
-16.9126
 30
0.0
 10
21.1203
 20
-16.9944
 30
0.0
 10
20.8964
 20
-16.9944
 30
0.0
 10
20.8964
 20
-16.9944
 30
0.0
 10
20.7125
 20
-16.9944
 30
0.0
 10
20.5625
 20
-16.9432
 30
0.0
 10
20.4463
 20
-16.8402
 30
0.0
 10
20.4463
 20
-16.8402
 30
0.0
 10
20.3301
 20
-16.7371
 30
0.0
 10
20.2638
 20
-16.6007
 30
0.0
 10
20.2473
 20
-16.4309
 30
0.0
  0
SPLINE
  5
8C
330
1F
100
AcDbEntity
  8
AXIS
 62
   250
100
AcDbSpline
210
0.0
220
0.0
230
1.0
 70
    11
 71
     3
 72
    92
 73
    88
 74
     0
 42
0.0000000001
 43
0.0000000001
 40
0.0
 40
0.0
 40
0.0
 40
0.0
 40
0.0434782608695652
 40
0.0434782608695652
 40
0.0434782608695652
 40
0.0434782608695652
 40
0.0869565217391304
 40
0.0869565217391304
 40
0.0869565217391304
 40
0.0869565217391304
 40
0.1304347826086956
 40
0.1304347826086956
 40
0.1304347826086956
 40
0.1304347826086956
 40
0.1739130434782609
 40
0.1739130434782609
 40
0.1739130434782609
 40
0.1739130434782609
 40
0.2173913043478261
 40
0.2173913043478261
 40
0.2173913043478261
 40
0.2173913043478261
 40
0.2608695652173913
 40
0.2608695652173913
 40
0.2608695652173913
 40
0.2608695652173913
 40
0.3043478260869565
 40
0.3043478260869565
 40
0.3043478260869565
 40
0.3043478260869565
 40
0.3478260869565217
 40
0.3478260869565217
 40
0.3478260869565217
 40
0.3478260869565217
 40
0.391304347826087
 40
0.391304347826087
 40
0.391304347826087
 40
0.391304347826087
 40
0.4347826086956522
 40
0.4347826086956522
 40
0.4347826086956522
 40
0.4347826086956522
 40
0.4782608695652174
 40
0.4782608695652174
 40
0.4782608695652174
 40
0.4782608695652174
 40
0.5217391304347826
 40
0.5217391304347826
 40
0.5217391304347826
 40
0.5217391304347826
 40
0.5652173913043478
 40
0.5652173913043478
 40
0.5652173913043478
 40
0.5652173913043478
 40
0.6086956521739131
 40
0.6086956521739131
 40
0.6086956521739131
 40
0.6086956521739131
 40
0.6521739130434783
 40
0.6521739130434783
 40
0.6521739130434783
 40
0.6521739130434783
 40
0.6956521739130435
 40
0.6956521739130435
 40
0.6956521739130435
 40
0.6956521739130435
 40
0.7391304347826086
 40
0.7391304347826086
 40
0.7391304347826086
 40
0.7391304347826086
 40
0.782608695652174
 40
0.782608695652174
 40
0.782608695652174
 40
0.782608695652174
 40
0.8260869565217391
 40
0.8260869565217391
 40
0.8260869565217391
 40
0.8260869565217391
 40
0.8695652173913043
 40
0.8695652173913043
 40
0.8695652173913043
 40
0.8695652173913043
 40
0.9130434782608695
 40
0.9130434782608695
 40
0.9130434782608695
 40
0.9130434782608695
 40
1.0
 40
1.0
 40
1.0
 40
1.0
 10
-5.5164
 20
16.5745
 30
0.0
 10
-5.5164
 20
16.5745
 30
0.0
 10
-5.5164
 20
16.336
 30
0.0
 10
-5.5164
 20
16.336
 30
0.0
 10
-5.5164
 20
16.336
 30
0.0
 10
-5.5164
 20
16.336
 30
0.0
 10
-6.8518
 20
16.336
 30
0.0
 10
-6.8518
 20
16.336
 30
0.0
 10
-6.8518
 20
16.336
 30
0.0
 10
-6.8537
 20
16.3957
 30
0.0
 10
-6.8443
 20
16.4531
 30
0.0
 10
-6.8231
 20
16.5082
 30
0.0
 10
-6.8231
 20
16.5082
 30
0.0
 10
-6.7892
 20
16.5994
 30
0.0
 10
-6.7347
 20
16.6888
 30
0.0
 10
-6.6599
 20
16.7772
 30
0.0
 10
-6.6599
 20
16.7772
 30
0.0
 10
-6.5846
 20
16.8652
 30
0.0
 10
-6.4764
 20
16.9672
 30
0.0
 10
-6.3353
 20
17.0829
 30
0.0
 10
-6.3353
 20
17.0829
 30
0.0
 10
-6.1157
 20
17.2631
 30
0.0
 10
-5.967
 20
17.4056
 30
0.0
 10
-5.8899
 20
17.511
 30
0.0
 10
-5.8899
 20
17.511
 30
0.0
 10
-5.8128
 20
17.6159
 30
0.0
 10
-5.7742
 20
17.7156
 30
0.0
 10
-5.7742
 20
17.8092
 30
0.0
 10
-5.7742
 20
17.8092
 30
0.0
 10
-5.7742
 20
17.9075
 30
0.0
 10
-5.8095
 20
17.9903
 30
0.0
 10
-5.8795
 20
18.058
 30
0.0
 10
-5.8795
 20
18.058
 30
0.0
 10
-5.9501
 20
18.1253
 30
0.0
 10
-6.0418
 20
18.1591
 30
0.0
 10
-6.1547
 20
18.1591
 30
0.0
 10
-6.1547
 20
18.1591
 30
0.0
 10
-6.2742
 20
18.1591
 30
0.0
 10
-6.3697
 20
18.1234
 30
0.0
 10
-6.4412
 20
18.0514
 30
0.0
 10
-6.4412
 20
18.0514
 30
0.0
 10
-6.5131
 20
17.9799
 30
0.0
 10
-6.5493
 20
17.8807
 30
0.0
 10
-6.5503
 20
17.7542
 30
0.0
 10
-6.5503
 20
17.7542
 30
0.0
 10
-6.5503
 20
17.7542
 30
0.0
 10
-6.8052
 20
17.78
 30
0.0
 10
-6.8052
 20
17.78
 30
0.0
 10
-6.8052
 20
17.78
 30
0.0
 10
-6.7878
 20
17.9705
 30
0.0
 10
-6.722
 20
18.1154
 30
0.0
 10
-6.6081
 20
18.2151
 30
0.0
 10
-6.6081
 20
18.2151
 30
0.0
 10
-6.4943
 20
18.3148
 30
0.0
 10
-6.341
 20
18.3647
 30
0.0
 10
-6.1491
 20
18.3647
 30
0.0
 10
-6.1491
 20
18.3647
 30
0.0
 10
-5.9553
 20
18.3647
 30
0.0
 10
-5.8019
 20
18.3106
 30
0.0
 10
-5.689
 20
18.2034
 30
0.0
 10
-5.689
 20
18.2034
 30
0.0
 10
-5.5757
 20
18.0956
 30
0.0
 10
-5.5192
 20
17.9625
 30
0.0
 10
-5.5192
 20
17.8035
 30
0.0
 10
-5.5192
 20
17.8035
 30
0.0
 10
-5.5192
 20
17.7226
 30
0.0
 10
-5.5357
 20
17.6431
 30
0.0
 10
-5.5691
 20
17.5651
 30
0.0
 10
-5.5691
 20
17.5651
 30
0.0
 10
-5.602
 20
17.487
 30
0.0
 10
-5.6571
 20
17.4047
 30
0.0
 10
-5.7337
 20
17.3186
 30
0.0
 10
-5.7337
 20
17.3186
 30
0.0
 10
-5.8104
 20
17.232
 30
0.0
 10
-5.9379
 20
17.1135
 30
0.0
 10
-6.1161
 20
16.963
 30
0.0
 10
-6.1161
 20
16.963
 30
0.0
 10
-6.2648
 20
16.8379
 30
0.0
 10
-6.3603
 20
16.7532
 30
0.0
 10
-6.4026
 20
16.7085
 30
0.0
 10
-6.4026
 20
16.7085
 30
0.0
 10
-6.4449
 20
16.6643
 30
0.0
 10
-6.4797
 20
16.6196
 30
0.0
 10
-6.5075
 20
16.5745
 30
0.0
 10
-6.5075
 20
16.5745
 30
0.0
 10
-6.5075
 20
16.5745
 30
0.0
 10
-5.5164
 20
16.5745
 30
0.0
 10
-5.5164
 20
16.5745
 30
0.0
  0
SPLINE
  5
8D
330
1F
100
AcDbEntity
  8
AXIS
 62
   250
100
AcDbSpline
210
0.0
220
0.0
230
1.0
 70
    11
 71
     3
 72
    48
 73
    44
 74
     0
 42
0.0000000001
 43
0.0000000001
 40
0.0
 40
0.0
 40
0.0
 40
0.0
 40
0.0833333333333333
 40
0.0833333333333333
 40
0.0833333333333333
 40
0.0833333333333333
 40
0.1666666666666667
 40
0.1666666666666667
 40
0.1666666666666667
 40
0.1666666666666667
 40
0.25
 40
0.25
 40
0.25
 40
0.25
 40
0.3333333333333333
 40
0.3333333333333333
 40
0.3333333333333333
 40
0.3333333333333333
 40
0.4166666666666667
 40
0.4166666666666667
 40
0.4166666666666667
 40
0.4166666666666667
 40
0.5
 40
0.5
 40
0.5
 40
0.5
 40
0.5833333333333334
 40
0.5833333333333334
 40
0.5833333333333334
 40
0.5833333333333334
 40
0.6666666666666666
 40
0.6666666666666666
 40
0.6666666666666666
 40
0.6666666666666666
 40
0.75
 40
0.75
 40
0.75
 40
0.75
 40
0.8333333333333334
 40
0.8333333333333334
 40
0.8333333333333334
 40
0.8333333333333334
 40
1.0
 40
1.0
 40
1.0
 40
1.0
 10
-4.4558
 20
16.336
 30
0.0
 10
-4.4558
 20
16.336
 30
0.0
 10
-4.4558
 20
16.8195
 30
0.0
 10
-4.4558
 20
16.8195
 30
0.0
 10
-4.4558
 20
16.8195
 30
0.0
 10
-4.4558
 20
16.8195
 30
0.0
 10
-5.3321
 20
16.8195
 30
0.0
 10
-5.3321
 20
16.8195
 30
0.0
 10
-5.3321
 20
16.8195
 30
0.0
 10
-5.3321
 20
16.8195
 30
0.0
 10
-5.3321
 20
17.0472
 30
0.0
 10
-5.3321
 20
17.0472
 30
0.0
 10
-5.3321
 20
17.0472
 30
0.0
 10
-5.3321
 20
17.0472
 30
0.0
 10
-4.4101
 20
18.3562
 30
0.0
 10
-4.4101
 20
18.3562
 30
0.0
 10
-4.4101
 20
18.3562
 30
0.0
 10
-4.4101
 20
18.3562
 30
0.0
 10
-4.2074
 20
18.3562
 30
0.0
 10
-4.2074
 20
18.3562
 30
0.0
 10
-4.2074
 20
18.3562
 30
0.0
 10
-4.2074
 20
18.3562
 30
0.0
 10
-4.2074
 20
17.0472
 30
0.0
 10
-4.2074
 20
17.0472
 30
0.0
 10
-4.2074
 20
17.0472
 30
0.0
 10
-4.2074
 20
17.0472
 30
0.0
 10
-3.9346
 20
17.0472
 30
0.0
 10
-3.9346
 20
17.0472
 30
0.0
 10
-3.9346
 20
17.0472
 30
0.0
 10
-3.9346
 20
17.0472
 30
0.0
 10
-3.9346
 20
16.8195
 30
0.0
 10
-3.9346
 20
16.8195
 30
0.0
 10
-3.9346
 20
16.8195
 30
0.0
 10
-3.9346
 20
16.8195
 30
0.0
 10
-4.2074
 20
16.8195
 30
0.0
 10
-4.2074
 20
16.8195
 30
0.0
 10
-4.2074
 20
16.8195
 30
0.0
 10
-4.2074
 20
16.8195
 30
0.0
 10
-4.2074
 20
16.336
 30
0.0
 10
-4.2074
 20
16.336
 30
0.0
 10
-4.2074
 20
16.336
 30
0.0
 10
-4.2074
 20
16.336
 30
0.0
 10
-4.4558
 20
16.336
 30
0.0
 10
-4.4558
 20
16.336
 30
0.0
  0
SPLINE
  5
8E
330
1F
100
AcDbEntity
  8
AXIS
 62
   250
100
AcDbSpline
210
0.0
220
0.0
230
1.0
 70
    11
 71
     3
 72
    16
 73
    12
 74
     0
 42
0.0000000001
 43
0.0000000001
 40
0.0
 40
0.0
 40
0.0
 40
0.0
 40
0.25
 40
0.25
 40
0.25
 40
0.25
 40
0.5
 40
0.5
 40
0.5
 40
0.5
 40
1.0
 40
1.0
 40
1.0
 40
1.0
 10
-4.4558
 20
17.0472
 30
0.0
 10
-4.4558
 20
17.0472
 30
0.0
 10
-4.4558
 20
17.9578
 30
0.0
 10
-4.4558
 20
17.9578
 30
0.0
 10
-4.4558
 20
17.9578
 30
0.0
 10
-4.4558
 20
17.9578
 30
0.0
 10
-5.0879
 20
17.0472
 30
0.0
 10
-5.0879
 20
17.0472
 30
0.0
 10
-5.0879
 20
17.0472
 30
0.0
 10
-5.0879
 20
17.0472
 30
0.0
 10
-4.4558
 20
17.0472
 30
0.0
 10
-4.4558
 20
17.0472
 30
0.0
  0
SPLINE
  5
8F
330
1F
100
AcDbEntity
  8
AXIS
 62
   250
100
AcDbSpline
210
0.0
220
0.0
230
1.0
 70
    11
 71
     3
 72
    48
 73
    44
 74
     0
 42
0.0000000001
 43
0.0000000001
 40
0.0
 40
0.0
 40
0.0
 40
0.0
 40
0.0833333333333333
 40
0.0833333333333333
 40
0.0833333333333333
 40
0.0833333333333333
 40
0.1666666666666667
 40
0.1666666666666667
 40
0.1666666666666667
 40
0.1666666666666667
 40
0.25
 40
0.25
 40
0.25
 40
0.25
 40
0.3333333333333333
 40
0.3333333333333333
 40
0.3333333333333333
 40
0.3333333333333333
 40
0.4166666666666667
 40
0.4166666666666667
 40
0.4166666666666667
 40
0.4166666666666667
 40
0.5
 40
0.5
 40
0.5
 40
0.5
 40
0.5833333333333334
 40
0.5833333333333334
 40
0.5833333333333334
 40
0.5833333333333334
 40
0.6666666666666666
 40
0.6666666666666666
 40
0.6666666666666666
 40
0.6666666666666666
 40
0.75
 40
0.75
 40
0.75
 40
0.75
 40
0.8333333333333334
 40
0.8333333333333334
 40
0.8333333333333334
 40
0.8333333333333334
 40
1.0
 40
1.0
 40
1.0
 40
1.0
 10
-3.6646
 20
18.0914
 30
0.0
 10
-3.6646
 20
18.0914
 30
0.0
 10
-3.6646
 20
18.3299
 30
0.0
 10
-3.6646
 20
18.3299
 30
0.0
 10
-3.6646
 20
18.3299
 30
0.0
 10
-3.6646
 20
18.3299
 30
0.0
 10
-2.357
 20
18.3299
 30
0.0
 10
-2.357
 20
18.3299
 30
0.0
 10
-2.357
 20
18.3299
 30
0.0
 10
-2.357
 20
18.3299
 30
0.0
 10
-2.357
 20
18.137
 30
0.0
 10
-2.357
 20
18.137
 30
0.0
 10
-2.357
 20
18.137
 30
0.0
 10
-2.4854
 20
18.0002
 30
0.0
 10
-2.6129
 20
17.8181
 30
0.0
 10
-2.7394
 20
17.5914
 30
0.0
 10
-2.7394
 20
17.5914
 30
0.0
 10
-2.8655
 20
17.3647
 30
0.0
 10
-2.9633
 20
17.1309
 30
0.0
 10
-3.032
 20
16.8915
 30
0.0
 10
-3.032
 20
16.8915
 30
0.0
 10
-3.0818
 20
16.7222
 30
0.0
 10
-3.1133
 20
16.5373
 30
0.0
 10
-3.127
 20
16.336
 30
0.0
 10
-3.127
 20
16.336
 30
0.0
 10
-3.127
 20
16.336
 30
0.0
 10
-3.3819
 20
16.336
 30
0.0
 10
-3.3819
 20
16.336
 30
0.0
 10
-3.3819
 20
16.336
 30
0.0
 10
-3.3791
 20
16.495
 30
0.0
 10
-3.3481
 20
16.6869
 30
0.0
 10
-3.2883
 20
16.9122
 30
0.0
 10
-3.2883
 20
16.9122
 30
0.0
 10
-3.2286
 20
17.137
 30
0.0
 10
-3.143
 20
17.3543
 30
0.0
 10
-3.0315
 20
17.5632
 30
0.0
 10
-3.0315
 20
17.5632
 30
0.0
 10
-2.9196
 20
17.772
 30
0.0
 10
-2.801
 20
17.9484
 30
0.0
 10
-2.675
 20
18.0914
 30
0.0
 10
-2.675
 20
18.0914
 30
0.0
 10
-2.675
 20
18.0914
 30
0.0
 10
-3.6646
 20
18.0914
 30
0.0
 10
-3.6646
 20
18.0914
 30
0.0
  0
SPLINE
  5
90
330
1F
100
AcDbEntity
  8
AXIS
 62
   250
100
AcDbSpline
210
0.0
220
0.0
230
1.0
 70
    11
 71
     3
 72
    40
 73
    36
 74
     0
 42
0.0000000001
 43
0.0000000001
 40
0.0
 40
0.0
 40
0.0
 40
0.0
 40
0.1
 40
0.1
 40
0.1
 40
0.1
 40
0.2
 40
0.2
 40
0.2
 40
0.2
 40
0.3
 40
0.3
 40
0.3
 40
0.3
 40
0.4
 40
0.4
 40
0.4
 40
0.4
 40
0.5
 40
0.5
 40
0.5
 40
0.5
 40
0.6
 40
0.6
 40
0.6
 40
0.6
 40
0.7
 40
0.7
 40
0.7
 40
0.7
 40
0.8
 40
0.8
 40
0.8
 40
0.8
 40
1.0
 40
1.0
 40
1.0
 40
1.0
 10
-5.1102
 20
-16.8851
 30
0.0
 10
-5.1102
 20
-16.8851
 30
0.0
 10
-5.3581
 20
-16.8851
 30
0.0
 10
-5.3581
 20
-16.8851
 30
0.0
 10
-5.3581
 20
-16.8851
 30
0.0
 10
-5.3581
 20
-16.8851
 30
0.0
 10
-5.3581
 20
-15.3047
 30
0.0
 10
-5.3581
 20
-15.3047
 30
0.0
 10
-5.3581
 20
-15.3047
 30
0.0
 10
-5.4179
 20
-15.3616
 30
0.0
 10
-5.4959
 20
-15.4185
 30
0.0
 10
-5.5928
 20
-15.4754
 30
0.0
 10
-5.5928
 20
-15.4754
 30
0.0
 10
-5.6902
 20
-15.5323
 30
0.0
 10
-5.7772
 20
-15.5751
 30
0.0
 10
-5.8544
 20
-15.6034
 30
0.0
 10
-5.8544
 20
-15.6034
 30
0.0
 10
-5.8544
 20
-15.6034
 30
0.0
 10
-5.8544
 20
-15.3639
 30
0.0
 10
-5.8544
 20
-15.3639
 30
0.0
 10
-5.8544
 20
-15.3639
 30
0.0
 10
-5.7156
 20
-15.2986
 30
0.0
 10
-5.5942
 20
-15.2195
 30
0.0
 10
-5.4903
 20
-15.1269
 30
0.0
 10
-5.4903
 20
-15.1269
 30
0.0
 10
-5.3868
 20
-15.0337
 30
0.0
 10
-5.313
 20
-14.9439
 30
0.0
 10
-5.2697
 20
-14.8564
 30
0.0
 10
-5.2697
 20
-14.8564
 30
0.0
 10
-5.2697
 20
-14.8564
 30
0.0
 10
-5.1102
 20
-14.8564
 30
0.0
 10
-5.1102
 20
-14.8564
 30
0.0
 10
-5.1102
 20
-14.8564
 30
0.0
 10
-5.1102
 20
-14.8564
 30
0.0
 10
-5.1102
 20
-16.8851
 30
0.0
 10
-5.1102
 20
-16.8851
 30
0.0
  0
SPLINE
  5
91
330
1F
100
AcDbEntity
  8
AXIS
 62
   250
100
AcDbSpline
210
0.0
220
0.0
230
1.0
 70
    11
 71
     3
 72
    48
 73
    44
 74
     0
 42
0.0000000001
 43
0.0000000001
 40
0.0
 40
0.0
 40
0.0
 40
0.0
 40
0.0833333333333333
 40
0.0833333333333333
 40
0.0833333333333333
 40
0.0833333333333333
 40
0.1666666666666667
 40
0.1666666666666667
 40
0.1666666666666667
 40
0.1666666666666667
 40
0.25
 40
0.25
 40
0.25
 40
0.25
 40
0.3333333333333333
 40
0.3333333333333333
 40
0.3333333333333333
 40
0.3333333333333333
 40
0.4166666666666667
 40
0.4166666666666667
 40
0.4166666666666667
 40
0.4166666666666667
 40
0.5
 40
0.5
 40
0.5
 40
0.5
 40
0.5833333333333334
 40
0.5833333333333334
 40
0.5833333333333334
 40
0.5833333333333334
 40
0.6666666666666666
 40
0.6666666666666666
 40
0.6666666666666666
 40
0.6666666666666666
 40
0.75
 40
0.75
 40
0.75
 40
0.75
 40
0.8333333333333334
 40
0.8333333333333334
 40
0.8333333333333334
 40
0.8333333333333334
 40
1.0
 40
1.0
 40
1.0
 40
1.0
 10
-4.4583
 20
-15.1297
 30
0.0
 10
-4.4583
 20
-15.1297
 30
0.0
 10
-4.4583
 20
-14.8912
 30
0.0
 10
-4.4583
 20
-14.8912
 30
0.0
 10
-4.4583
 20
-14.8912
 30
0.0
 10
-4.4583
 20
-14.8912
 30
0.0
 10
-3.1507
 20
-14.8912
 30
0.0
 10
-3.1507
 20
-14.8912
 30
0.0
 10
-3.1507
 20
-14.8912
 30
0.0
 10
-3.1507
 20
-14.8912
 30
0.0
 10
-3.1507
 20
-15.0841
 30
0.0
 10
-3.1507
 20
-15.0841
 30
0.0
 10
-3.1507
 20
-15.0841
 30
0.0
 10
-3.2791
 20
-15.2209
 30
0.0
 10
-3.4066
 20
-15.403
 30
0.0
 10
-3.5331
 20
-15.6297
 30
0.0
 10
-3.5331
 20
-15.6297
 30
0.0
 10
-3.6592
 20
-15.8564
 30
0.0
 10
-3.757
 20
-16.0902
 30
0.0
 10
-3.8257
 20
-16.3296
 30
0.0
 10
-3.8257
 20
-16.3296
 30
0.0
 10
-3.8755
 20
-16.4989
 30
0.0
 10
-3.907
 20
-16.6838
 30
0.0
 10
-3.9207
 20
-16.8851
 30
0.0
 10
-3.9207
 20
-16.8851
 30
0.0
 10
-3.9207
 20
-16.8851
 30
0.0
 10
-4.1756
 20
-16.8851
 30
0.0
 10
-4.1756
 20
-16.8851
 30
0.0
 10
-4.1756
 20
-16.8851
 30
0.0
 10
-4.1728
 20
-16.7261
 30
0.0
 10
-4.1418
 20
-16.5342
 30
0.0
 10
-4.082
 20
-16.3089
 30
0.0
 10
-4.082
 20
-16.3089
 30
0.0
 10
-4.0223
 20
-16.0841
 30
0.0
 10
-3.9367
 20
-15.8668
 30
0.0
 10
-3.8252
 20
-15.6579
 30
0.0
 10
-3.8252
 20
-15.6579
 30
0.0
 10
-3.7133
 20
-15.4491
 30
0.0
 10
-3.5947
 20
-15.2727
 30
0.0
 10
-3.4687
 20
-15.1297
 30
0.0
 10
-3.4687
 20
-15.1297
 30
0.0
 10
-3.4687
 20
-15.1297
 30
0.0
 10
-4.4583
 20
-15.1297
 30
0.0
 10
-4.4583
 20
-15.1297
 30
0.0
  0
SPLINE
  5
92
330
1F
100
AcDbEntity
  8
AXIS
 62
   250
100
AcDbSpline
210
0.0
220
0.0
230
1.0
 70
    11
 71
     3
 72
    48
 73
    44
 74
     0
 42
0.0000000001
 43
0.0000000001
 40
0.0
 40
0.0
 40
0.0
 40
0.0
 40
0.0833333333333333
 40
0.0833333333333333
 40
0.0833333333333333
 40
0.0833333333333333
 40
0.1666666666666667
 40
0.1666666666666667
 40
0.1666666666666667
 40
0.1666666666666667
 40
0.25
 40
0.25
 40
0.25
 40
0.25
 40
0.3333333333333333
 40
0.3333333333333333
 40
0.3333333333333333
 40
0.3333333333333333
 40
0.4166666666666667
 40
0.4166666666666667
 40
0.4166666666666667
 40
0.4166666666666667
 40
0.5
 40
0.5
 40
0.5
 40
0.5
 40
0.5833333333333334
 40
0.5833333333333334
 40
0.5833333333333334
 40
0.5833333333333334
 40
0.6666666666666666
 40
0.6666666666666666
 40
0.6666666666666666
 40
0.6666666666666666
 40
0.75
 40
0.75
 40
0.75
 40
0.75
 40
0.8333333333333334
 40
0.8333333333333334
 40
0.8333333333333334
 40
0.8333333333333334
 40
1.0
 40
1.0
 40
1.0
 40
1.0
 10
-2.1103
 20
-16.8851
 30
0.0
 10
-2.1103
 20
-16.8851
 30
0.0
 10
-2.1103
 20
-16.4016
 30
0.0
 10
-2.1103
 20
-16.4016
 30
0.0
 10
-2.1103
 20
-16.4016
 30
0.0
 10
-2.1103
 20
-16.4016
 30
0.0
 10
-2.9866
 20
-16.4016
 30
0.0
 10
-2.9866
 20
-16.4016
 30
0.0
 10
-2.9866
 20
-16.4016
 30
0.0
 10
-2.9866
 20
-16.4016
 30
0.0
 10
-2.9866
 20
-16.1739
 30
0.0
 10
-2.9866
 20
-16.1739
 30
0.0
 10
-2.9866
 20
-16.1739
 30
0.0
 10
-2.9866
 20
-16.1739
 30
0.0
 10
-2.0646
 20
-14.8649
 30
0.0
 10
-2.0646
 20
-14.8649
 30
0.0
 10
-2.0646
 20
-14.8649
 30
0.0
 10
-2.0646
 20
-14.8649
 30
0.0
 10
-1.8619
 20
-14.8649
 30
0.0
 10
-1.8619
 20
-14.8649
 30
0.0
 10
-1.8619
 20
-14.8649
 30
0.0
 10
-1.8619
 20
-14.8649
 30
0.0
 10
-1.8619
 20
-16.1739
 30
0.0
 10
-1.8619
 20
-16.1739
 30
0.0
 10
-1.8619
 20
-16.1739
 30
0.0
 10
-1.8619
 20
-16.1739
 30
0.0
 10
-1.5891
 20
-16.1739
 30
0.0
 10
-1.5891
 20
-16.1739
 30
0.0
 10
-1.5891
 20
-16.1739
 30
0.0
 10
-1.5891
 20
-16.1739
 30
0.0
 10
-1.5891
 20
-16.4016
 30
0.0
 10
-1.5891
 20
-16.4016
 30
0.0
 10
-1.5891
 20
-16.4016
 30
0.0
 10
-1.5891
 20
-16.4016
 30
0.0
 10
-1.8619
 20
-16.4016
 30
0.0
 10
-1.8619
 20
-16.4016
 30
0.0
 10
-1.8619
 20
-16.4016
 30
0.0
 10
-1.8619
 20
-16.4016
 30
0.0
 10
-1.8619
 20
-16.8851
 30
0.0
 10
-1.8619
 20
-16.8851
 30
0.0
 10
-1.8619
 20
-16.8851
 30
0.0
 10
-1.8619
 20
-16.8851
 30
0.0
 10
-2.1103
 20
-16.8851
 30
0.0
 10
-2.1103
 20
-16.8851
 30
0.0
  0
SPLINE
  5
93
330
1F
100
AcDbEntity
  8
AXIS
 62
   250
100
AcDbSpline
210
0.0
220
0.0
230
1.0
 70
    11
 71
     3
 72
    16
 73
    12
 74
     0
 42
0.0000000001
 43
0.0000000001
 40
0.0
 40
0.0
 40
0.0
 40
0.0
 40
0.25
 40
0.25
 40
0.25
 40
0.25
 40
0.5
 40
0.5
 40
0.5
 40
0.5
 40
1.0
 40
1.0
 40
1.0
 40
1.0
 10
-2.1103
 20
-16.1739
 30
0.0
 10
-2.1103
 20
-16.1739
 30
0.0
 10
-2.1103
 20
-15.2633
 30
0.0
 10
-2.1103
 20
-15.2633
 30
0.0
 10
-2.1103
 20
-15.2633
 30
0.0
 10
-2.1103
 20
-15.2633
 30
0.0
 10
-2.7424
 20
-16.1739
 30
0.0
 10
-2.7424
 20
-16.1739
 30
0.0
 10
-2.7424
 20
-16.1739
 30
0.0
 10
-2.7424
 20
-16.1739
 30
0.0
 10
-2.1103
 20
-16.1739
 30
0.0
 10
-2.1103
 20
-16.1739
 30
0.0
  0
SPLINE
  5
94
330
1F
100
AcDbEntity
  8
AXIS
 62
   250
100
AcDbSpline
210
0.0
220
0.0
230
1.0
 70
    11
 71
     3
 72
    40
 73
    36
 74
     0
 42
0.0000000001
 43
0.0000000001
 40
0.0
 40
0.0
 40
0.0
 40
0.0
 40
0.1
 40
0.1
 40
0.1
 40
0.1
 40
0.2
 40
0.2
 40
0.2
 40
0.2
 40
0.3
 40
0.3
 40
0.3
 40
0.3
 40
0.4
 40
0.4
 40
0.4
 40
0.4
 40
0.5
 40
0.5
 40
0.5
 40
0.5
 40
0.6
 40
0.6
 40
0.6
 40
0.6
 40
0.7
 40
0.7
 40
0.7
 40
0.7
 40
0.8
 40
0.8
 40
0.8
 40
0.8
 40
1.0
 40
1.0
 40
1.0
 40
1.0
 10
-27.625
 20
-1.33
 30
0.0
 10
-27.625
 20
-1.33
 30
0.0
 10
-27.625
 20
-1.5779
 30
0.0
 10
-27.625
 20
-1.5779
 30
0.0
 10
-27.625
 20
-1.5779
 30
0.0
 10
-27.625
 20
-1.5779
 30
0.0
 10
-29.2054
 20
-1.5779
 30
0.0
 10
-29.2054
 20
-1.5779
 30
0.0
 10
-29.2054
 20
-1.5779
 30
0.0
 10
-29.1485
 20
-1.6377
 30
0.0
 10
-29.0916
 20
-1.7157
 30
0.0
 10
-29.0347
 20
-1.8126
 30
0.0
 10
-29.0347
 20
-1.8126
 30
0.0
 10
-28.9778
 20
-1.91
 30
0.0
 10
-28.935
 20
-1.997
 30
0.0
 10
-28.9067
 20
-2.0742
 30
0.0
 10
-28.9067
 20
-2.0742
 30
0.0
 10
-28.9067
 20
-2.0742
 30
0.0
 10
-29.1462
 20
-2.0742
 30
0.0
 10
-29.1462
 20
-2.0742
 30
0.0
 10
-29.1462
 20
-2.0742
 30
0.0
 10
-29.2115
 20
-1.9354
 30
0.0
 10
-29.2906
 20
-1.814
 30
0.0
 10
-29.3832
 20
-1.7101
 30
0.0
 10
-29.3832
 20
-1.7101
 30
0.0
 10
-29.4764
 20
-1.6066
 30
0.0
 10
-29.5662
 20
-1.5328
 30
0.0
 10
-29.6537
 20
-1.4895
 30
0.0
 10
-29.6537
 20
-1.4895
 30
0.0
 10
-29.6537
 20
-1.4895
 30
0.0
 10
-29.6537
 20
-1.33
 30
0.0
 10
-29.6537
 20
-1.33
 30
0.0
 10
-29.6537
 20
-1.33
 30
0.0
 10
-29.6537
 20
-1.33
 30
0.0
 10
-27.625
 20
-1.33
 30
0.0
 10
-27.625
 20
-1.33
 30
0.0
  0
SPLINE
  5
95
330
1F
100
AcDbEntity
  8
AXIS
 62
   250
100
AcDbSpline
210
0.0
220
0.0
230
1.0
 70
    11
 71
     3
 72
    80
 73
    76
 74
     0
 42
0.0000000001
 43
0.0000000001
 40
0.0
 40
0.0
 40
0.0
 40
0.0
 40
0.05
 40
0.05
 40
0.05
 40
0.05
 40
0.1
 40
0.1
 40
0.1
 40
0.1
 40
0.15
 40
0.15
 40
0.15
 40
0.15
 40
0.2
 40
0.2
 40
0.2
 40
0.2
 40
0.25
 40
0.25
 40
0.25
 40
0.25
 40
0.3
 40
0.3
 40
0.3
 40
0.3
 40
0.35
 40
0.35
 40
0.35
 40
0.35
 40
0.4
 40
0.4
 40
0.4
 40
0.4
 40
0.45
 40
0.45
 40
0.45
 40
0.45
 40
0.5
 40
0.5
 40
0.5
 40
0.5
 40
0.55
 40
0.55
 40
0.55
 40
0.55
 40
0.6
 40
0.6
 40
0.6
 40
0.6
 40
0.65
 40
0.65
 40
0.65
 40
0.65
 40
0.7
 40
0.7
 40
0.7
 40
0.7
 40
0.75
 40
0.75
 40
0.75
 40
0.75
 40
0.8
 40
0.8
 40
0.8
 40
0.8
 40
0.85
 40
0.85
 40
0.85
 40
0.85
 40
0.9
 40
0.9
 40
0.9
 40
0.9
 40
1.0
 40
1.0
 40
1.0
 40
1.0
 10
-29.1504
 20
0.5923
 30
0.0
 10
-29.1504
 20
0.5923
 30
0.0
 10
-29.1311
 20
0.3459
 30
0.0
 10
-29.1311
 20
0.3459
 30
0.0
 10
-29.1311
 20
0.3459
 30
0.0
 10
-29.2285
 20
0.3238
 30
0.0
 10
-29.2995
 20
0.2927
 30
0.0
 10
-29.3432
 20
0.2523
 30
0.0
 10
-29.3432
 20
0.2523
 30
0.0
 10
-29.4143
 20
0.185
 30
0.0
 10
-29.4496
 20
0.1022
 30
0.0
 10
-29.4496
 20
0.0039
 30
0.0
 10
-29.4496
 20
0.0039
 30
0.0
 10
-29.4496
 20
-0.0751
 30
0.0
 10
-29.4274
 20
-0.1442
 30
0.0
 10
-29.3832
 20
-0.204
 30
0.0
 10
-29.3832
 20
-0.204
 30
0.0
 10
-29.3263
 20
-0.2821
 30
0.0
 10
-29.2431
 20
-0.3437
 30
0.0
 10
-29.1339
 20
-0.3888
 30
0.0
 10
-29.1339
 20
-0.3888
 30
0.0
 10
-29.0248
 20
-0.4335
 30
0.0
 10
-28.8691
 20
-0.457
 30
0.0
 10
-28.6669
 20
-0.4589
 30
0.0
 10
-28.6669
 20
-0.4589
 30
0.0
 10
-28.7576
 20
-0.3992
 30
0.0
 10
-28.8254
 20
-0.3263
 30
0.0
 10
-28.8696
 20
-0.2397
 30
0.0
 10
-28.8696
 20
-0.2397
 30
0.0
 10
-28.9133
 20
-0.1537
 30
0.0
 10
-28.9354
 20
-0.0629
 30
0.0
 10
-28.9354
 20
0.0317
 30
0.0
 10
-28.9354
 20
0.0317
 30
0.0
 10
-28.9354
 20
0.1972
 30
0.0
 10
-28.8748
 20
0.3379
 30
0.0
 10
-28.7529
 20
0.4541
 30
0.0
 10
-28.7529
 20
0.4541
 30
0.0
 10
-28.6311
 20
0.5702
 30
0.0
 10
-28.474
 20
0.6286
 30
0.0
 10
-28.2812
 20
0.6286
 30
0.0
 10
-28.2812
 20
0.6286
 30
0.0
 10
-28.1542
 20
0.6286
 30
0.0
 10
-28.0366
 20
0.6008
 30
0.0
 10
-27.9274
 20
0.5462
 30
0.0
 10
-27.9274
 20
0.5462
 30
0.0
 10
-27.8188
 20
0.4917
 30
0.0
 10
-27.7351
 20
0.4164
 30
0.0
 10
-27.6772
 20
0.3209
 30
0.0
 10
-27.6772
 20
0.3209
 30
0.0
 10
-27.6194
 20
0.2255
 30
0.0
 10
-27.5907
 20
0.1173
 30
0.0
 10
-27.5907
 20
-0.0041
 30
0.0
 10
-27.5907
 20
-0.0041
 30
0.0
 10
-27.5907
 20
-0.211
 30
0.0
 10
-27.6664
 20
-0.3794
 30
0.0
 10
-27.8188
 20
-0.5097
 30
0.0
 10
-27.8188
 20
-0.5097
 30
0.0
 10
-27.9707
 20
-0.6405
 30
0.0
 10
-28.2214
 20
-0.7054
 30
0.0
 10
-28.5704
 20
-0.7054
 30
0.0
 10
-28.5704
 20
-0.7054
 30
0.0
 10
-28.9608
 20
-0.7054
 30
0.0
 10
-29.2445
 20
-0.6334
 30
0.0
 10
-29.4218
 20
-0.489
 30
0.0
 10
-29.4218
 20
-0.489
 30
0.0
 10
-29.5761
 20
-0.3634
 30
0.0
 10
-29.6537
 20
-0.1941
 30
0.0
 10
-29.6537
 20
0.0194
 30
0.0
 10
-29.6537
 20
0.0194
 30
0.0
 10
-29.6537
 20
0.178
 30
0.0
 10
-29.609
 20
0.3082
 30
0.0
 10
-29.5196
 20
0.4098
 30
0.0
 10
-29.5196
 20
0.4098
 30
0.0
 10
-29.4307
 20
0.5114
 30
0.0
 10
-29.3075
 20
0.5721
 30
0.0
 10
-29.1504
 20
0.5923
 30
0.0
  0
SPLINE
  5
96
330
1F
100
AcDbEntity
  8
AXIS
 62
   250
100
AcDbSpline
210
0.0
220
0.0
230
1.0
 70
    11
 71
     3
 72
    40
 73
    36
 74
     0
 42
0.0000000001
 43
0.0000000001
 40
0.0
 40
0.0
 40
0.0
 40
0.0
 40
0.1
 40
0.1
 40
0.1
 40
0.1
 40
0.2
 40
0.2
 40
0.2
 40
0.2
 40
0.3
 40
0.3
 40
0.3
 40
0.3
 40
0.4
 40
0.4
 40
0.4
 40
0.4
 40
0.5
 40
0.5
 40
0.5
 40
0.5
 40
0.6
 40
0.6
 40
0.6
 40
0.6
 40
0.7
 40
0.7
 40
0.7
 40
0.7
 40
0.8
 40
0.8
 40
0.8
 40
0.8
 40
1.0
 40
1.0
 40
1.0
 40
1.0
 10
-28.2798
 20
-0.4204
 30
0.0
 10
-28.1941
 20
-0.4204
 30
0.0
 10
-28.1123
 20
-0.402
 30
0.0
 10
-28.0342
 20
-0.3658
 30
0.0
 10
-28.0342
 20
-0.3658
 30
0.0
 10
-27.9561
 20
-0.3296
 30
0.0
 10
-27.8969
 20
-0.2788
 30
0.0
 10
-27.856
 20
-0.2139
 30
0.0
 10
-27.856
 20
-0.2139
 30
0.0
 10
-27.815
 20
-0.1485
 30
0.0
 10
-27.7943
 20
-0.0798
 30
0.0
 10
-27.7943
 20
-0.0083
 30
0.0
 10
-27.7943
 20
-0.0083
 30
0.0
 10
-27.7943
 20
0.0966
 30
0.0
 10
-27.8367
 20
0.1864
 30
0.0
 10
-27.9213
 20
0.2617
 30
0.0
 10
-27.9213
 20
0.2617
 30
0.0
 10
-28.006
 20
0.3369
 30
0.0
 10
-28.1208
 20
0.3746
 30
0.0
 10
-28.2656
 20
0.3746
 30
0.0
 10
-28.2656
 20
0.3746
 30
0.0
 10
-28.4053
 20
0.3746
 30
0.0
 10
-28.5154
 20
0.3374
 30
0.0
 10
-28.5958
 20
0.2631
 30
0.0
 10
-28.5958
 20
0.2631
 30
0.0
 10
-28.6763
 20
0.1888
 30
0.0
 10
-28.7163
 20
0.0952
 30
0.0
 10
-28.7163
 20
-0.0177
 30
0.0
 10
-28.7163
 20
-0.0177
 30
0.0
 10
-28.7163
 20
-0.1301
 30
0.0
 10
-28.6763
 20
-0.2252
 30
0.0
 10
-28.5958
 20
-0.3032
 30
0.0
 10
-28.5958
 20
-0.3032
 30
0.0
 10
-28.5154
 20
-0.3813
 30
0.0
 10
-28.41
 20
-0.4204
 30
0.0
 10
-28.2798
 20
-0.4204
 30
0.0
  0
SPLINE
  5
97
330
1F
100
AcDbEntity
  8
AXIS
 62
   250
100
AcDbSpline
210
0.0
220
0.0
230
1.0
 70
    11
 71
     3
 72
    92
 73
    88
 74
     0
 42
0.0000000001
 43
0.0000000001
 40
0.0
 40
0.0
 40
0.0
 40
0.0
 40
0.0434782608695652
 40
0.0434782608695652
 40
0.0434782608695652
 40
0.0434782608695652
 40
0.0869565217391304
 40
0.0869565217391304
 40
0.0869565217391304
 40
0.0869565217391304
 40
0.1304347826086956
 40
0.1304347826086956
 40
0.1304347826086956
 40
0.1304347826086956
 40
0.1739130434782609
 40
0.1739130434782609
 40
0.1739130434782609
 40
0.1739130434782609
 40
0.2173913043478261
 40
0.2173913043478261
 40
0.2173913043478261
 40
0.2173913043478261
 40
0.2608695652173913
 40
0.2608695652173913
 40
0.2608695652173913
 40
0.2608695652173913
 40
0.3043478260869565
 40
0.3043478260869565
 40
0.3043478260869565
 40
0.3043478260869565
 40
0.3478260869565217
 40
0.3478260869565217
 40
0.3478260869565217
 40
0.3478260869565217
 40
0.391304347826087
 40
0.391304347826087
 40
0.391304347826087
 40
0.391304347826087
 40
0.4347826086956522
 40
0.4347826086956522
 40
0.4347826086956522
 40
0.4347826086956522
 40
0.4782608695652174
 40
0.4782608695652174
 40
0.4782608695652174
 40
0.4782608695652174
 40
0.5217391304347826
 40
0.5217391304347826
 40
0.5217391304347826
 40
0.5217391304347826
 40
0.5652173913043478
 40
0.5652173913043478
 40
0.5652173913043478
 40
0.5652173913043478
 40
0.6086956521739131
 40
0.6086956521739131
 40
0.6086956521739131
 40
0.6086956521739131
 40
0.6521739130434783
 40
0.6521739130434783
 40
0.6521739130434783
 40
0.6521739130434783
 40
0.6956521739130435
 40
0.6956521739130435
 40
0.6956521739130435
 40
0.6956521739130435
 40
0.7391304347826086
 40
0.7391304347826086
 40
0.7391304347826086
 40
0.7391304347826086
 40
0.782608695652174
 40
0.782608695652174
 40
0.782608695652174
 40
0.782608695652174
 40
0.8260869565217391
 40
0.8260869565217391
 40
0.8260869565217391
 40
0.8260869565217391
 40
0.8695652173913043
 40
0.8695652173913043
 40
0.8695652173913043
 40
0.8695652173913043
 40
0.9130434782608695
 40
0.9130434782608695
 40
0.9130434782608695
 40
0.9130434782608695
 40
1.0
 40
1.0
 40
1.0
 40
1.0
 10
-28.1542
 20
0.875
 30
0.0
 10
-28.1542
 20
0.875
 30
0.0
 10
-28.1763
 20
1.1356
 30
0.0
 10
-28.1763
 20
1.1356
 30
0.0
 10
-28.1763
 20
1.1356
 30
0.0
 10
-28.0493
 20
1.1549
 30
0.0
 10
-27.9543
 20
1.1996
 30
0.0
 10
-27.8903
 20
1.2697
 30
0.0
 10
-27.8903
 20
1.2697
 30
0.0
 10
-27.8263
 20
1.3402
 30
0.0
 10
-27.7943
 20
1.4249
 30
0.0
 10
-27.7943
 20
1.5241
 30
0.0
 10
-27.7943
 20
1.5241
 30
0.0
 10
-27.7943
 20
1.6436
 30
0.0
 10
-27.8395
 20
1.7447
 30
0.0
 10
-27.9293
 20
1.827
 30
0.0
 10
-27.9293
 20
1.827
 30
0.0
 10
-28.0196
 20
1.9098
 30
0.0
 10
-28.1391
 20
1.9512
 30
0.0
 10
-28.2877
 20
1.9512
 30
0.0
 10
-28.2877
 20
1.9512
 30
0.0
 10
-28.4293
 20
1.9512
 30
0.0
 10
-28.5408
 20
1.9117
 30
0.0
 10
-28.6226
 20
1.8322
 30
0.0
 10
-28.6226
 20
1.8322
 30
0.0
 10
-28.7045
 20
1.7527
 30
0.0
 10
-28.7454
 20
1.6488
 30
0.0
 10
-28.7454
 20
1.5199
 30
0.0
 10
-28.7454
 20
1.5199
 30
0.0
 10
-28.7454
 20
1.4399
 30
0.0
 10
-28.7271
 20
1.368
 30
0.0
 10
-28.6909
 20
1.3035
 30
0.0
 10
-28.6909
 20
1.3035
 30
0.0
 10
-28.6546
 20
1.2391
 30
0.0
 10
-28.6076
 20
1.1888
 30
0.0
 10
-28.5497
 20
1.1521
 30
0.0
 10
-28.5497
 20
1.1521
 30
0.0
 10
-28.5497
 20
1.1521
 30
0.0
 10
-28.5798
 20
0.9192
 30
0.0
 10
-28.5798
 20
0.9192
 30
0.0
 10
-28.5798
 20
0.9192
 30
0.0
 10
-28.5798
 20
0.9192
 30
0.0
 10
-29.6175
 20
1.1149
 30
0.0
 10
-29.6175
 20
1.1149
 30
0.0
 10
-29.6175
 20
1.1149
 30
0.0
 10
-29.6175
 20
1.1149
 30
0.0
 10
-29.6175
 20
2.1196
 30
0.0
 10
-29.6175
 20
2.1196
 30
0.0
 10
-29.6175
 20
2.1196
 30
0.0
 10
-29.6175
 20
2.1196
 30
0.0
 10
-29.3804
 20
2.1196
 30
0.0
 10
-29.3804
 20
2.1196
 30
0.0
 10
-29.3804
 20
2.1196
 30
0.0
 10
-29.3804
 20
2.1196
 30
0.0
 10
-29.3804
 20
1.3134
 30
0.0
 10
-29.3804
 20
1.3134
 30
0.0
 10
-29.3804
 20
1.3134
 30
0.0
 10
-29.3804
 20
1.3134
 30
0.0
 10
-28.8376
 20
1.2043
 30
0.0
 10
-28.8376
 20
1.2043
 30
0.0
 10
-28.8376
 20
1.2043
 30
0.0
 10
-28.9223
 20
1.3256
 30
0.0
 10
-28.9646
 20
1.4531
 30
0.0
 10
-28.9646
 20
1.5862
 30
0.0
 10
-28.9646
 20
1.5862
 30
0.0
 10
-28.9646
 20
1.7626
 30
0.0
 10
-28.9035
 20
1.9112
 30
0.0
 10
-28.7812
 20
2.0326
 30
0.0
 10
-28.7812
 20
2.0326
 30
0.0
 10
-28.6589
 20
2.1539
 30
0.0
 10
-28.5018
 20
2.2146
 30
0.0
 10
-28.3099
 20
2.2146
 30
0.0
 10
-28.3099
 20
2.2146
 30
0.0
 10
-28.1269
 20
2.2146
 30
0.0
 10
-27.9688
 20
2.161
 30
0.0
 10
-27.8357
 20
2.0547
 30
0.0
 10
-27.8357
 20
2.0547
 30
0.0
 10
-27.6725
 20
1.9249
 30
0.0
 10
-27.5907
 20
1.748
 30
0.0
 10
-27.5907
 20
1.5241
 30
0.0
 10
-27.5907
 20
1.5241
 30
0.0
 10
-27.5907
 20
1.3402
 30
0.0
 10
-27.6419
 20
1.1902
 30
0.0
 10
-27.7449
 20
1.074
 30
0.0
 10
-27.7449
 20
1.074
 30
0.0
 10
-27.848
 20
0.9578
 30
0.0
 10
-27.9844
 20
0.8915
 30
0.0
 10
-28.1542
 20
0.875
 30
0.0
  0
SPLINE
  5
98
330
1F
100
AcDbEntity
  8
AXIS
 62
   250
100
AcDbSpline
210
0.0
220
0.0
230
1.0
 70
    11
 71
     3
 72
    92
 73
    88
 74
     0
 42
0.0000000001
 43
0.0000000001
 40
0.0
 40
0.0
 40
0.0
 40
0.0
 40
0.0434782608695652
 40
0.0434782608695652
 40
0.0434782608695652
 40
0.0434782608695652
 40
0.0869565217391304
 40
0.0869565217391304
 40
0.0869565217391304
 40
0.0869565217391304
 40
0.1304347826086956
 40
0.1304347826086956
 40
0.1304347826086956
 40
0.1304347826086956
 40
0.1739130434782609
 40
0.1739130434782609
 40
0.1739130434782609
 40
0.1739130434782609
 40
0.2173913043478261
 40
0.2173913043478261
 40
0.2173913043478261
 40
0.2173913043478261
 40
0.2608695652173913
 40
0.2608695652173913
 40
0.2608695652173913
 40
0.2608695652173913
 40
0.3043478260869565
 40
0.3043478260869565
 40
0.3043478260869565
 40
0.3043478260869565
 40
0.3478260869565217
 40
0.3478260869565217
 40
0.3478260869565217
 40
0.3478260869565217
 40
0.391304347826087
 40
0.391304347826087
 40
0.391304347826087
 40
0.391304347826087
 40
0.4347826086956522
 40
0.4347826086956522
 40
0.4347826086956522
 40
0.4347826086956522
 40
0.4782608695652174
 40
0.4782608695652174
 40
0.4782608695652174
 40
0.4782608695652174
 40
0.5217391304347826
 40
0.5217391304347826
 40
0.5217391304347826
 40
0.5217391304347826
 40
0.5652173913043478
 40
0.5652173913043478
 40
0.5652173913043478
 40
0.5652173913043478
 40
0.6086956521739131
 40
0.6086956521739131
 40
0.6086956521739131
 40
0.6086956521739131
 40
0.6521739130434783
 40
0.6521739130434783
 40
0.6521739130434783
 40
0.6521739130434783
 40
0.6956521739130435
 40
0.6956521739130435
 40
0.6956521739130435
 40
0.6956521739130435
 40
0.7391304347826086
 40
0.7391304347826086
 40
0.7391304347826086
 40
0.7391304347826086
 40
0.782608695652174
 40
0.782608695652174
 40
0.782608695652174
 40
0.782608695652174
 40
0.8260869565217391
 40
0.8260869565217391
 40
0.8260869565217391
 40
0.8260869565217391
 40
0.8695652173913043
 40
0.8695652173913043
 40
0.8695652173913043
 40
0.8695652173913043
 40
0.9130434782608695
 40
0.9130434782608695
 40
0.9130434782608695
 40
0.9130434782608695
 40
1.0
 40
1.0
 40
1.0
 40
1.0
 10
13.0338
 20
-2.7415
 30
0.0
 10
13.0338
 20
-2.7415
 30
0.0
 10
13.0117
 20
-2.503
 30
0.0
 10
13.0117
 20
-2.503
 30
0.0
 10
13.0117
 20
-2.503
 30
0.0
 10
13.1237
 20
-2.4828
 30
0.0
 10
13.205
 20
-2.4442
 30
0.0
 10
13.2558
 20
-2.3873
 30
0.0
 10
13.2558
 20
-2.3873
 30
0.0
 10
13.3062
 20
-2.3304
 30
0.0
 10
13.3316
 20
-2.2575
 30
0.0
 10
13.3316
 20
-2.1681
 30
0.0
 10
13.3316
 20
-2.1681
 30
0.0
 10
13.3316
 20
-2.0919
 30
0.0
 10
13.3142
 20
-2.0252
 30
0.0
 10
13.2789
 20
-1.9678
 30
0.0
 10
13.2789
 20
-1.9678
 30
0.0
 10
13.2441
 20
-1.9104
 30
0.0
 10
13.1975
 20
-1.8633
 30
0.0
 10
13.1392
 20
-1.8267
 30
0.0
 10
13.1392
 20
-1.8267
 30
0.0
 10
13.0809
 20
-1.7895
 30
0.0
 10
13.0018
 20
-1.7589
 30
0.0
 10
12.9031
 20
-1.734
 30
0.0
 10
12.9031
 20
-1.734
 30
0.0
 10
12.8038
 20
-1.7095
 30
0.0
 10
12.7027
 20
-1.6968
 30
0.0
 10
12.5997
 20
-1.6968
 30
0.0
 10
12.5997
 20
-1.6968
 30
0.0
 10
12.5889
 20
-1.6968
 30
0.0
 10
12.5719
 20
-1.6973
 30
0.0
 10
12.5503
 20
-1.6982
 30
0.0
 10
12.5503
 20
-1.6982
 30
0.0
 10
12.6288
 20
-1.7481
 30
0.0
 10
12.6933
 20
-1.8158
 30
0.0
 10
12.7422
 20
-1.9014
 30
0.0
 10
12.7422
 20
-1.9014
 30
0.0
 10
12.7916
 20
-1.9875
 30
0.0
 10
12.816
 20
-2.0807
 30
0.0
 10
12.816
 20
-2.1804
 30
0.0
 10
12.816
 20
-2.1804
 30
0.0
 10
12.816
 20
-2.3478
 30
0.0
 10
12.7554
 20
-2.4894
 30
0.0
 10
12.634
 20
-2.6051
 30
0.0
 10
12.634
 20
-2.6051
 30
0.0
 10
12.5127
 20
-2.7208
 30
0.0
 10
12.3532
 20
-2.7787
 30
0.0
 10
12.1547
 20
-2.7787
 30
0.0
 10
12.1547
 20
-2.7787
 30
0.0
 10
11.9496
 20
-2.7787
 30
0.0
 10
11.785
 20
-2.7185
 30
0.0
 10
11.6599
 20
-2.5976
 30
0.0
 10
11.6599
 20
-2.5976
 30
0.0
 10
11.5348
 20
-2.4767
 30
0.0
 10
11.4722
 20
-2.3252
 30
0.0
 10
11.4722
 20
-2.1432
 30
0.0
 10
11.4722
 20
-2.1432
 30
0.0
 10
11.4722
 20
-2.012
 30
0.0
 10
11.508
 20
-1.892
 30
0.0
 10
11.5785
 20
-1.7829
 30
0.0
 10
11.5785
 20
-1.7829
 30
0.0
 10
11.6491
 20
-1.6743
 30
0.0
 10
11.7502
 20
-1.5915
 30
0.0
 10
11.881
 20
-1.535
 30
0.0
 10
11.881
 20
-1.535
 30
0.0
 10
12.0117
 20
-1.4786
 30
0.0
 10
12.2013
 20
-1.4504
 30
0.0
 10
12.4496
 20
-1.4504
 30
0.0
 10
12.4496
 20
-1.4504
 30
0.0
 10
12.7074
 20
-1.4504
 30
0.0
 10
12.9129
 20
-1.4781
 30
0.0
 10
13.0663
 20
-1.5341
 30
0.0
 10
13.0663
 20
-1.5341
 30
0.0
 10
13.2192
 20
-1.5905
 30
0.0
 10
13.3353
 20
-1.6738
 30
0.0
 10
13.4153
 20
-1.7843
 30
0.0
 10
13.4153
 20
-1.7843
 30
0.0
 10
13.4953
 20
-1.8953
 30
0.0
 10
13.5352
 20
-2.0247
 30
0.0
 10
13.5352
 20
-2.1738
 30
0.0
 10
13.5352
 20
-2.1738
 30
0.0
 10
13.5352
 20
-2.3318
 30
0.0
 10
13.4915
 20
-2.4607
 30
0.0
 10
13.4035
 20
-2.5609
 30
0.0
 10
13.4035
 20
-2.5609
 30
0.0
 10
13.316
 20
-2.6611
 30
0.0
 10
13.1928
 20
-2.7213
 30
0.0
 10
13.0338
 20
-2.7415
 30
0.0
  0
SPLINE
  5
99
330
1F
100
AcDbEntity
  8
AXIS
 62
   250
100
AcDbSpline
210
0.0
220
0.0
230
1.0
 70
    11
 71
     3
 72
    36
 73
    32
 74
     0
 42
0.0000000001
 43
0.0000000001
 40
0.0
 40
0.0
 40
0.0
 40
0.0
 40
0.1111111111111111
 40
0.1111111111111111
 40
0.1111111111111111
 40
0.1111111111111111
 40
0.2222222222222222
 40
0.2222222222222222
 40
0.2222222222222222
 40
0.2222222222222222
 40
0.3333333333333333
 40
0.3333333333333333
 40
0.3333333333333333
 40
0.3333333333333333
 40
0.4444444444444444
 40
0.4444444444444444
 40
0.4444444444444444
 40
0.4444444444444444
 40
0.5555555555555556
 40
0.5555555555555556
 40
0.5555555555555556
 40
0.5555555555555556
 40
0.6666666666666666
 40
0.6666666666666666
 40
0.6666666666666666
 40
0.6666666666666666
 40
0.7777777777777778
 40
0.7777777777777778
 40
0.7777777777777778
 40
0.7777777777777778
 40
1.0
 40
1.0
 40
1.0
 40
1.0
 10
12.142
 20
-1.726
 30
0.0
 10
12.0
 20
-1.726
 30
0.0
 10
11.8866
 20
-1.7636
 30
0.0
 10
11.8033
 20
-1.8394
 30
0.0
 10
11.8033
 20
-1.8394
 30
0.0
 10
11.7196
 20
-1.9156
 30
0.0
 10
11.6778
 20
-2.0063
 30
0.0
 10
11.6778
 20
-2.1131
 30
0.0
 10
11.6778
 20
-2.1131
 30
0.0
 10
11.6778
 20
-2.2232
 30
0.0
 10
11.7229
 20
-2.3191
 30
0.0
 10
11.8128
 20
-2.401
 30
0.0
 10
11.8128
 20
-2.401
 30
0.0
 10
11.9031
 20
-2.4828
 30
0.0
 10
12.0197
 20
-2.5237
 30
0.0
 10
12.1627
 20
-2.5237
 30
0.0
 10
12.1627
 20
-2.5237
 30
0.0
 10
12.2916
 20
-2.5237
 30
0.0
 10
12.396
 20
-2.4847
 30
0.0
 10
12.4764
 20
-2.4071
 30
0.0
 10
12.4764
 20
-2.4071
 30
0.0
 10
12.5569
 20
-2.3295
 30
0.0
 10
12.5969
 20
-2.234
 30
0.0
 10
12.5969
 20
-2.1202
 30
0.0
 10
12.5969
 20
-2.1202
 30
0.0
 10
12.5969
 20
-2.0049
 30
0.0
 10
12.5569
 20
-1.9109
 30
0.0
 10
12.4764
 20
-1.837
 30
0.0
 10
12.4764
 20
-1.837
 30
0.0
 10
12.396
 20
-1.7627
 30
0.0
 10
12.2845
 20
-1.726
 30
0.0
 10
12.142
 20
-1.726
 30
0.0
  0
SPLINE
  5
9A
330
1F
100
AcDbEntity
  8
AXIS
 62
   250
100
AcDbSpline
210
0.0
220
0.0
230
1.0
 70
    11
 71
     3
 72
    80
 73
    76
 74
     0
 42
0.0000000001
 43
0.0000000001
 40
0.0
 40
0.0
 40
0.0
 40
0.0
 40
0.05
 40
0.05
 40
0.05
 40
0.05
 40
0.1
 40
0.1
 40
0.1
 40
0.1
 40
0.15
 40
0.15
 40
0.15
 40
0.15
 40
0.2
 40
0.2
 40
0.2
 40
0.2
 40
0.25
 40
0.25
 40
0.25
 40
0.25
 40
0.3
 40
0.3
 40
0.3
 40
0.3
 40
0.35
 40
0.35
 40
0.35
 40
0.35
 40
0.4
 40
0.4
 40
0.4
 40
0.4
 40
0.45
 40
0.45
 40
0.45
 40
0.45
 40
0.5
 40
0.5
 40
0.5
 40
0.5
 40
0.55
 40
0.55
 40
0.55
 40
0.55
 40
0.6
 40
0.6
 40
0.6
 40
0.6
 40
0.65
 40
0.65
 40
0.65
 40
0.65
 40
0.7
 40
0.7
 40
0.7
 40
0.7
 40
0.75
 40
0.75
 40
0.75
 40
0.75
 40
0.8
 40
0.8
 40
0.8
 40
0.8
 40
0.85
 40
0.85
 40
0.85
 40
0.85
 40
0.9
 40
0.9
 40
0.9
 40
0.9
 40
1.0
 40
1.0
 40
1.0
 40
1.0
 10
11.9755
 20
0.0778
 30
0.0
 10
11.9755
 20
0.0778
 30
0.0
 10
11.9948
 20
-0.1686
 30
0.0
 10
11.9948
 20
-0.1686
 30
0.0
 10
11.9948
 20
-0.1686
 30
0.0
 10
11.8974
 20
-0.1907
 30
0.0
 10
11.8264
 20
-0.2218
 30
0.0
 10
11.7827
 20
-0.2622
 30
0.0
 10
11.7827
 20
-0.2622
 30
0.0
 10
11.7116
 20
-0.3295
 30
0.0
 10
11.6763
 20
-0.4123
 30
0.0
 10
11.6763
 20
-0.5106
 30
0.0
 10
11.6763
 20
-0.5106
 30
0.0
 10
11.6763
 20
-0.5896
 30
0.0
 10
11.6985
 20
-0.6587
 30
0.0
 10
11.7427
 20
-0.7185
 30
0.0
 10
11.7427
 20
-0.7185
 30
0.0
 10
11.7996
 20
-0.7966
 30
0.0
 10
11.8828
 20
-0.8582
 30
0.0
 10
11.992
 20
-0.9033
 30
0.0
 10
11.992
 20
-0.9033
 30
0.0
 10
12.1011
 20
-0.948
 30
0.0
 10
12.2568
 20
-0.9715
 30
0.0
 10
12.459
 20
-0.9734
 30
0.0
 10
12.459
 20
-0.9734
 30
0.0
 10
12.3683
 20
-0.9137
 30
0.0
 10
12.3005
 20
-0.8408
 30
0.0
 10
12.2563
 20
-0.7542
 30
0.0
 10
12.2563
 20
-0.7542
 30
0.0
 10
12.2126
 20
-0.6682
 30
0.0
 10
12.1905
 20
-0.5774
 30
0.0
 10
12.1905
 20
-0.4828
 30
0.0
 10
12.1905
 20
-0.4828
 30
0.0
 10
12.1905
 20
-0.3173
 30
0.0
 10
12.2511
 20
-0.1766
 30
0.0
 10
12.373
 20
-0.0604
 30
0.0
 10
12.373
 20
-0.0604
 30
0.0
 10
12.4948
 20
0.0557
 30
0.0
 10
12.6519
 20
0.1141
 30
0.0
 10
12.8447
 20
0.1141
 30
0.0
 10
12.8447
 20
0.1141
 30
0.0
 10
12.9717
 20
0.1141
 30
0.0
 10
13.0893
 20
0.0863
 30
0.0
 10
13.1985
 20
0.0317
 30
0.0
 10
13.1985
 20
0.0317
 30
0.0
 10
13.3071
 20
-0.0228
 30
0.0
 10
13.3908
 20
-0.0981
 30
0.0
 10
13.4487
 20
-0.1936
 30
0.0
 10
13.4487
 20
-0.1936
 30
0.0
 10
13.5065
 20
-0.289
 30
0.0
 10
13.5352
 20
-0.3972
 30
0.0
 10
13.5352
 20
-0.5186
 30
0.0
 10
13.5352
 20
-0.5186
 30
0.0
 10
13.5352
 20
-0.7255
 30
0.0
 10
13.4595
 20
-0.8939
 30
0.0
 10
13.3071
 20
-1.0242
 30
0.0
 10
13.3071
 20
-1.0242
 30
0.0
 10
13.1552
 20
-1.155
 30
0.0
 10
12.9045
 20
-1.2199
 30
0.0
 10
12.5555
 20
-1.2199
 30
0.0
 10
12.5555
 20
-1.2199
 30
0.0
 10
12.1651
 20
-1.2199
 30
0.0
 10
11.8814
 20
-1.1479
 30
0.0
 10
11.7041
 20
-1.0035
 30
0.0
 10
11.7041
 20
-1.0035
 30
0.0
 10
11.5498
 20
-0.8779
 30
0.0
 10
11.4722
 20
-0.7086
 30
0.0
 10
11.4722
 20
-0.4951
 30
0.0
 10
11.4722
 20
-0.4951
 30
0.0
 10
11.4722
 20
-0.3365
 30
0.0
 10
11.5169
 20
-0.2063
 30
0.0
 10
11.6063
 20
-0.1047
 30
0.0
 10
11.6063
 20
-0.1047
 30
0.0
 10
11.6952
 20
-0.0031
 30
0.0
 10
11.8184
 20
0.0576
 30
0.0
 10
11.9755
 20
0.0778
 30
0.0
  0
SPLINE
  5
9B
330
1F
100
AcDbEntity
  8
AXIS
 62
   250
100
AcDbSpline
210
0.0
220
0.0
230
1.0
 70
    11
 71
     3
 72
    40
 73
    36
 74
     0
 42
0.0000000001
 43
0.0000000001
 40
0.0
 40
0.0
 40
0.0
 40
0.0
 40
0.1
 40
0.1
 40
0.1
 40
0.1
 40
0.2
 40
0.2
 40
0.2
 40
0.2
 40
0.3
 40
0.3
 40
0.3
 40
0.3
 40
0.4
 40
0.4
 40
0.4
 40
0.4
 40
0.5
 40
0.5
 40
0.5
 40
0.5
 40
0.6
 40
0.6
 40
0.6
 40
0.6
 40
0.7
 40
0.7
 40
0.7
 40
0.7
 40
0.8
 40
0.8
 40
0.8
 40
0.8
 40
1.0
 40
1.0
 40
1.0
 40
1.0
 10
12.8461
 20
-0.9349
 30
0.0
 10
12.9318
 20
-0.9349
 30
0.0
 10
13.0136
 20
-0.9165
 30
0.0
 10
13.0917
 20
-0.8803
 30
0.0
 10
13.0917
 20
-0.8803
 30
0.0
 10
13.1698
 20
-0.8441
 30
0.0
 10
13.229
 20
-0.7933
 30
0.0
 10
13.2699
 20
-0.7284
 30
0.0
 10
13.2699
 20
-0.7284
 30
0.0
 10
13.3109
 20
-0.663
 30
0.0
 10
13.3316
 20
-0.5943
 30
0.0
 10
13.3316
 20
-0.5228
 30
0.0
 10
13.3316
 20
-0.5228
 30
0.0
 10
13.3316
 20
-0.4179
 30
0.0
 10
13.2892
 20
-0.3281
 30
0.0
 10
13.2046
 20
-0.2528
 30
0.0
 10
13.2046
 20
-0.2528
 30
0.0
 10
13.1199
 20
-0.1776
 30
0.0
 10
13.0051
 20
-0.1399
 30
0.0
 10
12.8603
 20
-0.1399
 30
0.0
 10
12.8603
 20
-0.1399
 30
0.0
 10
12.7206
 20
-0.1399
 30
0.0
 10
12.6105
 20
-0.1771
 30
0.0
 10
12.5301
 20
-0.2514
 30
0.0
 10
12.5301
 20
-0.2514
 30
0.0
 10
12.4496
 20
-0.3257
 30
0.0
 10
12.4096
 20
-0.4193
 30
0.0
 10
12.4096
 20
-0.5322
 30
0.0
 10
12.4096
 20
-0.5322
 30
0.0
 10
12.4096
 20
-0.6446
 30
0.0
 10
12.4496
 20
-0.7397
 30
0.0
 10
12.5301
 20
-0.8177
 30
0.0
 10
12.5301
 20
-0.8177
 30
0.0
 10
12.6105
 20
-0.8958
 30
0.0
 10
12.7159
 20
-0.9349
 30
0.0
 10
12.8461
 20
-0.9349
 30
0.0
  0
ENDSEC
  0
SECTION
  2
OBJECTS
  0
DICTIONARY
  5
C
330
0
100
AcDbDictionary
  3
ACAD_GROUP
350
D
  3
ACAD_LAYOUT
350
1A
  3
ACAD_MATERIAL
350
3B
  3
ACAD_MLEADERSTYLE
350
BE
  3
ACAD_MLINESTYLE
350
17
  3
ACAD_PLOTSETTINGS
350
19
  3
ACAD_VISUALSTYLE
350
2A
  3
ACDBHEADERROUNDTRIPXREC
350
9C
  3
ACDBVARIABLEDICTIONARY
350
BC
  0
DICTIONARY
  5
D
102
{ACAD_REACTORS
330
C
102
}
330
C
100
AcDbDictionary
  0
DICTIONARY
  5
1A
102
{ACAD_REACTORS
330
C
102
}
330
C
100
AcDbDictionary
  0
DICTIONARY
  5
3B
102
{ACAD_REACTORS
330
C
102
}
330
C
100
AcDbDictionary
  3
BYBLOCK
350
3D
  3
BYLAYER
350
3C
  3
GLOBAL
350
3E
  0
DICTIONARY
  5
BE
102
{ACAD_REACTORS
330
C
102
}
330
C
100
AcDbDictionary
  0
DICTIONARY
  5
17
102
{ACAD_REACTORS
330
C
102
}
330
C
100
AcDbDictionary
  3
STANDARD
350
18
  0
DICTIONARY
  5
19
102
{ACAD_REACTORS
330
C
102
}
330
C
100
AcDbDictionary
  0
DICTIONARY
  5
2A
102
{ACAD_REACTORS
330
C
102
}
330
C
100
AcDbDictionary
  3
2DWIREFRAME
350
2F
  3
3D_HIDDEN
350
31
  3
3DWIREFRAME
350
30
  3
BASIC
350
32
  3
BRIGHTEN
350
36
  3
COLORCHANGE
350
3A
  3
CONCEPTUAL
350
34
  3
DIM
350
35
  3
FACEPATTERN
350
39
  3
FLAT
350
2B
  3
FLATWITHEDGES
350
2C
  3
GOURAUD
350
2D
  3
GOURAUDWITHEDGES
350
2E
  3
LINEPATTERN
350
38
  3
REALISTIC
350
33
  3
THICKEN
350
37
  0
DICTIONARY
  5
9C
102
{ACAD_REACTORS
330
C
102
}
330
C
100
AcDbDictionary
  3
CEPSNTYPE
350
A5
  3
DIMSTYLEDATA
350
BB
  3
FINGERPRINTGUID
350
A6
  3
HYPERLINKBASE
350
9F
  3
INSUNITS
350
A4
  3
LAYOUTDICT
350
A1
  3
LWETCUNION
350
A3
  3
PLOTSETDICT
350
A2
  3
PSVPSCALE
350
A8
  3
PUCSBASE
350
AB
  3
PUCSORGBACK
350
B1
  3
PUCSORGBOTTOM
350
AD
  3
PUCSORGFRONT
350
B0
  3
PUCSORGLEFT
350
AE
  3
PUCSORGRIGHT
350
AF
  3
PUCSORGTOP
350
AC
  3
PUCSORTHOREF
350
A9
  3
PUCSORTHOVIEW
350
AA
  3
STYLESHEET
350
A0
  3
TSTACKALIGN
350
9D
  3
TSTACKSIZE
350
9E
  3
UCSBASE
350
B4
  3
UCSORGBACK
350
BA
  3
UCSORGBOTTOM
350
B6
  3
UCSORGFRONT
350
B9
  3
UCSORGLEFT
350
B7
  3
UCSORGRIGHT
350
B8
  3
UCSORGTOP
350
B5
  3
UCSORTHOREF
350
B2
  3
UCSORTHOVIEW
350
B3
  3
VERSIONGUID
350
A7
  0
DICTIONARY
  5
BC
102
{ACAD_REACTORS
330
C
102
}
330
C
100
AcDbDictionary
  3
DIMASSOC
350
BF
  3
HIDETEXT
350
C0
  0
MATERIAL
  5
3D
102
{ACAD_REACTORS
330
3B
102
}
102
{ACAD_XDICTIONARY
360
C3
102
}
330
3B
100
AcDbMaterial
  1
ByBlock
  0
MATERIAL
  5
3C
102
{ACAD_REACTORS
330
3B
102
}
102
{ACAD_XDICTIONARY
360
C1
102
}
330
3B
100
AcDbMaterial
  1
ByLayer
  0
MATERIAL
  5
3E
102
{ACAD_REACTORS
330
3B
102
}
102
{ACAD_XDICTIONARY
360
C5
102
}
330
3B
100
AcDbMaterial
  1
Global
  0
MLINESTYLE
  5
18
102
{ACAD_REACTORS
330
17
102
}
330
17
100
AcDbMlineStyle
  2
Standard
 70
     0
  3

 62
   256
 51
90.0
 52
90.0
 71
     2
 49
0.5
 62
   256
  6
BYLAYER
 49
-0.5
 62
   256
  6
BYLAYER
  0
ACAD_PROXY_OBJECT
  5
2F
102
{ACAD_REACTORS
330
2A
102
}
330
2A
100
AcDbProxyObject
 90
      499
 91
      501
 93
      436
310
42CC9915DA5C99599C985B595049028333333333333E3BF0000000000000FB0107901411070040501600405405064090741402480A0340
1001
ACAD
1000
AcDbSavedByObjectVersion
1070
     0
  0
ACAD_PROXY_OBJECT
  5
31
102
{ACAD_REACTORS
330
2A
102
}
330
2A
100
AcDbProxyObject
 90
      499
 91
      501
 93
      500
310
424CD108121A5919195B90640502408333333333333E3BF0000000000000FB01079024090700405020000000000001110200405405064090740C02480A0340
1001
ACAD
1000
AcDbSavedByObjectVersion
1070
     0
  0
ACAD_PROXY_OBJECT
  5
30
102
{ACAD_REACTORS
330
2A
102
}
330
2A
100
AcDbProxyObject
 90
      499
 91
      501
 93
      436
310
42CCD915DA5C99599C985B595059028333333333333E3BF0000000000000FB0107901411070040501600405405064090741402480A0340
1001
ACAD
1000
AcDbSavedByObjectVersion
1070
     0
  0
ACAD_PROXY_OBJECT
  5
32
102
{ACAD_REACTORS
330
2A
102
}
330
2A
100
AcDbProxyObject
 90
      499
 91
      501
 93
      388
310
4150985CDA58D07406404333333333333E3BF0000000000000FB0107A41107004050150841D405064090741402480A0350
1001
ACAD
1000
AcDbSavedByObjectVersion
1070
     0
  0
ACAD_PROXY_OBJECT
  5
36
102
{ACAD_REACTORS
330
2A
102
}
330
2A
100
AcDbProxyObject
 90
      499
 91
      501
 93
      428
310
42109C9A59DA1D195B90C409028333333333333E3BF0000000000000FB010790141107004050150841D405064090741402480A029950
1001
ACAD
1000
AcDbSavedByObjectVersion
1070
     0
  0
ACAD_PROXY_OBJECT
  5
3A
102
{ACAD_REACTORS
330
2A
102
}
330
2A
100
AcDbProxyObject
 90
      499
 91
      501
 93
      452
310
42D0DBDB1BDC90DA185B99D95104090240C333333333333E3BF0000000000000FB0108901411070040501508421405064090741402480A0350
1001
ACAD
1000
AcDbSavedByObjectVersion
1070
     0
  0
ACAD_PROXY_OBJECT
  5
34
102
{ACAD_REACTORS
330
2A
102
}
330
2A
100
AcDbProxyObject
 90
      499
 91
      501
 93
      500
310
4290DBDB98D95C1D1D585B10940D028333333333333E3BF0000000000000FB0107902409070040501000000000000111010841D405064090740C02480A0340
1001
ACAD
1000
AcDbSavedByObjectVersion
1070
     0
  0
ACAD_PROXY_OBJECT
  5
35
102
{ACAD_REACTORS
330
2A
102
}
330
2A
100
AcDbProxyObject
 90
      499
 91
      501
 93
      412
310
40D11A5B50B409028333333333333E3BF0000000000000FB010790141107004050150841D405064090741402480A02677FFFFFD0
1001
ACAD
1000
AcDbSavedByObjectVersion
1070
     0
  0
ACAD_PROXY_OBJECT
  5
39
102
{ACAD_REACTORS
330
2A
102
}
330
2A
100
AcDbProxyObject
 90
      499
 91
      501
 93
      444
310
42D19858D95C185D1D195C9B90F409028333333333333E3BF0000000000000FB010790141107004050150841D405064090741402480A0350
1001
ACAD
1000
AcDbSavedByObjectVersion
1070
     0
  0
ACAD_PROXY_OBJECT
  5
2B
102
{ACAD_REACTORS
330
2A
102
}
330
2A
100
AcDbProxyObject
 90
      499
 91
      501
 93
      388
310
41119B185D240901404333333333333E3BF0000000000000F9010740A41107004050150841D405064090741402480A1B50
1001
ACAD
1000
AcDbSavedByObjectVersion
1070
     0
  0
ACAD_PROXY_OBJECT
  5
2C
102
{ACAD_REACTORS
330
2A
102
}
330
2A
100
AcDbProxyObject
 90
      499
 91
      501
 93
      476
310
43519B185D15DA5D1A115919D95CD0140901404333333333333E3BF0000000000000F9010740901411070040501600405405064090741402480A1B50
1001
ACAD
1000
AcDbSavedByObjectVersion
1070
     0
  0
ACAD_PROXY_OBJECT
  5
2D
102
{ACAD_REACTORS
330
2A
102
}
330
2A
100
AcDbProxyObject
 90
      499
 91
      501
 93
      412
310
41D1DBDD5C985D5910240902404333333333333E3BF0000000000000F9010740A411070040501641D405064090741402480A1B50
1001
ACAD
1000
AcDbSavedByObjectVersion
1070
     0
  0
ACAD_PROXY_OBJECT
  5
2E
102
{ACAD_REACTORS
330
2A
102
}
330
2A
100
AcDbProxyObject
 90
      499
 91
      501
 93
      500
310
4411DBDD5C985D5915DA5D1A115919D95CD0340902404333333333333E3BF0000000000000F9010740901411070040501600405405064090741402480A1B50
1001
ACAD
1000
AcDbSavedByObjectVersion
1070
     0
  0
ACAD_PROXY_OBJECT
  5
38
102
{ACAD_REACTORS
330
2A
102
}
330
2A
100
AcDbProxyObject
 90
      499
 91
      501
 93
      444
310
42D31A5B995C185D1D195C9B90E409028333333333333E3BF0000000000000FB010790141107004050750841D405064090741402483A0350
1001
ACAD
1000
AcDbSavedByObjectVersion
1070
     0
  0
ACAD_PROXY_OBJECT
  5
33
102
{ACAD_REACTORS
330
2A
102
}
330
2A
100
AcDbProxyObject
 90
      499
 91
      501
 93
      420
310
425499585B1A5CDD1A58D08409028333333333333E3BF0000000000000FB01079019070040501508421405064090741402480A1B40
1001
ACAD
1000
AcDbSavedByObjectVersion
1070
     0
  0
ACAD_PROXY_OBJECT
  5
37
102
{ACAD_REACTORS
330
2A
102
}
330
2A
100
AcDbProxyObject
 90
      499
 91
      501
 93
      412
310
41D51A1A58DAD95B90D409028333333333333E3BF0000000000000FB010790141107004050150C41D405064090741402480A0350
1001
ACAD
1000
AcDbSavedByObjectVersion
1070
     0
  0
XRECORD
  5
A5
102
{ACAD_REACTORS
330
9C
102
}
330
9C
100
AcDbXrecord
 90
        0
  0
XRECORD
  5
BB
102
{ACAD_REACTORS
330
9C
102
}
330
9C
100
AcDbXrecord
1000
DSTYLE
1002
{
1070
   340
340
11
1002
}
  0
XRECORD
  5
A6
102
{ACAD_REACTORS
330
9C
102
}
330
9C
100
AcDbXrecord
  1
{A5F4C842-2FB4-4361-A10F-4F92A6F05668}
  0
XRECORD
  5
9F
102
{ACAD_REACTORS
330
9C
102
}
330
9C
100
AcDbXrecord
  1

  0
XRECORD
  5
A4
102
{ACAD_REACTORS
330
9C
102
}
330
9C
100
AcDbXrecord
 90
        4
  0
XRECORD
  5
A1
102
{ACAD_REACTORS
330
9C
102
}
330
9C
100
AcDbXrecord
340
1A
  0
XRECORD
  5
A3
102
{ACAD_REACTORS
330
9C
102
}
330
9C
100
AcDbXrecord
 90
    10781
  0
XRECORD
  5
A2
102
{ACAD_REACTORS
330
9C
102
}
330
9C
100
AcDbXrecord
340
19
  0
XRECORD
  5
A8
102
{ACAD_REACTORS
330
9C
102
}
330
9C
100
AcDbXrecord
 40
0.0
  0
XRECORD
  5
AB
102
{ACAD_REACTORS
330
9C
102
}
330
9C
100
AcDbXrecord
340
0
  0
XRECORD
  5
B1
102
{ACAD_REACTORS
330
9C
102
}
330
9C
100
AcDbXrecord
 10
0.0
 20
0.0
 30
0.0
  0
XRECORD
  5
AD
102
{ACAD_REACTORS
330
9C
102
}
330
9C
100
AcDbXrecord
 10
0.0
 20
0.0
 30
0.0
  0
XRECORD
  5
B0
102
{ACAD_REACTORS
330
9C
102
}
330
9C
100
AcDbXrecord
 10
0.0
 20
0.0
 30
0.0
  0
XRECORD
  5
AE
102
{ACAD_REACTORS
330
9C
102
}
330
9C
100
AcDbXrecord
 10
0.0
 20
0.0
 30
0.0
  0
XRECORD
  5
AF
102
{ACAD_REACTORS
330
9C
102
}
330
9C
100
AcDbXrecord
 10
0.0
 20
0.0
 30
0.0
  0
XRECORD
  5
AC
102
{ACAD_REACTORS
330
9C
102
}
330
9C
100
AcDbXrecord
 10
0.0
 20
0.0
 30
0.0
  0
XRECORD
  5
A9
102
{ACAD_REACTORS
330
9C
102
}
330
9C
100
AcDbXrecord
340
0
  0
XRECORD
  5
AA
102
{ACAD_REACTORS
330
9C
102
}
330
9C
100
AcDbXrecord
 70
     0
  0
XRECORD
  5
A0
102
{ACAD_REACTORS
330
9C
102
}
330
9C
100
AcDbXrecord
  1

  0
XRECORD
  5
9D
102
{ACAD_REACTORS
330
9C
102
}
330
9C
100
AcDbXrecord
 90
        1
  0
XRECORD
  5
9E
102
{ACAD_REACTORS
330
9C
102
}
330
9C
100
AcDbXrecord
 90
       70
  0
XRECORD
  5
B4
102
{ACAD_REACTORS
330
9C
102
}
330
9C
100
AcDbXrecord
340
0
  0
XRECORD
  5
BA
102
{ACAD_REACTORS
330
9C
102
}
330
9C
100
AcDbXrecord
 10
0.0
 20
0.0
 30
0.0
  0
XRECORD
  5
B6
102
{ACAD_REACTORS
330
9C
102
}
330
9C
100
AcDbXrecord
 10
0.0
 20
0.0
 30
0.0
  0
XRECORD
  5
B9
102
{ACAD_REACTORS
330
9C
102
}
330
9C
100
AcDbXrecord
 10
0.0
 20
0.0
 30
0.0
  0
XRECORD
  5
B7
102
{ACAD_REACTORS
330
9C
102
}
330
9C
100
AcDbXrecord
 10
0.0
 20
0.0
 30
0.0
  0
XRECORD
  5
B8
102
{ACAD_REACTORS
330
9C
102
}
330
9C
100
AcDbXrecord
 10
0.0
 20
0.0
 30
0.0
  0
XRECORD
  5
B5
102
{ACAD_REACTORS
330
9C
102
}
330
9C
100
AcDbXrecord
 10
0.0
 20
0.0
 30
0.0
  0
XRECORD
  5
B2
102
{ACAD_REACTORS
330
9C
102
}
330
9C
100
AcDbXrecord
340
0
  0
XRECORD
  5
B3
102
{ACAD_REACTORS
330
9C
102
}
330
9C
100
AcDbXrecord
 70
     0
  0
XRECORD
  5
A7
102
{ACAD_REACTORS
330
9C
102
}
330
9C
100
AcDbXrecord
  1
{FAEB1C32-E019-11D5-929B-00C0DF256EC4}
  0
DICTIONARYVAR
  5
BF
102
{ACAD_REACTORS
330
BC
102
}
330
BC
100
DictionaryVariables
280
     0
  1
2
  0
DICTIONARYVAR
  5
C0
102
{ACAD_REACTORS
330
BC
102
}
330
BC
100
DictionaryVariables
280
     0
  1
1
  0
DICTIONARY
  5
C3
330
3D
100
AcDbDictionary
280
     1
  3
ACAD_XREC_ROUNDTRIP
360
C4
  0
DICTIONARY
  5
C1
330
3C
100
AcDbDictionary
280
     1
  3
ACAD_XREC_ROUNDTRIP
360
C2
  0
DICTIONARY
  5
C5
330
3E
100
AcDbDictionary
280
     1
  3
ACAD_XREC_ROUNDTRIP
360
C6
  0
XRECORD
  5
C4
102
{ACAD_REACTORS
330
C3
102
}
330
C3
100
AcDbXrecord
102
MATERIAL
148
0.0
149
0.0
149
0.0
 93
        0
 94
      127
282
     0
 72
     1
 77
     1
171
     1
175
     1
179
     1
273
     0
  0
XRECORD
  5
C2
102
{ACAD_REACTORS
330
C1
102
}
330
C1
100
AcDbXrecord
102
MATERIAL
148
0.0
149
0.0
149
0.0
 93
        0
 94
      127
282
     0
 72
     1
 77
     1
171
     1
175
     1
179
     1
273
     0
  0
XRECORD
  5
C6
102
{ACAD_REACTORS
330
C5
102
}
330
C5
100
AcDbXrecord
102
MATERIAL
148
0.0
149
0.0
149
0.0
 93
        0
 94
      127
282
     0
 72
     1
 77
     1
171
     1
175
     1
179
     1
273
     0
  0
ENDSEC
  0
EOF
