  0
SECTION
  2
HEADER
  9
$ACADVER
  1
AC1014
  9
$ACADMAINTVER
 70
     9
  9
$DWGCODEPAGE
  3
ANSI_1250
  9
$INSBASE
 10
0.0
 20
0.0
 30
0.0
  9
$EXTMIN
 10
-39.6726
 20
-46.9574
 30
0.0
  9
$EXTMAX
 10
39.8137
 20
46.9573
 30
0.0
  9
$LIMMIN
 10
0.0
 20
0.0
  9
$LIMMAX
 10
12.0
 20
9.0
  9
$ORTHOMODE
 70
     0
  9
$REGENMODE
 70
     1
  9
$FILLMODE
 70
     1
  9
$QTEXTMODE
 70
     0
  9
$MIRRTEXT
 70
     1
  9
$DRAGMODE
 70
     2
  9
$LTSCALE
 40
1.0
  9
$OSMODE
 70
    37
  9
$ATTMODE
 70
     1
  9
$TEXTSIZE
 40
0.2
  9
$TRACEWID
 40
0.05
  9
$TEXTSTYLE
  7
STANDARD
  9
$CLAYER
  8
0
  9
$CELTYPE
  6
BYLAYER
  9
$CECOLOR
 62
   256
  9
$CELTSCALE
 40
1.0
  9
$DELOBJ
 70
     1
  9
$DISPSILH
 70
     0
  9
$DIMSCALE
 40
1.0
  9
$DIMASZ
 40
0.18
  9
$DIMEXO
 40
0.0625
  9
$DIMDLI
 40
0.38
  9
$DIMRND
 40
0.0
  9
$DIMDLE
 40
0.0
  9
$DIMEXE
 40
0.18
  9
$DIMTP
 40
0.0
  9
$DIMTM
 40
0.0
  9
$DIMTXT
 40
0.18
  9
$DIMCEN
 40
0.09
  9
$DIMTSZ
 40
0.0
  9
$DIMTOL
 70
     0
  9
$DIMLIM
 70
     0
  9
$DIMTIH
 70
     1
  9
$DIMTOH
 70
     1
  9
$DIMSE1
 70
     0
  9
$DIMSE2
 70
     0
  9
$DIMTAD
 70
     0
  9
$DIMZIN
 70
     0
  9
$DIMBLK
  1

  9
$DIMASO
 70
     1
  9
$DIMSHO
 70
     1
  9
$DIMPOST
  1

  9
$DIMAPOST
  1

  9
$DIMALT
 70
     0
  9
$DIMALTD
 70
     2
  9
$DIMALTF
 40
25.4
  9
$DIMLFAC
 40
1.0
  9
$DIMTOFL
 70
     0
  9
$DIMTVP
 40
0.0
  9
$DIMTIX
 70
     0
  9
$DIMSOXD
 70
     0
  9
$DIMSAH
 70
     0
  9
$DIMBLK1
  1

  9
$DIMBLK2
  1

  9
$DIMSTYLE
  2
STANDARD
  9
$DIMCLRD
 70
     0
  9
$DIMCLRE
 70
     0
  9
$DIMCLRT
 70
     0
  9
$DIMTFAC
 40
1.0
  9
$DIMGAP
 40
0.09
  9
$DIMJUST
 70
     0
  9
$DIMSD1
 70
     0
  9
$DIMSD2
 70
     0
  9
$DIMTOLJ
 70
     1
  9
$DIMTZIN
 70
     0
  9
$DIMALTZ
 70
     0
  9
$DIMALTTZ
 70
     0
  9
$DIMFIT
 70
     3
  9
$DIMUPT
 70
     0
  9
$DIMUNIT
 70
     2
  9
$DIMDEC
 70
     4
  9
$DIMTDEC
 70
     4
  9
$DIMALTU
 70
     2
  9
$DIMALTTD
 70
     2
  9
$DIMTXSTY
  7
STANDARD
  9
$DIMAUNIT
 70
     0
  9
$LUNITS
 70
     2
  9
$LUPREC
 70
     4
  9
$SKETCHINC
 40
0.1
  9
$FILLETRAD
 40
0.5
  9
$AUNITS
 70
     0
  9
$AUPREC
 70
     0
  9
$MENU
  1
.
  9
$ELEVATION
 40
0.0
  9
$PELEVATION
 40
0.0
  9
$THICKNESS
 40
0.0
  9
$LIMCHECK
 70
     0
  9
$CHAMFERA
 40
0.5
  9
$CHAMFERB
 40
0.5
  9
$CHAMFERC
 40
1.0
  9
$CHAMFERD
 40
0.0
  9
$SKPOLY
 70
     0
  9
$TDCREATE
 40
2456535.303803808
  9
$TDUPDATE
 40
2456535.303803819
  9
$TDINDWG
 40
0.0000000116
  9
$TDUSRTIMER
 40
0.0000000116
  9
$USRTIMER
 70
     1
  9
$ANGBASE
 50
0.0
  9
$ANGDIR
 70
     0
  9
$PDMODE
 70
     0
  9
$PDSIZE
 40
0.0
  9
$PLINEWID
 40
0.0
  9
$COORDS
 70
     1
  9
$SPLFRAME
 70
     0
  9
$SPLINETYPE
 70
     6
  9
$SPLINESEGS
 70
     8
  9
$ATTDIA
 70
     0
  9
$ATTREQ
 70
     1
  9
$HANDLING
 70
     1
  9
$HANDSEED
  5
213
  9
$SURFTAB1
 70
     6
  9
$SURFTAB2
 70
     6
  9
$SURFTYPE
 70
     6
  9
$SURFU
 70
     6
  9
$SURFV
 70
     6
  9
$UCSNAME
  2

  9
$UCSORG
 10
0.0
 20
0.0
 30
0.0
  9
$UCSXDIR
 10
1.0
 20
0.0
 30
0.0
  9
$UCSYDIR
 10
0.0
 20
1.0
 30
0.0
  9
$PUCSNAME
  2

  9
$PUCSORG
 10
0.0
 20
0.0
 30
0.0
  9
$PUCSXDIR
 10
1.0
 20
0.0
 30
0.0
  9
$PUCSYDIR
 10
0.0
 20
1.0
 30
0.0
  9
$USERI1
 70
     0
  9
$USERI2
 70
     0
  9
$USERI3
 70
     0
  9
$USERI4
 70
     0
  9
$USERI5
 70
     0
  9
$USERR1
 40
0.0
  9
$USERR2
 40
0.0
  9
$USERR3
 40
0.0
  9
$USERR4
 40
0.0
  9
$USERR5
 40
0.0
  9
$WORLDVIEW
 70
     1
  9
$SHADEDGE
 70
     3
  9
$SHADEDIF
 70
    70
  9
$TILEMODE
 70
     1
  9
$MAXACTVP
 70
    64
  9
$PINSBASE
 10
0.0
 20
0.0
 30
0.0
  9
$PLIMCHECK
 70
     0
  9
$PEXTMIN
 10
1.000000000000000E+20
 20
1.000000000000000E+20
 30
1.000000000000000E+20
  9
$PEXTMAX
 10
-1.000000000000000E+20
 20
-1.000000000000000E+20
 30
-1.000000000000000E+20
  9
$PLIMMIN
 10
0.0
 20
0.0
  9
$PLIMMAX
 10
12.0
 20
9.0
  9
$UNITMODE
 70
     0
  9
$VISRETAIN
 70
     1
  9
$PLINEGEN
 70
     0
  9
$PSLTSCALE
 70
     1
  9
$TREEDEPTH
 70
  3020
  9
$PICKSTYLE
 70
     1
  9
$CMLSTYLE
  2
STANDARD
  9
$CMLJUST
 70
     0
  9
$CMLSCALE
 40
1.0
  9
$PROXYGRAPHICS
 70
     1
  9
$MEASUREMENT
 70
     0
  0
ENDSEC
  0
SECTION
  2
CLASSES
  0
CLASS
  1
ACDBDICTIONARYWDFLT
  2
AcDbDictionaryWithDefault
  3
ObjectDBX Classes
 90
        0
280
     0
281
     0
  0
CLASS
  1
VISUALSTYLE
  2
AcDbVisualStyle
  3
ObjectDBX Classes
 90
     4095
280
     0
281
     0
  0
CLASS
  1
MATERIAL
  2
AcDbMaterial
  3
ObjectDBX Classes
 90
     1153
280
     0
281
     0
  0
CLASS
  1
DICTIONARYVAR
  2
AcDbDictionaryVar
  3
ObjectDBX Classes
 90
        0
280
     0
281
     0
  0
CLASS
  1
XRECORD
  2
AcDbXrecord
  3
AutoCAD 2000
 90
        0
280
     0
281
     0
  0
CLASS
  1
LWPOLYLINE
  2
AcDbPolyline
  3
AutoCAD 2000
 90
        0
280
     0
281
     1
  0
CLASS
  1
HATCH
  2
AcDbHatch
  3
AutoCAD 2000
 90
        0
280
     0
281
     1
  0
CLASS
  1
ACDBPLACEHOLDER
  2
AcDbPlaceHolder
  3
ObjectDBX Classes
 90
        0
280
     0
281
     0
  0
CLASS
  1
LAYOUT
  2
AcDbLayout
  3
ObjectDBX Classes
 90
        0
280
     0
281
     0
  0
ENDSEC
  0
SECTION
  2
TABLES
  0
TABLE
  2
VPORT
  5
8
330
0
100
AcDbSymbolTable
 70
     1
  0
VPORT
  5
29
330
8
100
AcDbSymbolTableRecord
100
AcDbViewportTableRecord
  2
*ACTIVE
 70
     0
 10
0.0
 20
0.0
 11
1.0
 21
1.0
 12
10.42990654205607
 22
4.5
 13
0.0
 23
0.0
 14
0.5
 24
0.5
 15
0.5
 25
0.5
 16
0.0
 26
0.0
 36
1.0
 17
0.0
 27
0.0
 37
0.0
 40
9.0
 41
1.972972972850329
 42
50.0
 43
0.0
 44
0.0
 50
0.0
 51
0.0
 71
     0
 72
   100
 73
     1
 74
     3
 75
     0
 76
     0
 77
     0
 78
     0
  0
ENDTAB
  0
TABLE
  2
LTYPE
  5
5
330
0
100
AcDbSymbolTable
 70
    20
  0
LTYPE
  5
14
330
5
100
AcDbSymbolTableRecord
100
AcDbLinetypeTableRecord
  2
BYBLOCK
 70
     0
  3

 72
    65
 73
     0
 40
0.0
  0
LTYPE
  5
15
330
5
100
AcDbSymbolTableRecord
100
AcDbLinetypeTableRecord
  2
BYLAYER
 70
     0
  3

 72
    65
 73
     0
 40
0.0
  0
LTYPE
  5
16
330
5
100
AcDbSymbolTableRecord
100
AcDbLinetypeTableRecord
  2
CONTINUOUS
 70
     0
  3
Solid line
 72
    65
 73
     0
 40
0.0
  0
LTYPE
  5
4A
330
5
100
AcDbSymbolTableRecord
100
AcDbLinetypeTableRecord
  2
NEW_LINE1
 70
     0
  3

 72
    65
 73
     4
 40
1.2
 49
0.5
 74
     4
 75
     0
340
0
 46
1.0
 50
0.0
 44
0.0
 45
0.0
 49
-0.3
 74
     4
 75
     0
340
0
 46
1.0
 50
0.0
 44
0.0
 45
0.0
 49
0.1
 74
     4
 75
     0
340
0
 46
1.0
 50
0.0
 44
0.0
 45
0.0
 49
-0.3
 74
     4
 75
     0
340
0
 46
1.0
 50
0.0
 44
0.0
 45
0.0
  0
LTYPE
  5
4C
330
5
100
AcDbSymbolTableRecord
100
AcDbLinetypeTableRecord
  2
NEW_LINE2
 70
     0
  3

 72
    65
 73
     4
 40
1.2
 49
0.5
 74
     4
 75
     0
340
0
 46
1.0
 50
0.0
 44
0.0
 45
0.0
 49
-0.3
 74
     4
 75
     0
340
0
 46
1.0
 50
0.0
 44
0.0
 45
0.0
 49
0.1
 74
     4
 75
     0
340
0
 46
1.0
 50
0.0
 44
0.0
 45
0.0
 49
-0.3
 74
     4
 75
     0
340
0
 46
1.0
 50
0.0
 44
0.0
 45
0.0
  0
LTYPE
  5
55
330
5
100
AcDbSymbolTableRecord
100
AcDbLinetypeTableRecord
  2
NEW_LINE3
 70
     0
  3

 72
    65
 73
     4
 40
1.2
 49
0.5
 74
     4
 75
     0
340
0
 46
1.0
 50
0.0
 44
0.0
 45
0.0
 49
-0.3
 74
     4
 75
     0
340
0
 46
1.0
 50
0.0
 44
0.0
 45
0.0
 49
0.1
 74
     4
 75
     0
340
0
 46
1.0
 50
0.0
 44
0.0
 45
0.0
 49
-0.3
 74
     4
 75
     0
340
0
 46
1.0
 50
0.0
 44
0.0
 45
0.0
  0
LTYPE
  5
57
330
5
100
AcDbSymbolTableRecord
100
AcDbLinetypeTableRecord
  2
NEW_LINE4
 70
     0
  3

 72
    65
 73
     4
 40
1.2
 49
0.5
 74
     4
 75
     0
340
0
 46
1.0
 50
0.0
 44
0.0
 45
0.0
 49
-0.3
 74
     4
 75
     0
340
0
 46
1.0
 50
0.0
 44
0.0
 45
0.0
 49
0.1
 74
     4
 75
     0
340
0
 46
1.0
 50
0.0
 44
0.0
 45
0.0
 49
-0.3
 74
     4
 75
     0
340
0
 46
1.0
 50
0.0
 44
0.0
 45
0.0
  0
LTYPE
  5
59
330
5
100
AcDbSymbolTableRecord
100
AcDbLinetypeTableRecord
  2
NEW_LINE5
 70
     0
  3

 72
    65
 73
     4
 40
1.2
 49
0.5
 74
     4
 75
     0
340
0
 46
1.0
 50
0.0
 44
0.0
 45
0.0
 49
-0.3
 74
     4
 75
     0
340
0
 46
1.0
 50
0.0
 44
0.0
 45
0.0
 49
0.1
 74
     4
 75
     0
340
0
 46
1.0
 50
0.0
 44
0.0
 45
0.0
 49
-0.3
 74
     4
 75
     0
340
0
 46
1.0
 50
0.0
 44
0.0
 45
0.0
  0
LTYPE
  5
5B
330
5
100
AcDbSymbolTableRecord
100
AcDbLinetypeTableRecord
  2
NEW_LINE6
 70
     0
  3

 72
    65
 73
     4
 40
1.2
 49
0.5
 74
     4
 75
     0
340
0
 46
1.0
 50
0.0
 44
0.0
 45
0.0
 49
-0.3
 74
     4
 75
     0
340
0
 46
1.0
 50
0.0
 44
0.0
 45
0.0
 49
0.1
 74
     4
 75
     0
340
0
 46
1.0
 50
0.0
 44
0.0
 45
0.0
 49
-0.3
 74
     4
 75
     0
340
0
 46
1.0
 50
0.0
 44
0.0
 45
0.0
  0
LTYPE
  5
5D
330
5
100
AcDbSymbolTableRecord
100
AcDbLinetypeTableRecord
  2
NEW_LINE7
 70
     0
  3

 72
    65
 73
     4
 40
1.2
 49
0.5
 74
     4
 75
     0
340
0
 46
1.0
 50
0.0
 44
0.0
 45
0.0
 49
-0.3
 74
     4
 75
     0
340
0
 46
1.0
 50
0.0
 44
0.0
 45
0.0
 49
0.1
 74
     4
 75
     0
340
0
 46
1.0
 50
0.0
 44
0.0
 45
0.0
 49
-0.3
 74
     4
 75
     0
340
0
 46
1.0
 50
0.0
 44
0.0
 45
0.0
  0
LTYPE
  5
5F
330
5
100
AcDbSymbolTableRecord
100
AcDbLinetypeTableRecord
  2
NEW_LINE8
 70
     0
  3

 72
    65
 73
     4
 40
1.2
 49
0.5
 74
     4
 75
     0
340
0
 46
1.0
 50
0.0
 44
0.0
 45
0.0
 49
-0.3
 74
     4
 75
     0
340
0
 46
1.0
 50
0.0
 44
0.0
 45
0.0
 49
0.1
 74
     4
 75
     0
340
0
 46
1.0
 50
0.0
 44
0.0
 45
0.0
 49
-0.3
 74
     4
 75
     0
340
0
 46
1.0
 50
0.0
 44
0.0
 45
0.0
  0
LTYPE
  5
68
330
5
100
AcDbSymbolTableRecord
100
AcDbLinetypeTableRecord
  2
NEW_LINE9
 70
     0
  3

 72
    65
 73
     4
 40
1.2
 49
0.5
 74
     4
 75
     0
340
0
 46
1.0
 50
0.0
 44
0.0
 45
0.0
 49
-0.3
 74
     4
 75
     0
340
0
 46
1.0
 50
0.0
 44
0.0
 45
0.0
 49
0.1
 74
     4
 75
     0
340
0
 46
1.0
 50
0.0
 44
0.0
 45
0.0
 49
-0.3
 74
     4
 75
     0
340
0
 46
1.0
 50
0.0
 44
0.0
 45
0.0
  0
LTYPE
  5
6A
330
5
100
AcDbSymbolTableRecord
100
AcDbLinetypeTableRecord
  2
NEW_LINE10
 70
     0
  3

 72
    65
 73
     4
 40
1.2
 49
0.5
 74
     4
 75
     0
340
0
 46
1.0
 50
0.0
 44
0.0
 45
0.0
 49
-0.3
 74
     4
 75
     0
340
0
 46
1.0
 50
0.0
 44
0.0
 45
0.0
 49
0.1
 74
     4
 75
     0
340
0
 46
1.0
 50
0.0
 44
0.0
 45
0.0
 49
-0.3
 74
     4
 75
     0
340
0
 46
1.0
 50
0.0
 44
0.0
 45
0.0
  0
LTYPE
  5
76
330
5
100
AcDbSymbolTableRecord
100
AcDbLinetypeTableRecord
  2
NEW_LINE11
 70
     0
  3

 72
    65
 73
     4
 40
1.2
 49
0.5
 74
     4
 75
     0
340
0
 46
1.0
 50
0.0
 44
0.0
 45
0.0
 49
-0.3
 74
     4
 75
     0
340
0
 46
1.0
 50
0.0
 44
0.0
 45
0.0
 49
0.1
 74
     4
 75
     0
340
0
 46
1.0
 50
0.0
 44
0.0
 45
0.0
 49
-0.3
 74
     4
 75
     0
340
0
 46
1.0
 50
0.0
 44
0.0
 45
0.0
  0
LTYPE
  5
78
330
5
100
AcDbSymbolTableRecord
100
AcDbLinetypeTableRecord
  2
NEW_LINE12
 70
     0
  3

 72
    65
 73
     4
 40
1.2
 49
0.5
 74
     4
 75
     0
340
0
 46
1.0
 50
0.0
 44
0.0
 45
0.0
 49
-0.3
 74
     4
 75
     0
340
0
 46
1.0
 50
0.0
 44
0.0
 45
0.0
 49
0.1
 74
     4
 75
     0
340
0
 46
1.0
 50
0.0
 44
0.0
 45
0.0
 49
-0.3
 74
     4
 75
     0
340
0
 46
1.0
 50
0.0
 44
0.0
 45
0.0
  0
LTYPE
  5
7A
330
5
100
AcDbSymbolTableRecord
100
AcDbLinetypeTableRecord
  2
NEW_LINE13
 70
     0
  3

 72
    65
 73
     4
 40
1.2
 49
0.5
 74
     4
 75
     0
340
0
 46
1.0
 50
0.0
 44
0.0
 45
0.0
 49
-0.3
 74
     4
 75
     0
340
0
 46
1.0
 50
0.0
 44
0.0
 45
0.0
 49
0.1
 74
     4
 75
     0
340
0
 46
1.0
 50
0.0
 44
0.0
 45
0.0
 49
-0.3
 74
     4
 75
     0
340
0
 46
1.0
 50
0.0
 44
0.0
 45
0.0
  0
LTYPE
  5
84
330
5
100
AcDbSymbolTableRecord
100
AcDbLinetypeTableRecord
  2
NEW_LINE14
 70
     0
  3

 72
    65
 73
     4
 40
1.2
 49
0.5
 74
     4
 75
     0
340
0
 46
1.0
 50
0.0
 44
0.0
 45
0.0
 49
-0.3
 74
     4
 75
     0
340
0
 46
1.0
 50
0.0
 44
0.0
 45
0.0
 49
0.1
 74
     4
 75
     0
340
0
 46
1.0
 50
0.0
 44
0.0
 45
0.0
 49
-0.3
 74
     4
 75
     0
340
0
 46
1.0
 50
0.0
 44
0.0
 45
0.0
  0
LTYPE
  5
86
330
5
100
AcDbSymbolTableRecord
100
AcDbLinetypeTableRecord
  2
NEW_LINE15
 70
     0
  3

 72
    65
 73
     4
 40
1.2
 49
0.5
 74
     4
 75
     0
340
0
 46
1.0
 50
0.0
 44
0.0
 45
0.0
 49
-0.3
 74
     4
 75
     0
340
0
 46
1.0
 50
0.0
 44
0.0
 45
0.0
 49
0.1
 74
     4
 75
     0
340
0
 46
1.0
 50
0.0
 44
0.0
 45
0.0
 49
-0.3
 74
     4
 75
     0
340
0
 46
1.0
 50
0.0
 44
0.0
 45
0.0
  0
LTYPE
  5
97
330
5
100
AcDbSymbolTableRecord
100
AcDbLinetypeTableRecord
  2
NEW_LINE16
 70
     0
  3

 72
    65
 73
     4
 40
1.2
 49
0.5
 74
     4
 75
     0
340
0
 46
1.0
 50
0.0
 44
0.0
 45
0.0
 49
-0.3
 74
     4
 75
     0
340
0
 46
1.0
 50
0.0
 44
0.0
 45
0.0
 49
0.1
 74
     4
 75
     0
340
0
 46
1.0
 50
0.0
 44
0.0
 45
0.0
 49
-0.3
 74
     4
 75
     0
340
0
 46
1.0
 50
0.0
 44
0.0
 45
0.0
  0
LTYPE
  5
99
330
5
100
AcDbSymbolTableRecord
100
AcDbLinetypeTableRecord
  2
NEW_LINE17
 70
     0
  3

 72
    65
 73
     4
 40
1.2
 49
0.5
 74
     4
 75
     0
340
0
 46
1.0
 50
0.0
 44
0.0
 45
0.0
 49
-0.3
 74
     4
 75
     0
340
0
 46
1.0
 50
0.0
 44
0.0
 45
0.0
 49
0.1
 74
     4
 75
     0
340
0
 46
1.0
 50
0.0
 44
0.0
 45
0.0
 49
-0.3
 74
     4
 75
     0
340
0
 46
1.0
 50
0.0
 44
0.0
 45
0.0
  0
LTYPE
  5
A6
330
5
100
AcDbSymbolTableRecord
100
AcDbLinetypeTableRecord
  2
NEW_LINE18
 70
     0
  3

 72
    65
 73
     4
 40
1.2
 49
0.5
 74
     4
 75
     0
340
0
 46
1.0
 50
0.0
 44
0.0
 45
0.0
 49
-0.3
 74
     4
 75
     0
340
0
 46
1.0
 50
0.0
 44
0.0
 45
0.0
 49
0.1
 74
     4
 75
     0
340
0
 46
1.0
 50
0.0
 44
0.0
 45
0.0
 49
-0.3
 74
     4
 75
     0
340
0
 46
1.0
 50
0.0
 44
0.0
 45
0.0
  0
LTYPE
  5
A8
330
5
100
AcDbSymbolTableRecord
100
AcDbLinetypeTableRecord
  2
NEW_LINE19
 70
     0
  3

 72
    65
 73
     4
 40
1.2
 49
0.5
 74
     4
 75
     0
340
0
 46
1.0
 50
0.0
 44
0.0
 45
0.0
 49
-0.3
 74
     4
 75
     0
340
0
 46
1.0
 50
0.0
 44
0.0
 45
0.0
 49
0.1
 74
     4
 75
     0
340
0
 46
1.0
 50
0.0
 44
0.0
 45
0.0
 49
-0.3
 74
     4
 75
     0
340
0
 46
1.0
 50
0.0
 44
0.0
 45
0.0
  0
ENDTAB
  0
TABLE
  2
LAYER
  5
2
330
0
100
AcDbSymbolTable
 70
     2
  0
LAYER
  5
10
330
2
100
AcDbSymbolTableRecord
100
AcDbLayerTableRecord
  2
0
 70
     0
 62
     7
  6
CONTINUOUS
  0
LAYER
  5
40
330
2
100
AcDbSymbolTableRecord
100
AcDbLayerTableRecord
  2
DATUMS
 70
     0
 62
     7
  6
CONTINUOUS
  0
ENDTAB
  0
TABLE
  2
STYLE
  5
3
330
0
100
AcDbSymbolTable
 70
     1
  0
STYLE
  5
11
330
3
100
AcDbSymbolTableRecord
100
AcDbTextStyleTableRecord
  2
STANDARD
 70
     0
 40
0.0
 41
1.0
 50
0.0
 71
     0
 42
0.2
  3
txt
  4

  0
ENDTAB
  0
TABLE
  2
VIEW
  5
6
330
0
100
AcDbSymbolTable
 70
     0
  0
ENDTAB
  0
TABLE
  2
UCS
  5
7
330
0
100
AcDbSymbolTable
 70
     0
  0
ENDTAB
  0
TABLE
  2
APPID
  5
9
330
0
100
AcDbSymbolTable
 70
     2
  0
APPID
  5
12
330
9
100
AcDbSymbolTableRecord
100
AcDbRegAppTableRecord
  2
ACAD
 70
     0
  0
APPID
  5
3F
330
9
100
AcDbSymbolTableRecord
100
AcDbRegAppTableRecord
  2
ODA
 70
     0
  0
ENDTAB
  0
TABLE
  2
DIMSTYLE
  5
A
330
0
100
AcDbSymbolTable
 70
     1
  0
DIMSTYLE
105
27
330
A
100
AcDbSymbolTableRecord
100
AcDbDimStyleTableRecord
  2
STANDARD
 70
     0
  3

  4

  5

  6

  7

 40
1.0
 41
0.18
 42
0.0625
 43
0.38
 44
0.18
 45
0.0
 46
0.0
 47
0.0
 48
0.0
140
0.18
141
0.09
142
0.0
143
25.4
144
1.0
145
0.0
146
1.0
147
0.09
 71
     0
 72
     0
 73
     1
 74
     1
 75
     0
 76
     0
 77
     0
 78
     0
170
     0
171
     2
172
     0
173
     0
174
     0
175
     0
176
     0
177
     0
178
     0
270
     2
271
     4
272
     4
273
     2
274
     2
340
11
275
     0
280
     0
281
     0
282
     0
283
     1
284
     0
285
     0
286
     0
287
     3
288
     0
  0
ENDTAB
  0
TABLE
  2
BLOCK_RECORD
  5
1
330
0
100
AcDbSymbolTable
 70
     1
  0
BLOCK_RECORD
  5
1F
330
1
100
AcDbSymbolTableRecord
100
AcDbBlockTableRecord
  2
*MODEL_SPACE
  0
BLOCK_RECORD
  5
1B
330
1
100
AcDbSymbolTableRecord
100
AcDbBlockTableRecord
  2
*PAPER_SPACE
  0
ENDTAB
  0
ENDSEC
  0
SECTION
  2
BLOCKS
  0
BLOCK
  5
20
330
1F
100
AcDbEntity
  8
0
100
AcDbBlockBegin
  2
*MODEL_SPACE
 70
     0
 10
0.0
 20
0.0
 30
0.0
  3
*MODEL_SPACE
  1

  0
ENDBLK
  5
21
330
1F
100
AcDbEntity
  8
0
100
AcDbBlockEnd
  0
BLOCK
  5
1C
330
1B
100
AcDbEntity
 67
     1
  8
0
100
AcDbBlockBegin
  2
*PAPER_SPACE
 70
     0
 10
0.0
 20
0.0
 30
0.0
  3
*PAPER_SPACE
  1

  0
ENDBLK
  5
1D
330
1B
100
AcDbEntity
 67
     1
  8
0
100
AcDbBlockEnd
  0
ENDSEC
  0
SECTION
  2
ENTITIES
  0
SPLINE
  5
41
330
1F
100
AcDbEntity
  8
DATUMS
 62
   250
100
AcDbSpline
210
0.0
220
0.0
230
1.0
 70
    11
 71
     3
 72
    40
 73
    36
 74
     0
 42
0.0000000001
 43
0.0000000001
 40
0.0
 40
0.0
 40
0.0
 40
0.0
 40
0.1
 40
0.1
 40
0.1
 40
0.1
 40
0.2
 40
0.2
 40
0.2
 40
0.2
 40
0.3
 40
0.3
 40
0.3
 40
0.3
 40
0.4
 40
0.4
 40
0.4
 40
0.4
 40
0.5
 40
0.5
 40
0.5
 40
0.5
 40
0.6
 40
0.6
 40
0.6
 40
0.6
 40
0.7
 40
0.7
 40
0.7
 40
0.7
 40
0.8
 40
0.8
 40
0.8
 40
0.8
 40
1.0
 40
1.0
 40
1.0
 40
1.0
 10
-37.5557
 20
14.9777
 30
0.0
 10
-37.5557
 20
14.9777
 30
0.0
 10
-37.5557
 20
14.7298
 30
0.0
 10
-37.5557
 20
14.7298
 30
0.0
 10
-37.5557
 20
14.7298
 30
0.0
 10
-37.5557
 20
14.7298
 30
0.0
 10
-39.1361
 20
14.7298
 30
0.0
 10
-39.1361
 20
14.7298
 30
0.0
 10
-39.1361
 20
14.7298
 30
0.0
 10
-39.0792
 20
14.67
 30
0.0
 10
-39.0223
 20
14.592
 30
0.0
 10
-38.9654
 20
14.4951
 30
0.0
 10
-38.9654
 20
14.4951
 30
0.0
 10
-38.9085
 20
14.3977
 30
0.0
 10
-38.8657
 20
14.3107
 30
0.0
 10
-38.8374
 20
14.2335
 30
0.0
 10
-38.8374
 20
14.2335
 30
0.0
 10
-38.8374
 20
14.2335
 30
0.0
 10
-39.0769
 20
14.2335
 30
0.0
 10
-39.0769
 20
14.2335
 30
0.0
 10
-39.0769
 20
14.2335
 30
0.0
 10
-39.1422
 20
14.3723
 30
0.0
 10
-39.2213
 20
14.4937
 30
0.0
 10
-39.3139
 20
14.5976
 30
0.0
 10
-39.3139
 20
14.5976
 30
0.0
 10
-39.4071
 20
14.7011
 30
0.0
 10
-39.4969
 20
14.7749
 30
0.0
 10
-39.5844
 20
14.8182
 30
0.0
 10
-39.5844
 20
14.8182
 30
0.0
 10
-39.5844
 20
14.8182
 30
0.0
 10
-39.5844
 20
14.9777
 30
0.0
 10
-39.5844
 20
14.9777
 30
0.0
 10
-39.5844
 20
14.9777
 30
0.0
 10
-39.5844
 20
14.9777
 30
0.0
 10
-37.5557
 20
14.9777
 30
0.0
 10
-37.5557
 20
14.9777
 30
0.0
  0
SPLINE
  5
42
330
1F
100
AcDbEntity
  8
DATUMS
 62
   250
100
AcDbSpline
210
0.0
220
0.0
230
1.0
 70
    11
 71
     3
 72
    80
 73
    76
 74
     0
 42
0.0000000001
 43
0.0000000001
 40
0.0
 40
0.0
 40
0.0
 40
0.0
 40
0.05
 40
0.05
 40
0.05
 40
0.05
 40
0.1
 40
0.1
 40
0.1
 40
0.1
 40
0.15
 40
0.15
 40
0.15
 40
0.15
 40
0.2
 40
0.2
 40
0.2
 40
0.2
 40
0.25
 40
0.25
 40
0.25
 40
0.25
 40
0.3
 40
0.3
 40
0.3
 40
0.3
 40
0.35
 40
0.35
 40
0.35
 40
0.35
 40
0.4
 40
0.4
 40
0.4
 40
0.4
 40
0.45
 40
0.45
 40
0.45
 40
0.45
 40
0.5
 40
0.5
 40
0.5
 40
0.5
 40
0.55
 40
0.55
 40
0.55
 40
0.55
 40
0.6
 40
0.6
 40
0.6
 40
0.6
 40
0.65
 40
0.65
 40
0.65
 40
0.65
 40
0.7
 40
0.7
 40
0.7
 40
0.7
 40
0.75
 40
0.75
 40
0.75
 40
0.75
 40
0.8
 40
0.8
 40
0.8
 40
0.8
 40
0.85
 40
0.85
 40
0.85
 40
0.85
 40
0.9
 40
0.9
 40
0.9
 40
0.9
 40
1.0
 40
1.0
 40
1.0
 40
1.0
 10
-39.0811
 20
16.9
 30
0.0
 10
-39.0811
 20
16.9
 30
0.0
 10
-39.0618
 20
16.6536
 30
0.0
 10
-39.0618
 20
16.6536
 30
0.0
 10
-39.0618
 20
16.6536
 30
0.0
 10
-39.1592
 20
16.6315
 30
0.0
 10
-39.2302
 20
16.6004
 30
0.0
 10
-39.2739
 20
16.56
 30
0.0
 10
-39.2739
 20
16.56
 30
0.0
 10
-39.345
 20
16.4927
 30
0.0
 10
-39.3803
 20
16.4099
 30
0.0
 10
-39.3803
 20
16.3116
 30
0.0
 10
-39.3803
 20
16.3116
 30
0.0
 10
-39.3803
 20
16.2326
 30
0.0
 10
-39.3581
 20
16.1635
 30
0.0
 10
-39.3139
 20
16.1037
 30
0.0
 10
-39.3139
 20
16.1037
 30
0.0
 10
-39.257
 20
16.0256
 30
0.0
 10
-39.1738
 20
15.964
 30
0.0
 10
-39.0646
 20
15.9189
 30
0.0
 10
-39.0646
 20
15.9189
 30
0.0
 10
-38.9555
 20
15.8742
 30
0.0
 10
-38.7998
 20
15.8507
 30
0.0
 10
-38.5976
 20
15.8488
 30
0.0
 10
-38.5976
 20
15.8488
 30
0.0
 10
-38.6883
 20
15.9085
 30
0.0
 10
-38.7561
 20
15.9814
 30
0.0
 10
-38.8003
 20
16.068
 30
0.0
 10
-38.8003
 20
16.068
 30
0.0
 10
-38.844
 20
16.154
 30
0.0
 10
-38.8661
 20
16.2448
 30
0.0
 10
-38.8661
 20
16.3394
 30
0.0
 10
-38.8661
 20
16.3394
 30
0.0
 10
-38.8661
 20
16.5049
 30
0.0
 10
-38.8055
 20
16.6456
 30
0.0
 10
-38.6836
 20
16.7618
 30
0.0
 10
-38.6836
 20
16.7618
 30
0.0
 10
-38.5618
 20
16.8779
 30
0.0
 10
-38.4047
 20
16.9363
 30
0.0
 10
-38.2119
 20
16.9363
 30
0.0
 10
-38.2119
 20
16.9363
 30
0.0
 10
-38.0849
 20
16.9363
 30
0.0
 10
-37.9673
 20
16.9085
 30
0.0
 10
-37.8581
 20
16.8539
 30
0.0
 10
-37.8581
 20
16.8539
 30
0.0
 10
-37.7495
 20
16.7994
 30
0.0
 10
-37.6658
 20
16.7241
 30
0.0
 10
-37.6079
 20
16.6286
 30
0.0
 10
-37.6079
 20
16.6286
 30
0.0
 10
-37.5501
 20
16.5332
 30
0.0
 10
-37.5214
 20
16.425
 30
0.0
 10
-37.5214
 20
16.3036
 30
0.0
 10
-37.5214
 20
16.3036
 30
0.0
 10
-37.5214
 20
16.0967
 30
0.0
 10
-37.5971
 20
15.9283
 30
0.0
 10
-37.7495
 20
15.798
 30
0.0
 10
-37.7495
 20
15.798
 30
0.0
 10
-37.9014
 20
15.6672
 30
0.0
 10
-38.1521
 20
15.6023
 30
0.0
 10
-38.5011
 20
15.6023
 30
0.0
 10
-38.5011
 20
15.6023
 30
0.0
 10
-38.8915
 20
15.6023
 30
0.0
 10
-39.1752
 20
15.6743
 30
0.0
 10
-39.3525
 20
15.8187
 30
0.0
 10
-39.3525
 20
15.8187
 30
0.0
 10
-39.5068
 20
15.9443
 30
0.0
 10
-39.5844
 20
16.1136
 30
0.0
 10
-39.5844
 20
16.3271
 30
0.0
 10
-39.5844
 20
16.3271
 30
0.0
 10
-39.5844
 20
16.4857
 30
0.0
 10
-39.5397
 20
16.6159
 30
0.0
 10
-39.4503
 20
16.7175
 30
0.0
 10
-39.4503
 20
16.7175
 30
0.0
 10
-39.3614
 20
16.8191
 30
0.0
 10
-39.2382
 20
16.8798
 30
0.0
 10
-39.0811
 20
16.9
 30
0.0
  0
SPLINE
  5
43
330
1F
100
AcDbEntity
  8
DATUMS
 62
   250
100
AcDbSpline
210
0.0
220
0.0
230
1.0
 70
    11
 71
     3
 72
    40
 73
    36
 74
     0
 42
0.0000000001
 43
0.0000000001
 40
0.0
 40
0.0
 40
0.0
 40
0.0
 40
0.1
 40
0.1
 40
0.1
 40
0.1
 40
0.2
 40
0.2
 40
0.2
 40
0.2
 40
0.3
 40
0.3
 40
0.3
 40
0.3
 40
0.4
 40
0.4
 40
0.4
 40
0.4
 40
0.5
 40
0.5
 40
0.5
 40
0.5
 40
0.6
 40
0.6
 40
0.6
 40
0.6
 40
0.7
 40
0.7
 40
0.7
 40
0.7
 40
0.8
 40
0.8
 40
0.8
 40
0.8
 40
1.0
 40
1.0
 40
1.0
 40
1.0
 10
-38.2105
 20
15.8873
 30
0.0
 10
-38.1248
 20
15.8873
 30
0.0
 10
-38.043
 20
15.9057
 30
0.0
 10
-37.9649
 20
15.9419
 30
0.0
 10
-37.9649
 20
15.9419
 30
0.0
 10
-37.8868
 20
15.9781
 30
0.0
 10
-37.8276
 20
16.0289
 30
0.0
 10
-37.7867
 20
16.0938
 30
0.0
 10
-37.7867
 20
16.0938
 30
0.0
 10
-37.7457
 20
16.1592
 30
0.0
 10
-37.725
 20
16.2279
 30
0.0
 10
-37.725
 20
16.2994
 30
0.0
 10
-37.725
 20
16.2994
 30
0.0
 10
-37.725
 20
16.4043
 30
0.0
 10
-37.7674
 20
16.4941
 30
0.0
 10
-37.852
 20
16.5694
 30
0.0
 10
-37.852
 20
16.5694
 30
0.0
 10
-37.9367
 20
16.6446
 30
0.0
 10
-38.0515
 20
16.6823
 30
0.0
 10
-38.1963
 20
16.6823
 30
0.0
 10
-38.1963
 20
16.6823
 30
0.0
 10
-38.336
 20
16.6823
 30
0.0
 10
-38.4461
 20
16.6451
 30
0.0
 10
-38.5265
 20
16.5708
 30
0.0
 10
-38.5265
 20
16.5708
 30
0.0
 10
-38.607
 20
16.4965
 30
0.0
 10
-38.647
 20
16.4029
 30
0.0
 10
-38.647
 20
16.29
 30
0.0
 10
-38.647
 20
16.29
 30
0.0
 10
-38.647
 20
16.1776
 30
0.0
 10
-38.607
 20
16.0825
 30
0.0
 10
-38.5265
 20
16.0045
 30
0.0
 10
-38.5265
 20
16.0045
 30
0.0
 10
-38.4461
 20
15.9264
 30
0.0
 10
-38.3407
 20
15.8873
 30
0.0
 10
-38.2105
 20
15.8873
 30
0.0
  0
SPLINE
  5
44
330
1F
100
AcDbEntity
  8
DATUMS
 62
   250
100
AcDbSpline
210
0.0
220
0.0
230
1.0
 70
    11
 71
     3
 72
    52
 73
    48
 74
     0
 42
0.0000000001
 43
0.0000000001
 40
0.0
 40
0.0
 40
0.0
 40
0.0
 40
0.0769230769230769
 40
0.0769230769230769
 40
0.0769230769230769
 40
0.0769230769230769
 40
0.1538461538461539
 40
0.1538461538461539
 40
0.1538461538461539
 40
0.1538461538461539
 40
0.2307692307692308
 40
0.2307692307692308
 40
0.2307692307692308
 40
0.2307692307692308
 40
0.3076923076923077
 40
0.3076923076923077
 40
0.3076923076923077
 40
0.3076923076923077
 40
0.3846153846153846
 40
0.3846153846153846
 40
0.3846153846153846
 40
0.3846153846153846
 40
0.4615384615384616
 40
0.4615384615384616
 40
0.4615384615384616
 40
0.4615384615384616
 40
0.5384615384615384
 40
0.5384615384615384
 40
0.5384615384615384
 40
0.5384615384615384
 40
0.6153846153846154
 40
0.6153846153846154
 40
0.6153846153846154
 40
0.6153846153846154
 40
0.6923076923076923
 40
0.6923076923076923
 40
0.6923076923076923
 40
0.6923076923076923
 40
0.7692307692307693
 40
0.7692307692307693
 40
0.7692307692307693
 40
0.7692307692307693
 40
0.8461538461538461
 40
0.8461538461538461
 40
0.8461538461538461
 40
0.8461538461538461
 40
1.0
 40
1.0
 40
1.0
 40
1.0
 10
-38.5519
 20
17.1827
 30
0.0
 10
-38.7909
 20
17.1827
 30
0.0
 10
-38.9833
 20
17.2072
 30
0.0
 10
-39.1286
 20
17.2566
 30
0.0
 10
-39.1286
 20
17.2566
 30
0.0
 10
-39.2744
 20
17.3055
 30
0.0
 10
-39.3868
 20
17.3789
 30
0.0
 10
-39.4659
 20
17.4758
 30
0.0
 10
-39.4659
 20
17.4758
 30
0.0
 10
-39.5449
 20
17.5727
 30
0.0
 10
-39.5844
 20
17.6945
 30
0.0
 10
-39.5844
 20
17.8412
 30
0.0
 10
-39.5844
 20
17.8412
 30
0.0
 10
-39.5844
 20
17.9499
 30
0.0
 10
-39.5623
 20
18.0449
 30
0.0
 10
-39.5185
 20
18.1267
 30
0.0
 10
-39.5185
 20
18.1267
 30
0.0
 10
-39.4753
 20
18.2086
 30
0.0
 10
-39.4122
 20
18.2759
 30
0.0
 10
-39.3299
 20
18.3295
 30
0.0
 10
-39.3299
 20
18.3295
 30
0.0
 10
-39.2476
 20
18.3826
 30
0.0
 10
-39.1474
 20
18.4245
 30
0.0
 10
-39.0294
 20
18.4546
 30
0.0
 10
-39.0294
 20
18.4546
 30
0.0
 10
-38.9113
 20
18.4852
 30
0.0
 10
-38.7523
 20
18.5002
 30
0.0
 10
-38.5519
 20
18.5002
 30
0.0
 10
-38.5519
 20
18.5002
 30
0.0
 10
-38.3149
 20
18.5002
 30
0.0
 10
-38.1239
 20
18.4758
 30
0.0
 10
-37.9781
 20
18.4273
 30
0.0
 10
-37.9781
 20
18.4273
 30
0.0
 10
-37.8323
 20
18.3784
 30
0.0
 10
-37.7199
 20
18.3055
 30
0.0
 10
-37.6404
 20
18.2086
 30
0.0
 10
-37.6404
 20
18.2086
 30
0.0
 10
-37.5609
 20
18.1117
 30
0.0
 10
-37.5214
 20
17.9894
 30
0.0
 10
-37.5214
 20
17.8412
 30
0.0
 10
-37.5214
 20
17.8412
 30
0.0
 10
-37.5214
 20
17.6465
 30
0.0
 10
-37.591
 20
17.4936
 30
0.0
 10
-37.7307
 20
17.3826
 30
0.0
 10
-37.7307
 20
17.3826
 30
0.0
 10
-37.8986
 20
17.2495
 30
0.0
 10
-38.1728
 20
17.1827
 30
0.0
 10
-38.5519
 20
17.1827
 30
0.0
  0
SPLINE
  5
45
330
1F
100
AcDbEntity
  8
DATUMS
 62
   250
100
AcDbSpline
210
0.0
220
0.0
230
1.0
 70
    11
 71
     3
 72
    36
 73
    32
 74
     0
 42
0.0000000001
 43
0.0000000001
 40
0.0
 40
0.0
 40
0.0
 40
0.0
 40
0.1111111111111111
 40
0.1111111111111111
 40
0.1111111111111111
 40
0.1111111111111111
 40
0.2222222222222222
 40
0.2222222222222222
 40
0.2222222222222222
 40
0.2222222222222222
 40
0.3333333333333333
 40
0.3333333333333333
 40
0.3333333333333333
 40
0.3333333333333333
 40
0.4444444444444444
 40
0.4444444444444444
 40
0.4444444444444444
 40
0.4444444444444444
 40
0.5555555555555556
 40
0.5555555555555556
 40
0.5555555555555556
 40
0.5555555555555556
 40
0.6666666666666666
 40
0.6666666666666666
 40
0.6666666666666666
 40
0.6666666666666666
 40
0.7777777777777778
 40
0.7777777777777778
 40
0.7777777777777778
 40
0.7777777777777778
 40
1.0
 40
1.0
 40
1.0
 40
1.0
 10
-38.5519
 20
17.4377
 30
0.0
 10
-38.2203
 20
17.4377
 30
0.0
 10
-37.9997
 20
17.4767
 30
0.0
 10
-37.8897
 20
17.5543
 30
0.0
 10
-37.8897
 20
17.5543
 30
0.0
 10
-37.7801
 20
17.6319
 30
0.0
 10
-37.725
 20
17.7274
 30
0.0
 10
-37.725
 20
17.8412
 30
0.0
 10
-37.725
 20
17.8412
 30
0.0
 10
-37.725
 20
17.9555
 30
0.0
 10
-37.7805
 20
18.051
 30
0.0
 10
-37.8906
 20
18.1286
 30
0.0
 10
-37.8906
 20
18.1286
 30
0.0
 10
-38.0007
 20
18.2062
 30
0.0
 10
-38.2213
 20
18.2453
 30
0.0
 10
-38.5519
 20
18.2453
 30
0.0
 10
-38.5519
 20
18.2453
 30
0.0
 10
-38.8845
 20
18.2453
 30
0.0
 10
-39.1056
 20
18.2062
 30
0.0
 10
-39.2147
 20
18.1286
 30
0.0
 10
-39.2147
 20
18.1286
 30
0.0
 10
-39.3243
 20
18.051
 30
0.0
 10
-39.3788
 20
17.9546
 30
0.0
 10
-39.3788
 20
17.8389
 30
0.0
 10
-39.3788
 20
17.8389
 30
0.0
 10
-39.3788
 20
17.7246
 30
0.0
 10
-39.3304
 20
17.6338
 30
0.0
 10
-39.234
 20
17.5656
 30
0.0
 10
-39.234
 20
17.5656
 30
0.0
 10
-39.1112
 20
17.4805
 30
0.0
 10
-38.8835
 20
17.4377
 30
0.0
 10
-38.5519
 20
17.4377
 30
0.0
  0
SPLINE
  5
46
330
1F
100
AcDbEntity
  8
DATUMS
 62
   250
100
AcDbSpline
210
0.0
220
0.0
230
1.0
 70
    11
 71
     3
 72
    20
 73
    16
 74
     0
 42
0.0000000001
 43
0.0000000001
 40
0.0
 40
0.0
 40
0.0
 40
0.0
 40
0.2
 40
0.2
 40
0.2
 40
0.2
 40
0.4
 40
0.4
 40
0.4
 40
0.4
 40
0.6
 40
0.6
 40
0.6
 40
0.6
 40
1.0
 40
1.0
 40
1.0
 40
1.0
 10
-37.1156
 20
36.1346
 30
0.0
 10
-37.1156
 20
36.1346
 30
0.0
 10
-37.5536
 20
33.1346
 30
0.0
 10
-37.5536
 20
33.1346
 30
0.0
 10
-37.5536
 20
33.1346
 30
0.0
 10
-37.5536
 20
33.1346
 30
0.0
 10
-36.5867
 20
33.1346
 30
0.0
 10
-36.5867
 20
33.1346
 30
0.0
 10
-36.5867
 20
33.1346
 30
0.0
 10
-36.5867
 20
33.1346
 30
0.0
 10
-37.1143
 20
36.1346
 30
0.0
 10
-37.1143
 20
36.1346
 30
0.0
 10
-37.1143
 20
36.1346
 30
0.0
 10
-37.1143
 20
36.1346
 30
0.0
 10
-37.1156
 20
36.1346
 30
0.0
 10
-37.1156
 20
36.1346
 30
0.0
  0
SPLINE
  5
47
330
1F
100
AcDbEntity
  8
DATUMS
 62
   250
100
AcDbSpline
210
0.0
220
0.0
230
1.0
 70
    11
 71
     3
 72
    20
 73
    16
 74
     0
 42
0.0000000001
 43
0.0000000001
 40
0.0
 40
0.0
 40
0.0
 40
0.0
 40
0.2
 40
0.2
 40
0.2
 40
0.2
 40
0.4
 40
0.4
 40
0.4
 40
0.4
 40
0.6
 40
0.6
 40
0.6
 40
0.6
 40
1.0
 40
1.0
 40
1.0
 40
1.0
 10
-37.0412
 20
-4.2178
 30
0.0
 10
-37.0412
 20
-4.2178
 30
0.0
 10
-36.6032
 20
-1.2177
 30
0.0
 10
-36.6032
 20
-1.2177
 30
0.0
 10
-36.6032
 20
-1.2177
 30
0.0
 10
-36.6032
 20
-1.2177
 30
0.0
 10
-37.5701
 20
-1.2177
 30
0.0
 10
-37.5701
 20
-1.2177
 30
0.0
 10
-37.5701
 20
-1.2177
 30
0.0
 10
-37.5701
 20
-1.2177
 30
0.0
 10
-37.0425
 20
-4.2178
 30
0.0
 10
-37.0425
 20
-4.2178
 30
0.0
 10
-37.0425
 20
-4.2178
 30
0.0
 10
-37.0425
 20
-4.2178
 30
0.0
 10
-37.0412
 20
-4.2178
 30
0.0
 10
-37.0412
 20
-4.2178
 30
0.0
  0
SPLINE
  5
48
330
1F
100
AcDbEntity
  8
DATUMS
 62
   250
100
AcDbSpline
210
0.0
220
0.0
230
1.0
 70
    24
 71
     3
 72
     8
 73
     4
 74
     0
 42
0.0000000001
 43
0.0000000001
 40
0.0
 40
0.0
 40
0.0
 40
0.0
 40
1.0
 40
1.0
 40
1.0
 40
1.0
 10
-37.0906
 20
-3.53
 30
0.0
 10
-37.0906
 20
-3.53
 30
0.0
 10
-37.0906
 20
35.8613
 30
0.0
 10
-37.0906
 20
35.8613
 30
0.0
  0
SPLINE
  5
49
330
1F
100
AcDbEntity
  8
DATUMS
  6
NEW_LINE1
 62
   250
100
AcDbSpline
210
0.0
220
0.0
230
1.0
 70
    24
 71
     3
 72
     8
 73
     4
 74
     0
 42
0.0000000001
 43
0.0000000001
 40
0.0
 40
0.0
 40
0.0
 40
0.0
 40
1.0
 40
1.0
 40
1.0
 40
1.0
 10
-37.7101
 20
36.2182
 30
0.0
 10
-37.7101
 20
36.2182
 30
0.0
 10
-32.6997
 20
36.2182
 30
0.0
 10
-32.6997
 20
36.2182
 30
0.0
  0
SPLINE
  5
4B
330
1F
100
AcDbEntity
  8
DATUMS
  6
NEW_LINE2
 62
   250
100
AcDbSpline
210
0.0
220
0.0
230
1.0
 70
    24
 71
     3
 72
     8
 73
     4
 74
     0
 42
0.0000000001
 43
0.0000000001
 40
0.0
 40
0.0
 40
0.0
 40
0.0
 40
1.0
 40
1.0
 40
1.0
 40
1.0
 10
-37.5616
 20
-4.298
 30
0.0
 10
-37.5616
 20
-4.298
 30
0.0
 10
-32.7656
 20
-4.298
 30
0.0
 10
-32.7656
 20
-4.298
 30
0.0
  0
SPLINE
  5
4D
330
1F
100
AcDbEntity
  8
DATUMS
 62
   250
100
AcDbSpline
210
0.0
220
0.0
230
1.0
 70
    11
 71
     3
 72
    40
 73
    36
 74
     0
 42
0.0000000001
 43
0.0000000001
 40
0.0
 40
0.0
 40
0.0
 40
0.0
 40
0.1
 40
0.1
 40
0.1
 40
0.1
 40
0.2
 40
0.2
 40
0.2
 40
0.2
 40
0.3
 40
0.3
 40
0.3
 40
0.3
 40
0.4
 40
0.4
 40
0.4
 40
0.4
 40
0.5
 40
0.5
 40
0.5
 40
0.5
 40
0.6
 40
0.6
 40
0.6
 40
0.6
 40
0.7
 40
0.7
 40
0.7
 40
0.7
 40
0.8
 40
0.8
 40
0.8
 40
0.8
 40
1.0
 40
1.0
 40
1.0
 40
1.0
 10
-14.5129
 20
44.9286
 30
0.0
 10
-14.5129
 20
44.9286
 30
0.0
 10
-14.7608
 20
44.9286
 30
0.0
 10
-14.7608
 20
44.9286
 30
0.0
 10
-14.7608
 20
44.9286
 30
0.0
 10
-14.7608
 20
44.9286
 30
0.0
 10
-14.7608
 20
46.509
 30
0.0
 10
-14.7608
 20
46.509
 30
0.0
 10
-14.7608
 20
46.509
 30
0.0
 10
-14.8206
 20
46.4521
 30
0.0
 10
-14.8986
 20
46.3952
 30
0.0
 10
-14.9955
 20
46.3383
 30
0.0
 10
-14.9955
 20
46.3383
 30
0.0
 10
-15.0929
 20
46.2814
 30
0.0
 10
-15.1799
 20
46.2386
 30
0.0
 10
-15.2571
 20
46.2103
 30
0.0
 10
-15.2571
 20
46.2103
 30
0.0
 10
-15.2571
 20
46.2103
 30
0.0
 10
-15.2571
 20
46.4498
 30
0.0
 10
-15.2571
 20
46.4498
 30
0.0
 10
-15.2571
 20
46.4498
 30
0.0
 10
-15.1183
 20
46.5151
 30
0.0
 10
-14.9969
 20
46.5942
 30
0.0
 10
-14.893
 20
46.6868
 30
0.0
 10
-14.893
 20
46.6868
 30
0.0
 10
-14.7895
 20
46.78
 30
0.0
 10
-14.7157
 20
46.8698
 30
0.0
 10
-14.6724
 20
46.9573
 30
0.0
 10
-14.6724
 20
46.9573
 30
0.0
 10
-14.6724
 20
46.9573
 30
0.0
 10
-14.5129
 20
46.9573
 30
0.0
 10
-14.5129
 20
46.9573
 30
0.0
 10
-14.5129
 20
46.9573
 30
0.0
 10
-14.5129
 20
46.9573
 30
0.0
 10
-14.5129
 20
44.9286
 30
0.0
 10
-14.5129
 20
44.9286
 30
0.0
  0
SPLINE
  5
4E
330
1F
100
AcDbEntity
  8
DATUMS
 62
   250
100
AcDbSpline
210
0.0
220
0.0
230
1.0
 70
    11
 71
     3
 72
    92
 73
    88
 74
     0
 42
0.0000000001
 43
0.0000000001
 40
0.0
 40
0.0
 40
0.0
 40
0.0
 40
0.0434782608695652
 40
0.0434782608695652
 40
0.0434782608695652
 40
0.0434782608695652
 40
0.0869565217391304
 40
0.0869565217391304
 40
0.0869565217391304
 40
0.0869565217391304
 40
0.1304347826086956
 40
0.1304347826086956
 40
0.1304347826086956
 40
0.1304347826086956
 40
0.1739130434782609
 40
0.1739130434782609
 40
0.1739130434782609
 40
0.1739130434782609
 40
0.2173913043478261
 40
0.2173913043478261
 40
0.2173913043478261
 40
0.2173913043478261
 40
0.2608695652173913
 40
0.2608695652173913
 40
0.2608695652173913
 40
0.2608695652173913
 40
0.3043478260869565
 40
0.3043478260869565
 40
0.3043478260869565
 40
0.3043478260869565
 40
0.3478260869565217
 40
0.3478260869565217
 40
0.3478260869565217
 40
0.3478260869565217
 40
0.391304347826087
 40
0.391304347826087
 40
0.391304347826087
 40
0.391304347826087
 40
0.4347826086956522
 40
0.4347826086956522
 40
0.4347826086956522
 40
0.4347826086956522
 40
0.4782608695652174
 40
0.4782608695652174
 40
0.4782608695652174
 40
0.4782608695652174
 40
0.5217391304347826
 40
0.5217391304347826
 40
0.5217391304347826
 40
0.5217391304347826
 40
0.5652173913043478
 40
0.5652173913043478
 40
0.5652173913043478
 40
0.5652173913043478
 40
0.6086956521739131
 40
0.6086956521739131
 40
0.6086956521739131
 40
0.6086956521739131
 40
0.6521739130434783
 40
0.6521739130434783
 40
0.6521739130434783
 40
0.6521739130434783
 40
0.6956521739130435
 40
0.6956521739130435
 40
0.6956521739130435
 40
0.6956521739130435
 40
0.7391304347826086
 40
0.7391304347826086
 40
0.7391304347826086
 40
0.7391304347826086
 40
0.782608695652174
 40
0.782608695652174
 40
0.782608695652174
 40
0.782608695652174
 40
0.8260869565217391
 40
0.8260869565217391
 40
0.8260869565217391
 40
0.8260869565217391
 40
0.8695652173913043
 40
0.8695652173913043
 40
0.8695652173913043
 40
0.8695652173913043
 40
0.9130434782608695
 40
0.9130434782608695
 40
0.9130434782608695
 40
0.9130434782608695
 40
1.0
 40
1.0
 40
1.0
 40
1.0
 10
-13.8775
 20
45.4578
 30
0.0
 10
-13.8775
 20
45.4578
 30
0.0
 10
-13.6169
 20
45.4799
 30
0.0
 10
-13.6169
 20
45.4799
 30
0.0
 10
-13.6169
 20
45.4799
 30
0.0
 10
-13.5976
 20
45.3529
 30
0.0
 10
-13.5529
 20
45.2579
 30
0.0
 10
-13.4828
 20
45.1939
 30
0.0
 10
-13.4828
 20
45.1939
 30
0.0
 10
-13.4123
 20
45.1299
 30
0.0
 10
-13.3276
 20
45.0979
 30
0.0
 10
-13.2284
 20
45.0979
 30
0.0
 10
-13.2284
 20
45.0979
 30
0.0
 10
-13.1089
 20
45.0979
 30
0.0
 10
-13.0078
 20
45.1431
 30
0.0
 10
-12.9255
 20
45.2329
 30
0.0
 10
-12.9255
 20
45.2329
 30
0.0
 10
-12.8427
 20
45.3232
 30
0.0
 10
-12.8013
 20
45.4427
 30
0.0
 10
-12.8013
 20
45.5913
 30
0.0
 10
-12.8013
 20
45.5913
 30
0.0
 10
-12.8013
 20
45.7329
 30
0.0
 10
-12.8408
 20
45.8444
 30
0.0
 10
-12.9203
 20
45.9262
 30
0.0
 10
-12.9203
 20
45.9262
 30
0.0
 10
-12.9998
 20
46.0081
 30
0.0
 10
-13.1037
 20
46.049
 30
0.0
 10
-13.2326
 20
46.049
 30
0.0
 10
-13.2326
 20
46.049
 30
0.0
 10
-13.3126
 20
46.049
 30
0.0
 10
-13.3845
 20
46.0307
 30
0.0
 10
-13.449
 20
45.9945
 30
0.0
 10
-13.449
 20
45.9945
 30
0.0
 10
-13.5134
 20
45.9582
 30
0.0
 10
-13.5637
 20
45.9112
 30
0.0
 10
-13.6004
 20
45.8533
 30
0.0
 10
-13.6004
 20
45.8533
 30
0.0
 10
-13.6004
 20
45.8533
 30
0.0
 10
-13.8333
 20
45.8834
 30
0.0
 10
-13.8333
 20
45.8834
 30
0.0
 10
-13.8333
 20
45.8834
 30
0.0
 10
-13.8333
 20
45.8834
 30
0.0
 10
-13.6376
 20
46.9211
 30
0.0
 10
-13.6376
 20
46.9211
 30
0.0
 10
-13.6376
 20
46.9211
 30
0.0
 10
-13.6376
 20
46.9211
 30
0.0
 10
-12.6329
 20
46.9211
 30
0.0
 10
-12.6329
 20
46.9211
 30
0.0
 10
-12.6329
 20
46.9211
 30
0.0
 10
-12.6329
 20
46.9211
 30
0.0
 10
-12.6329
 20
46.684
 30
0.0
 10
-12.6329
 20
46.684
 30
0.0
 10
-12.6329
 20
46.684
 30
0.0
 10
-12.6329
 20
46.684
 30
0.0
 10
-13.4391
 20
46.684
 30
0.0
 10
-13.4391
 20
46.684
 30
0.0
 10
-13.4391
 20
46.684
 30
0.0
 10
-13.4391
 20
46.684
 30
0.0
 10
-13.5482
 20
46.1412
 30
0.0
 10
-13.5482
 20
46.1412
 30
0.0
 10
-13.5482
 20
46.1412
 30
0.0
 10
-13.4269
 20
46.2259
 30
0.0
 10
-13.2994
 20
46.2682
 30
0.0
 10
-13.1663
 20
46.2682
 30
0.0
 10
-13.1663
 20
46.2682
 30
0.0
 10
-12.9899
 20
46.2682
 30
0.0
 10
-12.8413
 20
46.2071
 30
0.0
 10
-12.7199
 20
46.0848
 30
0.0
 10
-12.7199
 20
46.0848
 30
0.0
 10
-12.5986
 20
45.9625
 30
0.0
 10
-12.5379
 20
45.8054
 30
0.0
 10
-12.5379
 20
45.6135
 30
0.0
 10
-12.5379
 20
45.6135
 30
0.0
 10
-12.5379
 20
45.4305
 30
0.0
 10
-12.5915
 20
45.2724
 30
0.0
 10
-12.6978
 20
45.1393
 30
0.0
 10
-12.6978
 20
45.1393
 30
0.0
 10
-12.8276
 20
44.9761
 30
0.0
 10
-13.0045
 20
44.8943
 30
0.0
 10
-13.2284
 20
44.8943
 30
0.0
 10
-13.2284
 20
44.8943
 30
0.0
 10
-13.4123
 20
44.8943
 30
0.0
 10
-13.5623
 20
44.9455
 30
0.0
 10
-13.6785
 20
45.0485
 30
0.0
 10
-13.6785
 20
45.0485
 30
0.0
 10
-13.7947
 20
45.1516
 30
0.0
 10
-13.861
 20
45.288
 30
0.0
 10
-13.8775
 20
45.4578
 30
0.0
  0
SPLINE
  5
4F
330
1F
100
AcDbEntity
  8
DATUMS
 62
   250
100
AcDbSpline
210
0.0
220
0.0
230
1.0
 70
    11
 71
     3
 72
    52
 73
    48
 74
     0
 42
0.0000000001
 43
0.0000000001
 40
0.0
 40
0.0
 40
0.0
 40
0.0
 40
0.0769230769230769
 40
0.0769230769230769
 40
0.0769230769230769
 40
0.0769230769230769
 40
0.1538461538461539
 40
0.1538461538461539
 40
0.1538461538461539
 40
0.1538461538461539
 40
0.2307692307692308
 40
0.2307692307692308
 40
0.2307692307692308
 40
0.2307692307692308
 40
0.3076923076923077
 40
0.3076923076923077
 40
0.3076923076923077
 40
0.3076923076923077
 40
0.3846153846153846
 40
0.3846153846153846
 40
0.3846153846153846
 40
0.3846153846153846
 40
0.4615384615384616
 40
0.4615384615384616
 40
0.4615384615384616
 40
0.4615384615384616
 40
0.5384615384615384
 40
0.5384615384615384
 40
0.5384615384615384
 40
0.5384615384615384
 40
0.6153846153846154
 40
0.6153846153846154
 40
0.6153846153846154
 40
0.6153846153846154
 40
0.6923076923076923
 40
0.6923076923076923
 40
0.6923076923076923
 40
0.6923076923076923
 40
0.7692307692307693
 40
0.7692307692307693
 40
0.7692307692307693
 40
0.7692307692307693
 40
0.8461538461538461
 40
0.8461538461538461
 40
0.8461538461538461
 40
0.8461538461538461
 40
1.0
 40
1.0
 40
1.0
 40
1.0
 10
-12.3079
 20
45.9248
 30
0.0
 10
-12.3079
 20
46.1638
 30
0.0
 10
-12.2834
 20
46.3562
 30
0.0
 10
-12.234
 20
46.5015
 30
0.0
 10
-12.234
 20
46.5015
 30
0.0
 10
-12.1851
 20
46.6473
 30
0.0
 10
-12.1117
 20
46.7597
 30
0.0
 10
-12.0148
 20
46.8388
 30
0.0
 10
-12.0148
 20
46.8388
 30
0.0
 10
-11.9179
 20
46.9178
 30
0.0
 10
-11.7961
 20
46.9573
 30
0.0
 10
-11.6494
 20
46.9573
 30
0.0
 10
-11.6494
 20
46.9573
 30
0.0
 10
-11.5407
 20
46.9573
 30
0.0
 10
-11.4457
 20
46.9352
 30
0.0
 10
-11.3639
 20
46.8914
 30
0.0
 10
-11.3639
 20
46.8914
 30
0.0
 10
-11.282
 20
46.8482
 30
0.0
 10
-11.2147
 20
46.7851
 30
0.0
 10
-11.1611
 20
46.7028
 30
0.0
 10
-11.1611
 20
46.7028
 30
0.0
 10
-11.108
 20
46.6205
 30
0.0
 10
-11.0661
 20
46.5203
 30
0.0
 10
-11.036
 20
46.4023
 30
0.0
 10
-11.036
 20
46.4023
 30
0.0
 10
-11.0054
 20
46.2842
 30
0.0
 10
-10.9904
 20
46.1252
 30
0.0
 10
-10.9904
 20
45.9248
 30
0.0
 10
-10.9904
 20
45.9248
 30
0.0
 10
-10.9904
 20
45.6878
 30
0.0
 10
-11.0148
 20
45.4968
 30
0.0
 10
-11.0633
 20
45.351
 30
0.0
 10
-11.0633
 20
45.351
 30
0.0
 10
-11.1122
 20
45.2052
 30
0.0
 10
-11.1851
 20
45.0928
 30
0.0
 10
-11.282
 20
45.0133
 30
0.0
 10
-11.282
 20
45.0133
 30
0.0
 10
-11.3789
 20
44.9338
 30
0.0
 10
-11.5012
 20
44.8943
 30
0.0
 10
-11.6494
 20
44.8943
 30
0.0
 10
-11.6494
 20
44.8943
 30
0.0
 10
-11.8441
 20
44.8943
 30
0.0
 10
-11.997
 20
44.9639
 30
0.0
 10
-12.108
 20
45.1036
 30
0.0
 10
-12.108
 20
45.1036
 30
0.0
 10
-12.2411
 20
45.2715
 30
0.0
 10
-12.3079
 20
45.5457
 30
0.0
 10
-12.3079
 20
45.9248
 30
0.0
  0
SPLINE
  5
50
330
1F
100
AcDbEntity
  8
DATUMS
 62
   250
100
AcDbSpline
210
0.0
220
0.0
230
1.0
 70
    11
 71
     3
 72
    36
 73
    32
 74
     0
 42
0.0000000001
 43
0.0000000001
 40
0.0
 40
0.0
 40
0.0
 40
0.0
 40
0.1111111111111111
 40
0.1111111111111111
 40
0.1111111111111111
 40
0.1111111111111111
 40
0.2222222222222222
 40
0.2222222222222222
 40
0.2222222222222222
 40
0.2222222222222222
 40
0.3333333333333333
 40
0.3333333333333333
 40
0.3333333333333333
 40
0.3333333333333333
 40
0.4444444444444444
 40
0.4444444444444444
 40
0.4444444444444444
 40
0.4444444444444444
 40
0.5555555555555556
 40
0.5555555555555556
 40
0.5555555555555556
 40
0.5555555555555556
 40
0.6666666666666666
 40
0.6666666666666666
 40
0.6666666666666666
 40
0.6666666666666666
 40
0.7777777777777778
 40
0.7777777777777778
 40
0.7777777777777778
 40
0.7777777777777778
 40
1.0
 40
1.0
 40
1.0
 40
1.0
 10
-12.0529
 20
45.9248
 30
0.0
 10
-12.0529
 20
45.5932
 30
0.0
 10
-12.0139
 20
45.3726
 30
0.0
 10
-11.9363
 20
45.2626
 30
0.0
 10
-11.9363
 20
45.2626
 30
0.0
 10
-11.8587
 20
45.153
 30
0.0
 10
-11.7632
 20
45.0979
 30
0.0
 10
-11.6494
 20
45.0979
 30
0.0
 10
-11.6494
 20
45.0979
 30
0.0
 10
-11.5351
 20
45.0979
 30
0.0
 10
-11.4396
 20
45.1534
 30
0.0
 10
-11.362
 20
45.2635
 30
0.0
 10
-11.362
 20
45.2635
 30
0.0
 10
-11.2844
 20
45.3736
 30
0.0
 10
-11.2453
 20
45.5942
 30
0.0
 10
-11.2453
 20
45.9248
 30
0.0
 10
-11.2453
 20
45.9248
 30
0.0
 10
-11.2453
 20
46.2574
 30
0.0
 10
-11.2844
 20
46.4785
 30
0.0
 10
-11.362
 20
46.5876
 30
0.0
 10
-11.362
 20
46.5876
 30
0.0
 10
-11.4396
 20
46.6972
 30
0.0
 10
-11.536
 20
46.7517
 30
0.0
 10
-11.6517
 20
46.7517
 30
0.0
 10
-11.6517
 20
46.7517
 30
0.0
 10
-11.766
 20
46.7517
 30
0.0
 10
-11.8568
 20
46.7033
 30
0.0
 10
-11.925
 20
46.6069
 30
0.0
 10
-11.925
 20
46.6069
 30
0.0
 10
-12.0101
 20
46.4841
 30
0.0
 10
-12.0529
 20
46.2564
 30
0.0
 10
-12.0529
 20
45.9248
 30
0.0
  0
SPLINE
  5
51
330
1F
100
AcDbEntity
  8
DATUMS
 62
   250
100
AcDbSpline
210
0.0
220
0.0
230
1.0
 70
    11
 71
     3
 72
    20
 73
    16
 74
     0
 42
0.0000000001
 43
0.0000000001
 40
0.0
 40
0.0
 40
0.0
 40
0.0
 40
0.2
 40
0.2
 40
0.2
 40
0.2
 40
0.4
 40
0.4
 40
0.4
 40
0.4
 40
0.6
 40
0.6
 40
0.6
 40
0.6
 40
1.0
 40
1.0
 40
1.0
 40
1.0
 10
5.2494
 20
44.5875
 30
0.0
 10
5.2494
 20
44.5875
 30
0.0
 10
2.2494
 20
45.0256
 30
0.0
 10
2.2494
 20
45.0256
 30
0.0
 10
2.2494
 20
45.0256
 30
0.0
 10
2.2494
 20
45.0256
 30
0.0
 10
2.2494
 20
44.0587
 30
0.0
 10
2.2494
 20
44.0587
 30
0.0
 10
2.2494
 20
44.0587
 30
0.0
 10
2.2494
 20
44.0587
 30
0.0
 10
5.2494
 20
44.5862
 30
0.0
 10
5.2494
 20
44.5862
 30
0.0
 10
5.2494
 20
44.5862
 30
0.0
 10
5.2494
 20
44.5862
 30
0.0
 10
5.2494
 20
44.5875
 30
0.0
 10
5.2494
 20
44.5875
 30
0.0
  0
SPLINE
  5
52
330
1F
100
AcDbEntity
  8
DATUMS
 62
   250
100
AcDbSpline
210
0.0
220
0.0
230
1.0
 70
    11
 71
     3
 72
    20
 73
    16
 74
     0
 42
0.0000000001
 43
0.0000000001
 40
0.0
 40
0.0
 40
0.0
 40
0.0
 40
0.2
 40
0.2
 40
0.2
 40
0.2
 40
0.4
 40
0.4
 40
0.4
 40
0.4
 40
0.6
 40
0.6
 40
0.6
 40
0.6
 40
1.0
 40
1.0
 40
1.0
 40
1.0
 10
-32.1482
 20
44.551
 30
0.0
 10
-32.1482
 20
44.551
 30
0.0
 10
-29.1481
 20
44.113
 30
0.0
 10
-29.1481
 20
44.113
 30
0.0
 10
-29.1481
 20
44.113
 30
0.0
 10
-29.1481
 20
44.113
 30
0.0
 10
-29.1481
 20
45.0799
 30
0.0
 10
-29.1481
 20
45.0799
 30
0.0
 10
-29.1481
 20
45.0799
 30
0.0
 10
-29.1481
 20
45.0799
 30
0.0
 10
-32.1482
 20
44.5524
 30
0.0
 10
-32.1482
 20
44.5524
 30
0.0
 10
-32.1482
 20
44.5524
 30
0.0
 10
-32.1482
 20
44.5524
 30
0.0
 10
-32.1482
 20
44.551
 30
0.0
 10
-32.1482
 20
44.551
 30
0.0
  0
SPLINE
  5
53
330
1F
100
AcDbEntity
  8
DATUMS
 62
   250
100
AcDbSpline
210
0.0
220
0.0
230
1.0
 70
    24
 71
     3
 72
     8
 73
     4
 74
     0
 42
0.0000000001
 43
0.0000000001
 40
0.0
 40
0.0
 40
0.0
 40
0.0
 40
1.0
 40
1.0
 40
1.0
 40
1.0
 10
-32.1922
 20
44.5739
 30
0.0
 10
-32.1922
 20
44.5739
 30
0.0
 10
5.1579
 20
44.5739
 30
0.0
 10
5.1579
 20
44.5739
 30
0.0
  0
SPLINE
  5
54
330
1F
100
AcDbEntity
  8
DATUMS
  6
NEW_LINE3
 62
   250
100
AcDbSpline
210
0.0
220
0.0
230
1.0
 70
    24
 71
     3
 72
     8
 73
     4
 74
     0
 42
0.0000000001
 43
0.0000000001
 40
0.0
 40
0.0
 40
0.0
 40
0.0
 40
1.0
 40
1.0
 40
1.0
 40
1.0
 10
-32.3805
 20
45.3281
 30
0.0
 10
-32.3805
 20
45.3281
 30
0.0
 10
-32.3805
 20
37.0752
 30
0.0
 10
-32.3805
 20
37.0752
 30
0.0
  0
SPLINE
  5
56
330
1F
100
AcDbEntity
  8
DATUMS
  6
NEW_LINE4
 62
   250
100
AcDbSpline
210
0.0
220
0.0
230
1.0
 70
    24
 71
     3
 72
     8
 73
     4
 74
     0
 42
0.0000000001
 43
0.0000000001
 40
0.0
 40
0.0
 40
0.0
 40
0.0
 40
1.0
 40
1.0
 40
1.0
 40
1.0
 10
-13.5731
 20
39.2868
 30
0.0
 10
-13.5731
 20
39.2868
 30
0.0
 10
-13.5731
 20
-5.2261
 30
0.0
 10
-13.5731
 20
-5.2261
 30
0.0
  0
SPLINE
  5
58
330
1F
100
AcDbEntity
  8
DATUMS
  6
NEW_LINE5
 62
   250
100
AcDbSpline
210
0.0
220
0.0
230
1.0
 70
    24
 71
     3
 72
     8
 73
     4
 74
     0
 42
0.0000000001
 43
0.0000000001
 40
0.0
 40
0.0
 40
0.0
 40
0.0
 40
1.0
 40
1.0
 40
1.0
 40
1.0
 10
20.8682
 20
39.1911
 30
0.0
 10
20.8682
 20
39.1911
 30
0.0
 10
20.8682
 20
-2.878
 30
0.0
 10
20.8682
 20
-2.878
 30
0.0
  0
SPLINE
  5
5A
330
1F
100
AcDbEntity
  8
DATUMS
  6
NEW_LINE6
 62
   250
100
AcDbSpline
210
0.0
220
0.0
230
1.0
 70
    24
 71
     3
 72
     8
 73
     4
 74
     0
 42
0.0000000001
 43
0.0000000001
 40
0.0
 40
0.0
 40
0.0
 40
0.0
 40
1.0
 40
1.0
 40
1.0
 40
1.0
 10
5.3692
 20
44.8474
 30
0.0
 10
5.3692
 20
44.8474
 30
0.0
 10
5.3692
 20
36.6784
 30
0.0
 10
5.3692
 20
36.6784
 30
0.0
  0
SPLINE
  5
5C
330
1F
100
AcDbEntity
  8
DATUMS
  6
NEW_LINE7
 62
   250
100
AcDbSpline
210
0.0
220
0.0
230
1.0
 70
    24
 71
     3
 72
     8
 73
     4
 74
     0
 42
0.0000000001
 43
0.0000000001
 40
0.0
 40
0.0
 40
0.0
 40
0.0
 40
1.0
 40
1.0
 40
1.0
 40
1.0
 10
-13.6172
 20
-20.3653
 30
0.0
 10
-13.6172
 20
-20.3653
 30
0.0
 10
-13.6172
 20
-27.9501
 30
0.0
 10
-13.6172
 20
-27.9501
 30
0.0
  0
SPLINE
  5
5E
330
1F
100
AcDbEntity
  8
DATUMS
  6
NEW_LINE8
 62
   250
100
AcDbSpline
210
0.0
220
0.0
230
1.0
 70
    24
 71
     3
 72
     8
 73
     4
 74
     0
 42
0.0000000001
 43
0.0000000001
 40
0.0
 40
0.0
 40
0.0
 40
0.0
 40
1.0
 40
1.0
 40
1.0
 40
1.0
 10
-20.0399
 20
-24.1975
 30
0.0
 10
-20.0399
 20
-24.1975
 30
0.0
 10
-9.3021
 20
-24.1975
 30
0.0
 10
-9.3021
 20
-24.1975
 30
0.0
  0
SPLINE
  5
60
330
1F
100
AcDbEntity
  8
DATUMS
 62
   250
100
AcDbSpline
210
0.0
220
0.0
230
1.0
 70
    11
 71
     3
 72
    40
 73
    36
 74
     0
 42
0.0000000001
 43
0.0000000001
 40
0.0
 40
0.0
 40
0.0
 40
0.0
 40
0.1
 40
0.1
 40
0.1
 40
0.1
 40
0.2
 40
0.2
 40
0.2
 40
0.2
 40
0.3
 40
0.3
 40
0.3
 40
0.3
 40
0.4
 40
0.4
 40
0.4
 40
0.4
 40
0.5
 40
0.5
 40
0.5
 40
0.5
 40
0.6
 40
0.6
 40
0.6
 40
0.6
 40
0.7
 40
0.7
 40
0.7
 40
0.7
 40
0.8
 40
0.8
 40
0.8
 40
0.8
 40
1.0
 40
1.0
 40
1.0
 40
1.0
 10
-14.976
 20
-12.0273
 30
0.0
 10
-14.976
 20
-12.0273
 30
0.0
 10
-15.2239
 20
-12.0273
 30
0.0
 10
-15.2239
 20
-12.0273
 30
0.0
 10
-15.2239
 20
-12.0273
 30
0.0
 10
-15.2239
 20
-12.0273
 30
0.0
 10
-15.2239
 20
-10.4469
 30
0.0
 10
-15.2239
 20
-10.4469
 30
0.0
 10
-15.2239
 20
-10.4469
 30
0.0
 10
-15.2837
 20
-10.5038
 30
0.0
 10
-15.3617
 20
-10.5607
 30
0.0
 10
-15.4586
 20
-10.6176
 30
0.0
 10
-15.4586
 20
-10.6176
 30
0.0
 10
-15.556
 20
-10.6745
 30
0.0
 10
-15.643
 20
-10.7173
 30
0.0
 10
-15.7202
 20
-10.7456
 30
0.0
 10
-15.7202
 20
-10.7456
 30
0.0
 10
-15.7202
 20
-10.7456
 30
0.0
 10
-15.7202
 20
-10.5061
 30
0.0
 10
-15.7202
 20
-10.5061
 30
0.0
 10
-15.7202
 20
-10.5061
 30
0.0
 10
-15.5814
 20
-10.4408
 30
0.0
 10
-15.46
 20
-10.3617
 30
0.0
 10
-15.3561
 20
-10.2691
 30
0.0
 10
-15.3561
 20
-10.2691
 30
0.0
 10
-15.2526
 20
-10.1759
 30
0.0
 10
-15.1788
 20
-10.0861
 30
0.0
 10
-15.1355
 20
-9.9986
 30
0.0
 10
-15.1355
 20
-9.9986
 30
0.0
 10
-15.1355
 20
-9.9986
 30
0.0
 10
-14.976
 20
-9.9986
 30
0.0
 10
-14.976
 20
-9.9986
 30
0.0
 10
-14.976
 20
-9.9986
 30
0.0
 10
-14.976
 20
-9.9986
 30
0.0
 10
-14.976
 20
-12.0273
 30
0.0
 10
-14.976
 20
-12.0273
 30
0.0
  0
SPLINE
  5
61
330
1F
100
AcDbEntity
  8
DATUMS
 62
   250
100
AcDbSpline
210
0.0
220
0.0
230
1.0
 70
    11
 71
     3
 72
   124
 73
   120
 74
     0
 42
0.0000000001
 43
0.0000000001
 40
0.0
 40
0.0
 40
0.0
 40
0.0
 40
0.032258064516129
 40
0.032258064516129
 40
0.032258064516129
 40
0.032258064516129
 40
0.0645161290322581
 40
0.0645161290322581
 40
0.0645161290322581
 40
0.0645161290322581
 40
0.0967741935483871
 40
0.0967741935483871
 40
0.0967741935483871
 40
0.0967741935483871
 40
0.1290322580645161
 40
0.1290322580645161
 40
0.1290322580645161
 40
0.1290322580645161
 40
0.1612903225806452
 40
0.1612903225806452
 40
0.1612903225806452
 40
0.1612903225806452
 40
0.1935483870967742
 40
0.1935483870967742
 40
0.1935483870967742
 40
0.1935483870967742
 40
0.2258064516129032
 40
0.2258064516129032
 40
0.2258064516129032
 40
0.2258064516129032
 40
0.2580645161290323
 40
0.2580645161290323
 40
0.2580645161290323
 40
0.2580645161290323
 40
0.2903225806451613
 40
0.2903225806451613
 40
0.2903225806451613
 40
0.2903225806451613
 40
0.3225806451612903
 40
0.3225806451612903
 40
0.3225806451612903
 40
0.3225806451612903
 40
0.3548387096774194
 40
0.3548387096774194
 40
0.3548387096774194
 40
0.3548387096774194
 40
0.3870967741935484
 40
0.3870967741935484
 40
0.3870967741935484
 40
0.3870967741935484
 40
0.4193548387096774
 40
0.4193548387096774
 40
0.4193548387096774
 40
0.4193548387096774
 40
0.4516129032258064
 40
0.4516129032258064
 40
0.4516129032258064
 40
0.4516129032258064
 40
0.4838709677419355
 40
0.4838709677419355
 40
0.4838709677419355
 40
0.4838709677419355
 40
0.5161290322580645
 40
0.5161290322580645
 40
0.5161290322580645
 40
0.5161290322580645
 40
0.5483870967741935
 40
0.5483870967741935
 40
0.5483870967741935
 40
0.5483870967741935
 40
0.5806451612903226
 40
0.5806451612903226
 40
0.5806451612903226
 40
0.5806451612903226
 40
0.6129032258064516
 40
0.6129032258064516
 40
0.6129032258064516
 40
0.6129032258064516
 40
0.6451612903225806
 40
0.6451612903225806
 40
0.6451612903225806
 40
0.6451612903225806
 40
0.6774193548387096
 40
0.6774193548387096
 40
0.6774193548387096
 40
0.6774193548387096
 40
0.7096774193548387
 40
0.7096774193548387
 40
0.7096774193548387
 40
0.7096774193548387
 40
0.7419354838709677
 40
0.7419354838709677
 40
0.7419354838709677
 40
0.7419354838709677
 40
0.7741935483870968
 40
0.7741935483870968
 40
0.7741935483870968
 40
0.7741935483870968
 40
0.8064516129032258
 40
0.8064516129032258
 40
0.8064516129032258
 40
0.8064516129032258
 40
0.8387096774193549
 40
0.8387096774193549
 40
0.8387096774193549
 40
0.8387096774193549
 40
0.8709677419354839
 40
0.8709677419354839
 40
0.8709677419354839
 40
0.8709677419354839
 40
0.9032258064516129
 40
0.9032258064516129
 40
0.9032258064516129
 40
0.9032258064516129
 40
0.9354838709677419
 40
0.9354838709677419
 40
0.9354838709677419
 40
0.9354838709677419
 40
1.0
 40
1.0
 40
1.0
 40
1.0
 10
-14.3392
 20
-11.4939
 30
0.0
 10
-14.3392
 20
-11.4939
 30
0.0
 10
-14.0913
 20
-11.461
 30
0.0
 10
-14.0913
 20
-11.461
 30
0.0
 10
-14.0913
 20
-11.461
 30
0.0
 10
-14.0626
 20
-11.6016
 30
0.0
 10
-14.0141
 20
-11.7027
 30
0.0
 10
-13.9459
 20
-11.7648
 30
0.0
 10
-13.9459
 20
-11.7648
 30
0.0
 10
-13.8773
 20
-11.8269
 30
0.0
 10
-13.794
 20
-11.858
 30
0.0
 10
-13.6957
 20
-11.858
 30
0.0
 10
-13.6957
 20
-11.858
 30
0.0
 10
-13.5791
 20
-11.858
 30
0.0
 10
-13.4803
 20
-11.8175
 30
0.0
 10
-13.3998
 20
-11.7366
 30
0.0
 10
-13.3998
 20
-11.7366
 30
0.0
 10
-13.3199
 20
-11.6557
 30
0.0
 10
-13.2794
 20
-11.5555
 30
0.0
 10
-13.2794
 20
-11.436
 30
0.0
 10
-13.2794
 20
-11.436
 30
0.0
 10
-13.2794
 20
-11.3222
 30
0.0
 10
-13.3166
 20
-11.2281
 30
0.0
 10
-13.3909
 20
-11.1543
 30
0.0
 10
-13.3909
 20
-11.1543
 30
0.0
 10
-13.4657
 20
-11.0805
 30
0.0
 10
-13.5602
 20
-11.0433
 30
0.0
 10
-13.675
 20
-11.0433
 30
0.0
 10
-13.675
 20
-11.0433
 30
0.0
 10
-13.722
 20
-11.0433
 30
0.0
 10
-13.7804
 20
-11.0527
 30
0.0
 10
-13.85
 20
-11.071
 30
0.0
 10
-13.85
 20
-11.071
 30
0.0
 10
-13.85
 20
-11.071
 30
0.0
 10
-13.8222
 20
-10.8533
 30
0.0
 10
-13.8222
 20
-10.8533
 30
0.0
 10
-13.8222
 20
-10.8533
 30
0.0
 10
-13.8058
 20
-10.8551
 30
0.0
 10
-13.7926
 20
-10.8561
 30
0.0
 10
-13.7823
 20
-10.8561
 30
0.0
 10
-13.7823
 20
-10.8561
 30
0.0
 10
-13.6769
 20
-10.8561
 30
0.0
 10
-13.5819
 20
-10.8283
 30
0.0
 10
-13.4972
 20
-10.7733
 30
0.0
 10
-13.4972
 20
-10.7733
 30
0.0
 10
-13.4125
 20
-10.7183
 30
0.0
 10
-13.3702
 20
-10.6331
 30
0.0
 10
-13.3702
 20
-10.5184
 30
0.0
 10
-13.3702
 20
-10.5184
 30
0.0
 10
-13.3702
 20
-10.4276
 30
0.0
 10
-13.4013
 20
-10.3519
 30
0.0
 10
-13.4629
 20
-10.2926
 30
0.0
 10
-13.4629
 20
-10.2926
 30
0.0
 10
-13.5245
 20
-10.2329
 30
0.0
 10
-13.604
 20
-10.2027
 30
0.0
 10
-13.7014
 20
-10.2027
 30
0.0
 10
-13.7014
 20
-10.2027
 30
0.0
 10
-13.7978
 20
-10.2027
 30
0.0
 10
-13.8782
 20
-10.2333
 30
0.0
 10
-13.9422
 20
-10.2935
 30
0.0
 10
-13.9422
 20
-10.2935
 30
0.0
 10
-14.0066
 20
-10.3542
 30
0.0
 10
-14.048
 20
-10.4455
 30
0.0
 10
-14.0664
 20
-10.5668
 30
0.0
 10
-14.0664
 20
-10.5668
 30
0.0
 10
-14.0664
 20
-10.5668
 30
0.0
 10
-14.3142
 20
-10.5226
 30
0.0
 10
-14.3142
 20
-10.5226
 30
0.0
 10
-14.3142
 20
-10.5226
 30
0.0
 10
-14.2841
 20
-10.3561
 30
0.0
 10
-14.215
 20
-10.2272
 30
0.0
 10
-14.1077
 20
-10.136
 30
0.0
 10
-14.1077
 20
-10.136
 30
0.0
 10
-14.0
 20
-10.0447
 30
0.0
 10
-13.8664
 20
-9.9986
 30
0.0
 10
-13.7065
 20
-9.9986
 30
0.0
 10
-13.7065
 20
-9.9986
 30
0.0
 10
-13.5965
 20
-9.9986
 30
0.0
 10
-13.4949
 20
-10.0226
 30
0.0
 10
-13.4022
 20
-10.0696
 30
0.0
 10
-13.4022
 20
-10.0696
 30
0.0
 10
-13.3095
 20
-10.1171
 30
0.0
 10
-13.2385
 20
-10.1816
 30
0.0
 10
-13.1891
 20
-10.2634
 30
0.0
 10
-13.1891
 20
-10.2634
 30
0.0
 10
-13.1402
 20
-10.3453
 30
0.0
 10
-13.1153
 20
-10.4318
 30
0.0
 10
-13.1153
 20
-10.524
 30
0.0
 10
-13.1153
 20
-10.524
 30
0.0
 10
-13.1153
 20
-10.611
 30
0.0
 10
-13.1388
 20
-10.6905
 30
0.0
 10
-13.1858
 20
-10.7625
 30
0.0
 10
-13.1858
 20
-10.7625
 30
0.0
 10
-13.2329
 20
-10.834
 30
0.0
 10
-13.302
 20
-10.8909
 30
0.0
 10
-13.3937
 20
-10.9332
 30
0.0
 10
-13.3937
 20
-10.9332
 30
0.0
 10
-13.2743
 20
-10.9605
 30
0.0
 10
-13.1816
 20
-11.0179
 30
0.0
 10
-13.1153
 20
-11.1049
 30
0.0
 10
-13.1153
 20
-11.1049
 30
0.0
 10
-13.0494
 20
-11.1915
 30
0.0
 10
-13.0165
 20
-11.3001
 30
0.0
 10
-13.0165
 20
-11.4304
 30
0.0
 10
-13.0165
 20
-11.4304
 30
0.0
 10
-13.0165
 20
-11.6068
 30
0.0
 10
-13.0805
 20
-11.7564
 30
0.0
 10
-13.2093
 20
-11.8791
 30
0.0
 10
-13.2093
 20
-11.8791
 30
0.0
 10
-13.3378
 20
-12.0019
 30
0.0
 10
-13.5005
 20
-12.063
 30
0.0
 10
-13.6971
 20
-12.063
 30
0.0
 10
-13.6971
 20
-12.063
 30
0.0
 10
-13.8744
 20
-12.063
 30
0.0
 10
-14.0217
 20
-12.0104
 30
0.0
 10
-14.1388
 20
-11.9045
 30
0.0
 10
-14.1388
 20
-11.9045
 30
0.0
 10
-14.2559
 20
-11.7992
 30
0.0
 10
-14.3227
 20
-11.6623
 30
0.0
 10
-14.3392
 20
-11.4939
 30
0.0
  0
SPLINE
  5
62
330
1F
100
AcDbEntity
  8
DATUMS
 62
   250
100
AcDbSpline
210
0.0
220
0.0
230
1.0
 70
    11
 71
     3
 72
    52
 73
    48
 74
     0
 42
0.0000000001
 43
0.0000000001
 40
0.0
 40
0.0
 40
0.0
 40
0.0
 40
0.0769230769230769
 40
0.0769230769230769
 40
0.0769230769230769
 40
0.0769230769230769
 40
0.1538461538461539
 40
0.1538461538461539
 40
0.1538461538461539
 40
0.1538461538461539
 40
0.2307692307692308
 40
0.2307692307692308
 40
0.2307692307692308
 40
0.2307692307692308
 40
0.3076923076923077
 40
0.3076923076923077
 40
0.3076923076923077
 40
0.3076923076923077
 40
0.3846153846153846
 40
0.3846153846153846
 40
0.3846153846153846
 40
0.3846153846153846
 40
0.4615384615384616
 40
0.4615384615384616
 40
0.4615384615384616
 40
0.4615384615384616
 40
0.5384615384615384
 40
0.5384615384615384
 40
0.5384615384615384
 40
0.5384615384615384
 40
0.6153846153846154
 40
0.6153846153846154
 40
0.6153846153846154
 40
0.6153846153846154
 40
0.6923076923076923
 40
0.6923076923076923
 40
0.6923076923076923
 40
0.6923076923076923
 40
0.7692307692307693
 40
0.7692307692307693
 40
0.7692307692307693
 40
0.7692307692307693
 40
0.8461538461538461
 40
0.8461538461538461
 40
0.8461538461538461
 40
0.8461538461538461
 40
1.0
 40
1.0
 40
1.0
 40
1.0
 10
-12.771
 20
-11.0311
 30
0.0
 10
-12.771
 20
-10.7921
 30
0.0
 10
-12.7465
 20
-10.5997
 30
0.0
 10
-12.6971
 20
-10.4544
 30
0.0
 10
-12.6971
 20
-10.4544
 30
0.0
 10
-12.6482
 20
-10.3086
 30
0.0
 10
-12.5748
 20
-10.1962
 30
0.0
 10
-12.4779
 20
-10.1171
 30
0.0
 10
-12.4779
 20
-10.1171
 30
0.0
 10
-12.381
 20
-10.0381
 30
0.0
 10
-12.2592
 20
-9.9986
 30
0.0
 10
-12.1125
 20
-9.9986
 30
0.0
 10
-12.1125
 20
-9.9986
 30
0.0
 10
-12.0038
 20
-9.9986
 30
0.0
 10
-11.9088
 20
-10.0207
 30
0.0
 10
-11.827
 20
-10.0645
 30
0.0
 10
-11.827
 20
-10.0645
 30
0.0
 10
-11.7451
 20
-10.1077
 30
0.0
 10
-11.6778
 20
-10.1708
 30
0.0
 10
-11.6242
 20
-10.2531
 30
0.0
 10
-11.6242
 20
-10.2531
 30
0.0
 10
-11.5711
 20
-10.3354
 30
0.0
 10
-11.5292
 20
-10.4356
 30
0.0
 10
-11.4991
 20
-10.5536
 30
0.0
 10
-11.4991
 20
-10.5536
 30
0.0
 10
-11.4685
 20
-10.6717
 30
0.0
 10
-11.4535
 20
-10.8307
 30
0.0
 10
-11.4535
 20
-11.0311
 30
0.0
 10
-11.4535
 20
-11.0311
 30
0.0
 10
-11.4535
 20
-11.2681
 30
0.0
 10
-11.4779
 20
-11.4591
 30
0.0
 10
-11.5264
 20
-11.6049
 30
0.0
 10
-11.5264
 20
-11.6049
 30
0.0
 10
-11.5753
 20
-11.7507
 30
0.0
 10
-11.6482
 20
-11.8631
 30
0.0
 10
-11.7451
 20
-11.9426
 30
0.0
 10
-11.7451
 20
-11.9426
 30
0.0
 10
-11.842
 20
-12.0221
 30
0.0
 10
-11.9643
 20
-12.0616
 30
0.0
 10
-12.1125
 20
-12.0616
 30
0.0
 10
-12.1125
 20
-12.0616
 30
0.0
 10
-12.3072
 20
-12.0616
 30
0.0
 10
-12.4601
 20
-11.992
 30
0.0
 10
-12.5711
 20
-11.8523
 30
0.0
 10
-12.5711
 20
-11.8523
 30
0.0
 10
-12.7042
 20
-11.6844
 30
0.0
 10
-12.771
 20
-11.4102
 30
0.0
 10
-12.771
 20
-11.0311
 30
0.0
  0
SPLINE
  5
63
330
1F
100
AcDbEntity
  8
DATUMS
 62
   250
100
AcDbSpline
210
0.0
220
0.0
230
1.0
 70
    11
 71
     3
 72
    36
 73
    32
 74
     0
 42
0.0000000001
 43
0.0000000001
 40
0.0
 40
0.0
 40
0.0
 40
0.0
 40
0.1111111111111111
 40
0.1111111111111111
 40
0.1111111111111111
 40
0.1111111111111111
 40
0.2222222222222222
 40
0.2222222222222222
 40
0.2222222222222222
 40
0.2222222222222222
 40
0.3333333333333333
 40
0.3333333333333333
 40
0.3333333333333333
 40
0.3333333333333333
 40
0.4444444444444444
 40
0.4444444444444444
 40
0.4444444444444444
 40
0.4444444444444444
 40
0.5555555555555556
 40
0.5555555555555556
 40
0.5555555555555556
 40
0.5555555555555556
 40
0.6666666666666666
 40
0.6666666666666666
 40
0.6666666666666666
 40
0.6666666666666666
 40
0.7777777777777778
 40
0.7777777777777778
 40
0.7777777777777778
 40
0.7777777777777778
 40
1.0
 40
1.0
 40
1.0
 40
1.0
 10
-12.516
 20
-11.0311
 30
0.0
 10
-12.516
 20
-11.3627
 30
0.0
 10
-12.477
 20
-11.5833
 30
0.0
 10
-12.3994
 20
-11.6933
 30
0.0
 10
-12.3994
 20
-11.6933
 30
0.0
 10
-12.3218
 20
-11.8029
 30
0.0
 10
-12.2263
 20
-11.858
 30
0.0
 10
-12.1125
 20
-11.858
 30
0.0
 10
-12.1125
 20
-11.858
 30
0.0
 10
-11.9982
 20
-11.858
 30
0.0
 10
-11.9027
 20
-11.8025
 30
0.0
 10
-11.8251
 20
-11.6924
 30
0.0
 10
-11.8251
 20
-11.6924
 30
0.0
 10
-11.7475
 20
-11.5823
 30
0.0
 10
-11.7084
 20
-11.3617
 30
0.0
 10
-11.7084
 20
-11.0311
 30
0.0
 10
-11.7084
 20
-11.0311
 30
0.0
 10
-11.7084
 20
-10.6985
 30
0.0
 10
-11.7475
 20
-10.4774
 30
0.0
 10
-11.8251
 20
-10.3683
 30
0.0
 10
-11.8251
 20
-10.3683
 30
0.0
 10
-11.9027
 20
-10.2587
 30
0.0
 10
-11.9991
 20
-10.2042
 30
0.0
 10
-12.1148
 20
-10.2042
 30
0.0
 10
-12.1148
 20
-10.2042
 30
0.0
 10
-12.2291
 20
-10.2042
 30
0.0
 10
-12.3199
 20
-10.2526
 30
0.0
 10
-12.3881
 20
-10.349
 30
0.0
 10
-12.3881
 20
-10.349
 30
0.0
 10
-12.4732
 20
-10.4718
 30
0.0
 10
-12.516
 20
-10.6995
 30
0.0
 10
-12.516
 20
-11.0311
 30
0.0
  0
SPLINE
  5
64
330
1F
100
AcDbEntity
  8
DATUMS
 62
   250
100
AcDbSpline
210
0.0
220
0.0
230
1.0
 70
    11
 71
     3
 72
    20
 73
    16
 74
     0
 42
0.0000000001
 43
0.0000000001
 40
0.0
 40
0.0
 40
0.0
 40
0.0
 40
0.2
 40
0.2
 40
0.2
 40
0.2
 40
0.4
 40
0.4
 40
0.4
 40
0.4
 40
0.6
 40
0.6
 40
0.6
 40
0.6
 40
1.0
 40
1.0
 40
1.0
 40
1.0
 10
2.5539
 20
-12.44
 30
0.0
 10
2.5539
 20
-12.44
 30
0.0
 10
-0.4461
 20
-12.0019
 30
0.0
 10
-0.4461
 20
-12.0019
 30
0.0
 10
-0.4461
 20
-12.0019
 30
0.0
 10
-0.4461
 20
-12.0019
 30
0.0
 10
-0.4461
 20
-12.9688
 30
0.0
 10
-0.4461
 20
-12.9688
 30
0.0
 10
-0.4461
 20
-12.9688
 30
0.0
 10
-0.4461
 20
-12.9688
 30
0.0
 10
2.5539
 20
-12.4413
 30
0.0
 10
2.5539
 20
-12.4413
 30
0.0
 10
2.5539
 20
-12.4413
 30
0.0
 10
2.5539
 20
-12.4413
 30
0.0
 10
2.5539
 20
-12.44
 30
0.0
 10
2.5539
 20
-12.44
 30
0.0
  0
SPLINE
  5
65
330
1F
100
AcDbEntity
  8
DATUMS
 62
   250
100
AcDbSpline
210
0.0
220
0.0
230
1.0
 70
    11
 71
     3
 72
    20
 73
    16
 74
     0
 42
0.0000000001
 43
0.0000000001
 40
0.0
 40
0.0
 40
0.0
 40
0.0
 40
0.2
 40
0.2
 40
0.2
 40
0.2
 40
0.4
 40
0.4
 40
0.4
 40
0.4
 40
0.6
 40
0.6
 40
0.6
 40
0.6
 40
1.0
 40
1.0
 40
1.0
 40
1.0
 10
-29.9295
 20
-12.4187
 30
0.0
 10
-29.9295
 20
-12.4187
 30
0.0
 10
-26.9294
 20
-12.8567
 30
0.0
 10
-26.9294
 20
-12.8567
 30
0.0
 10
-26.9294
 20
-12.8567
 30
0.0
 10
-26.9294
 20
-12.8567
 30
0.0
 10
-26.9294
 20
-11.8898
 30
0.0
 10
-26.9294
 20
-11.8898
 30
0.0
 10
-26.9294
 20
-11.8898
 30
0.0
 10
-26.9294
 20
-11.8898
 30
0.0
 10
-29.9295
 20
-12.4173
 30
0.0
 10
-29.9295
 20
-12.4173
 30
0.0
 10
-29.9295
 20
-12.4173
 30
0.0
 10
-29.9295
 20
-12.4173
 30
0.0
 10
-29.9295
 20
-12.4187
 30
0.0
 10
-29.9295
 20
-12.4187
 30
0.0
  0
SPLINE
  5
66
330
1F
100
AcDbEntity
  8
DATUMS
 62
   250
100
AcDbSpline
210
0.0
220
0.0
230
1.0
 70
    24
 71
     3
 72
     8
 73
     4
 74
     0
 42
0.0000000001
 43
0.0000000001
 40
0.0
 40
0.0
 40
0.0
 40
0.0
 40
1.0
 40
1.0
 40
1.0
 40
1.0
 10
-30.0717
 20
-12.4261
 30
0.0
 10
-30.0717
 20
-12.4261
 30
0.0
 10
2.3286
 20
-12.4261
 30
0.0
 10
2.3286
 20
-12.4261
 30
0.0
  0
SPLINE
  5
67
330
1F
100
AcDbEntity
  8
DATUMS
  6
NEW_LINE9
 62
   250
100
AcDbSpline
210
0.0
220
0.0
230
1.0
 70
    24
 71
     3
 72
     8
 73
     4
 74
     0
 42
0.0000000001
 43
0.0000000001
 40
0.0
 40
0.0
 40
0.0
 40
0.0
 40
1.0
 40
1.0
 40
1.0
 40
1.0
 10
-29.9988
 20
-11.9537
 30
0.0
 10
-29.9988
 20
-11.9537
 30
0.0
 10
-29.9988
 20
-16.8596
 30
0.0
 10
-29.9988
 20
-16.8596
 30
0.0
  0
SPLINE
  5
69
330
1F
100
AcDbEntity
  8
DATUMS
  6
NEW_LINE10
 62
   250
100
AcDbSpline
210
0.0
220
0.0
230
1.0
 70
    24
 71
     3
 72
     8
 73
     4
 74
     0
 42
0.0000000001
 43
0.0000000001
 40
0.0
 40
0.0
 40
0.0
 40
0.0
 40
1.0
 40
1.0
 40
1.0
 40
1.0
 10
2.6407
 20
-11.9756
 30
0.0
 10
2.6407
 20
-11.9756
 30
0.0
 10
2.6407
 20
-17.3061
 30
0.0
 10
2.6407
 20
-17.3061
 30
0.0
  0
SPLINE
  5
6B
330
1F
100
AcDbEntity
  8
DATUMS
 62
   250
100
AcDbSpline
210
0.0
220
0.0
230
1.0
 70
    11
 71
     3
 72
    68
 73
    64
 74
     0
 42
0.0000000001
 43
0.0000000001
 40
0.0
 40
0.0
 40
0.0
 40
0.0
 40
0.0588235294117647
 40
0.0588235294117647
 40
0.0588235294117647
 40
0.0588235294117647
 40
0.1176470588235294
 40
0.1176470588235294
 40
0.1176470588235294
 40
0.1176470588235294
 40
0.1764705882352941
 40
0.1764705882352941
 40
0.1764705882352941
 40
0.1764705882352941
 40
0.2352941176470588
 40
0.2352941176470588
 40
0.2352941176470588
 40
0.2352941176470588
 40
0.2941176470588235
 40
0.2941176470588235
 40
0.2941176470588235
 40
0.2941176470588235
 40
0.3529411764705883
 40
0.3529411764705883
 40
0.3529411764705883
 40
0.3529411764705883
 40
0.4117647058823529
 40
0.4117647058823529
 40
0.4117647058823529
 40
0.4117647058823529
 40
0.4705882352941176
 40
0.4705882352941176
 40
0.4705882352941176
 40
0.4705882352941176
 40
0.5294117647058824
 40
0.5294117647058824
 40
0.5294117647058824
 40
0.5294117647058824
 40
0.5882352941176471
 40
0.5882352941176471
 40
0.5882352941176471
 40
0.5882352941176471
 40
0.6470588235294118
 40
0.6470588235294118
 40
0.6470588235294118
 40
0.6470588235294118
 40
0.7058823529411765
 40
0.7058823529411765
 40
0.7058823529411765
 40
0.7058823529411765
 40
0.7647058823529411
 40
0.7647058823529411
 40
0.7647058823529411
 40
0.7647058823529411
 40
0.8235294117647058
 40
0.8235294117647058
 40
0.8235294117647058
 40
0.8235294117647058
 40
0.8823529411764706
 40
0.8823529411764706
 40
0.8823529411764706
 40
0.8823529411764706
 40
1.0
 40
1.0
 40
1.0
 40
1.0
 10
-38.6953
 20
-28.5281
 30
0.0
 10
-38.7329
 20
-28.6312
 30
0.0
 10
-38.7865
 20
-28.7074
 30
0.0
 10
-38.8566
 20
-28.7572
 30
0.0
 10
-38.8566
 20
-28.7572
 30
0.0
 10
-38.9262
 20
-28.8066
 30
0.0
 10
-39.01
 20
-28.8315
 30
0.0
 10
-39.1073
 20
-28.8315
 30
0.0
 10
-39.1073
 20
-28.8315
 30
0.0
 10
-39.2545
 20
-28.8315
 30
0.0
 10
-39.3778
 20
-28.7788
 30
0.0
 10
-39.478
 20
-28.673
 30
0.0
 10
-39.478
 20
-28.673
 30
0.0
 10
-39.5782
 20
-28.5672
 30
0.0
 10
-39.6285
 20
-28.427
 30
0.0
 10
-39.6285
 20
-28.2516
 30
0.0
 10
-39.6285
 20
-28.2516
 30
0.0
 10
-39.6285
 20
-28.0752
 30
0.0
 10
-39.5772
 20
-27.9331
 30
0.0
 10
-39.4747
 20
-27.8254
 30
0.0
 10
-39.4747
 20
-27.8254
 30
0.0
 10
-39.3721
 20
-27.7182
 30
0.0
 10
-39.2475
 20
-27.6645
 30
0.0
 10
-39.1003
 20
-27.6645
 30
0.0
 10
-39.1003
 20
-27.6645
 30
0.0
 10
-39.0067
 20
-27.6645
 30
0.0
 10
-38.9253
 20
-27.689
 30
0.0
 10
-38.8557
 20
-27.7379
 30
0.0
 10
-38.8557
 20
-27.7379
 30
0.0
 10
-38.7865
 20
-27.7873
 30
0.0
 10
-38.7329
 20
-27.8616
 30
0.0
 10
-38.6953
 20
-27.9618
 30
0.0
 10
-38.6953
 20
-27.9618
 30
0.0
 10
-38.6548
 20
-27.8381
 30
0.0
 10
-38.5899
 20
-27.7436
 30
0.0
 10
-38.4996
 20
-27.6787
 30
0.0
 10
-38.4996
 20
-27.6787
 30
0.0
 10
-38.4098
 20
-27.6142
 30
0.0
 10
-38.3021
 20
-27.5818
 30
0.0
 10
-38.1774
 20
-27.5818
 30
0.0
 10
-38.1774
 20
-27.5818
 30
0.0
 10
-38.0043
 20
-27.5818
 30
0.0
 10
-37.8594
 20
-27.6429
 30
0.0
 10
-37.7419
 20
-27.7647
 30
0.0
 10
-37.7419
 20
-27.7647
 30
0.0
 10
-37.6243
 20
-27.887
 30
0.0
 10
-37.5655
 20
-28.0479
 30
0.0
 10
-37.5655
 20
-28.2473
 30
0.0
 10
-37.5655
 20
-28.2473
 30
0.0
 10
-37.5655
 20
-28.4468
 30
0.0
 10
-37.6243
 20
-28.6072
 30
0.0
 10
-37.7423
 20
-28.7295
 30
0.0
 10
-37.7423
 20
-28.7295
 30
0.0
 10
-37.8604
 20
-28.8518
 30
0.0
 10
-38.0076
 20
-28.9129
 30
0.0
 10
-38.184
 20
-28.9129
 30
0.0
 10
-38.184
 20
-28.9129
 30
0.0
 10
-38.3152
 20
-28.9129
 30
0.0
 10
-38.4253
 20
-28.8795
 30
0.0
 10
-38.5142
 20
-28.8127
 30
0.0
 10
-38.5142
 20
-28.8127
 30
0.0
 10
-38.6026
 20
-28.7464
 30
0.0
 10
-38.6633
 20
-28.6514
 30
0.0
 10
-38.6953
 20
-28.5281
 30
0.0
  0
SPLINE
  5
6C
330
1F
100
AcDbEntity
  8
DATUMS
 62
   250
100
AcDbSpline
210
0.0
220
0.0
230
1.0
 70
    11
 71
     3
 72
    36
 73
    32
 74
     0
 42
0.0000000001
 43
0.0000000001
 40
0.0
 40
0.0
 40
0.0
 40
0.0
 40
0.1111111111111111
 40
0.1111111111111111
 40
0.1111111111111111
 40
0.1111111111111111
 40
0.2222222222222222
 40
0.2222222222222222
 40
0.2222222222222222
 40
0.2222222222222222
 40
0.3333333333333333
 40
0.3333333333333333
 40
0.3333333333333333
 40
0.3333333333333333
 40
0.4444444444444444
 40
0.4444444444444444
 40
0.4444444444444444
 40
0.4444444444444444
 40
0.5555555555555556
 40
0.5555555555555556
 40
0.5555555555555556
 40
0.5555555555555556
 40
0.6666666666666666
 40
0.6666666666666666
 40
0.6666666666666666
 40
0.6666666666666666
 40
0.7777777777777778
 40
0.7777777777777778
 40
0.7777777777777778
 40
0.7777777777777778
 40
1.0
 40
1.0
 40
1.0
 40
1.0
 10
-39.1158
 20
-28.578
 30
0.0
 10
-39.0203
 20
-28.578
 30
0.0
 10
-38.9422
 20
-28.547
 30
0.0
 10
-38.8815
 20
-28.4858
 30
0.0
 10
-38.8815
 20
-28.4858
 30
0.0
 10
-38.8209
 20
-28.4242
 30
0.0
 10
-38.7903
 20
-28.3442
 30
0.0
 10
-38.7903
 20
-28.2459
 30
0.0
 10
-38.7903
 20
-28.2459
 30
0.0
 10
-38.7903
 20
-28.1504
 30
0.0
 10
-38.8204
 20
-28.0719
 30
0.0
 10
-38.8806
 20
-28.0107
 30
0.0
 10
-38.8806
 20
-28.0107
 30
0.0
 10
-38.9408
 20
-27.9496
 30
0.0
 10
-39.0147
 20
-27.9195
 30
0.0
 10
-39.1017
 20
-27.9195
 30
0.0
 10
-39.1017
 20
-27.9195
 30
0.0
 10
-39.1929
 20
-27.9195
 30
0.0
 10
-39.2691
 20
-27.9505
 30
0.0
 10
-39.3312
 20
-28.0136
 30
0.0
 10
-39.3312
 20
-28.0136
 30
0.0
 10
-39.3933
 20
-28.0766
 30
0.0
 10
-39.4244
 20
-28.1547
 30
0.0
 10
-39.4244
 20
-28.2487
 30
0.0
 10
-39.4244
 20
-28.2487
 30
0.0
 10
-39.4244
 20
-28.3433
 30
0.0
 10
-39.3938
 20
-28.4218
 30
0.0
 10
-39.3336
 20
-28.4844
 30
0.0
 10
-39.3336
 20
-28.4844
 30
0.0
 10
-39.2729
 20
-28.547
 30
0.0
 10
-39.2
 20
-28.578
 30
0.0
 10
-39.1158
 20
-28.578
 30
0.0
  0
SPLINE
  5
6D
330
1F
100
AcDbEntity
  8
DATUMS
 62
   250
100
AcDbSpline
210
0.0
220
0.0
230
1.0
 70
    11
 71
     3
 72
    40
 73
    36
 74
     0
 42
0.0000000001
 43
0.0000000001
 40
0.0
 40
0.0
 40
0.0
 40
0.0
 40
0.1
 40
0.1
 40
0.1
 40
0.1
 40
0.2
 40
0.2
 40
0.2
 40
0.2
 40
0.3
 40
0.3
 40
0.3
 40
0.3
 40
0.4
 40
0.4
 40
0.4
 40
0.4
 40
0.5
 40
0.5
 40
0.5
 40
0.5
 40
0.6
 40
0.6
 40
0.6
 40
0.6
 40
0.7
 40
0.7
 40
0.7
 40
0.7
 40
0.8
 40
0.8
 40
0.8
 40
0.8
 40
1.0
 40
1.0
 40
1.0
 40
1.0
 10
-38.1826
 20
-28.658
 30
0.0
 10
-38.112
 20
-28.658
 30
0.0
 10
-38.0434
 20
-28.641
 30
0.0
 10
-37.9775
 20
-28.6076
 30
0.0
 10
-37.9775
 20
-28.6076
 30
0.0
 10
-37.9112
 20
-28.5742
 30
0.0
 10
-37.8599
 20
-28.5244
 30
0.0
 10
-37.8237
 20
-28.4581
 30
0.0
 10
-37.8237
 20
-28.4581
 30
0.0
 10
-37.7875
 20
-28.3917
 30
0.0
 10
-37.7691
 20
-28.3207
 30
0.0
 10
-37.7691
 20
-28.2445
 30
0.0
 10
-37.7691
 20
-28.2445
 30
0.0
 10
-37.7691
 20
-28.126
 30
0.0
 10
-37.8072
 20
-28.0281
 30
0.0
 10
-37.8839
 20
-27.951
 30
0.0
 10
-37.8839
 20
-27.951
 30
0.0
 10
-37.9601
 20
-27.8739
 30
0.0
 10
-38.057
 20
-27.8353
 30
0.0
 10
-38.1746
 20
-27.8353
 30
0.0
 10
-38.1746
 20
-27.8353
 30
0.0
 10
-38.2941
 20
-27.8353
 30
0.0
 10
-38.3928
 20
-27.8748
 30
0.0
 10
-38.4709
 20
-27.9543
 30
0.0
 10
-38.4709
 20
-27.9543
 30
0.0
 10
-38.549
 20
-28.0338
 30
0.0
 10
-38.588
 20
-28.1335
 30
0.0
 10
-38.588
 20
-28.253
 30
0.0
 10
-38.588
 20
-28.253
 30
0.0
 10
-38.588
 20
-28.3696
 30
0.0
 10
-38.5495
 20
-28.4661
 30
0.0
 10
-38.4723
 20
-28.5427
 30
0.0
 10
-38.4723
 20
-28.5427
 30
0.0
 10
-38.3947
 20
-28.6194
 30
0.0
 10
-38.2983
 20
-28.658
 30
0.0
 10
-38.1826
 20
-28.658
 30
0.0
  0
SPLINE
  5
6E
330
1F
100
AcDbEntity
  8
DATUMS
 62
   250
100
AcDbSpline
210
0.0
220
0.0
230
1.0
 70
    11
 71
     3
 72
    92
 73
    88
 74
     0
 42
0.0000000001
 43
0.0000000001
 40
0.0
 40
0.0
 40
0.0
 40
0.0
 40
0.0434782608695652
 40
0.0434782608695652
 40
0.0434782608695652
 40
0.0434782608695652
 40
0.0869565217391304
 40
0.0869565217391304
 40
0.0869565217391304
 40
0.0869565217391304
 40
0.1304347826086956
 40
0.1304347826086956
 40
0.1304347826086956
 40
0.1304347826086956
 40
0.1739130434782609
 40
0.1739130434782609
 40
0.1739130434782609
 40
0.1739130434782609
 40
0.2173913043478261
 40
0.2173913043478261
 40
0.2173913043478261
 40
0.2173913043478261
 40
0.2608695652173913
 40
0.2608695652173913
 40
0.2608695652173913
 40
0.2608695652173913
 40
0.3043478260869565
 40
0.3043478260869565
 40
0.3043478260869565
 40
0.3043478260869565
 40
0.3478260869565217
 40
0.3478260869565217
 40
0.3478260869565217
 40
0.3478260869565217
 40
0.391304347826087
 40
0.391304347826087
 40
0.391304347826087
 40
0.391304347826087
 40
0.4347826086956522
 40
0.4347826086956522
 40
0.4347826086956522
 40
0.4347826086956522
 40
0.4782608695652174
 40
0.4782608695652174
 40
0.4782608695652174
 40
0.4782608695652174
 40
0.5217391304347826
 40
0.5217391304347826
 40
0.5217391304347826
 40
0.5217391304347826
 40
0.5652173913043478
 40
0.5652173913043478
 40
0.5652173913043478
 40
0.5652173913043478
 40
0.6086956521739131
 40
0.6086956521739131
 40
0.6086956521739131
 40
0.6086956521739131
 40
0.6521739130434783
 40
0.6521739130434783
 40
0.6521739130434783
 40
0.6521739130434783
 40
0.6956521739130435
 40
0.6956521739130435
 40
0.6956521739130435
 40
0.6956521739130435
 40
0.7391304347826086
 40
0.7391304347826086
 40
0.7391304347826086
 40
0.7391304347826086
 40
0.782608695652174
 40
0.782608695652174
 40
0.782608695652174
 40
0.782608695652174
 40
0.8260869565217391
 40
0.8260869565217391
 40
0.8260869565217391
 40
0.8260869565217391
 40
0.8695652173913043
 40
0.8695652173913043
 40
0.8695652173913043
 40
0.8695652173913043
 40
0.9130434782608695
 40
0.9130434782608695
 40
0.9130434782608695
 40
0.9130434782608695
 40
1.0
 40
1.0
 40
1.0
 40
1.0
 10
-38.129
 20
-27.3405
 30
0.0
 10
-38.129
 20
-27.3405
 30
0.0
 10
-38.1511
 20
-27.0799
 30
0.0
 10
-38.1511
 20
-27.0799
 30
0.0
 10
-38.1511
 20
-27.0799
 30
0.0
 10
-38.0241
 20
-27.0606
 30
0.0
 10
-37.9291
 20
-27.0159
 30
0.0
 10
-37.8651
 20
-26.9458
 30
0.0
 10
-37.8651
 20
-26.9458
 30
0.0
 10
-37.8011
 20
-26.8753
 30
0.0
 10
-37.7691
 20
-26.7906
 30
0.0
 10
-37.7691
 20
-26.6914
 30
0.0
 10
-37.7691
 20
-26.6914
 30
0.0
 10
-37.7691
 20
-26.5719
 30
0.0
 10
-37.8143
 20
-26.4708
 30
0.0
 10
-37.9041
 20
-26.3885
 30
0.0
 10
-37.9041
 20
-26.3885
 30
0.0
 10
-37.9944
 20
-26.3057
 30
0.0
 10
-38.1139
 20
-26.2643
 30
0.0
 10
-38.2625
 20
-26.2643
 30
0.0
 10
-38.2625
 20
-26.2643
 30
0.0
 10
-38.4041
 20
-26.2643
 30
0.0
 10
-38.5156
 20
-26.3038
 30
0.0
 10
-38.5974
 20
-26.3833
 30
0.0
 10
-38.5974
 20
-26.3833
 30
0.0
 10
-38.6793
 20
-26.4628
 30
0.0
 10
-38.7202
 20
-26.5667
 30
0.0
 10
-38.7202
 20
-26.6956
 30
0.0
 10
-38.7202
 20
-26.6956
 30
0.0
 10
-38.7202
 20
-26.7756
 30
0.0
 10
-38.7019
 20
-26.8475
 30
0.0
 10
-38.6657
 20
-26.912
 30
0.0
 10
-38.6657
 20
-26.912
 30
0.0
 10
-38.6294
 20
-26.9764
 30
0.0
 10
-38.5824
 20
-27.0267
 30
0.0
 10
-38.5245
 20
-27.0634
 30
0.0
 10
-38.5245
 20
-27.0634
 30
0.0
 10
-38.5245
 20
-27.0634
 30
0.0
 10
-38.5546
 20
-27.2963
 30
0.0
 10
-38.5546
 20
-27.2963
 30
0.0
 10
-38.5546
 20
-27.2963
 30
0.0
 10
-38.5546
 20
-27.2963
 30
0.0
 10
-39.5923
 20
-27.1006
 30
0.0
 10
-39.5923
 20
-27.1006
 30
0.0
 10
-39.5923
 20
-27.1006
 30
0.0
 10
-39.5923
 20
-27.1006
 30
0.0
 10
-39.5923
 20
-26.0959
 30
0.0
 10
-39.5923
 20
-26.0959
 30
0.0
 10
-39.5923
 20
-26.0959
 30
0.0
 10
-39.5923
 20
-26.0959
 30
0.0
 10
-39.3552
 20
-26.0959
 30
0.0
 10
-39.3552
 20
-26.0959
 30
0.0
 10
-39.3552
 20
-26.0959
 30
0.0
 10
-39.3552
 20
-26.0959
 30
0.0
 10
-39.3552
 20
-26.9021
 30
0.0
 10
-39.3552
 20
-26.9021
 30
0.0
 10
-39.3552
 20
-26.9021
 30
0.0
 10
-39.3552
 20
-26.9021
 30
0.0
 10
-38.8124
 20
-27.0112
 30
0.0
 10
-38.8124
 20
-27.0112
 30
0.0
 10
-38.8124
 20
-27.0112
 30
0.0
 10
-38.8971
 20
-26.8899
 30
0.0
 10
-38.9394
 20
-26.7624
 30
0.0
 10
-38.9394
 20
-26.6293
 30
0.0
 10
-38.9394
 20
-26.6293
 30
0.0
 10
-38.9394
 20
-26.4529
 30
0.0
 10
-38.8783
 20
-26.3043
 30
0.0
 10
-38.756
 20
-26.1829
 30
0.0
 10
-38.756
 20
-26.1829
 30
0.0
 10
-38.6337
 20
-26.0616
 30
0.0
 10
-38.4766
 20
-26.0009
 30
0.0
 10
-38.2847
 20
-26.0009
 30
0.0
 10
-38.2847
 20
-26.0009
 30
0.0
 10
-38.1017
 20
-26.0009
 30
0.0
 10
-37.9436
 20
-26.0545
 30
0.0
 10
-37.8105
 20
-26.1608
 30
0.0
 10
-37.8105
 20
-26.1608
 30
0.0
 10
-37.6473
 20
-26.2906
 30
0.0
 10
-37.5655
 20
-26.4675
 30
0.0
 10
-37.5655
 20
-26.6914
 30
0.0
 10
-37.5655
 20
-26.6914
 30
0.0
 10
-37.5655
 20
-26.8753
 30
0.0
 10
-37.6167
 20
-27.0253
 30
0.0
 10
-37.7197
 20
-27.1415
 30
0.0
 10
-37.7197
 20
-27.1415
 30
0.0
 10
-37.8228
 20
-27.2577
 30
0.0
 10
-37.9592
 20
-27.324
 30
0.0
 10
-38.129
 20
-27.3405
 30
0.0
  0
SPLINE
  5
6F
330
1F
100
AcDbEntity
  8
DATUMS
 62
   250
100
AcDbSpline
210
0.0
220
0.0
230
1.0
 70
    11
 71
     3
 72
    40
 73
    36
 74
     0
 42
0.0000000001
 43
0.0000000001
 40
0.0
 40
0.0
 40
0.0
 40
0.0
 40
0.1
 40
0.1
 40
0.1
 40
0.1
 40
0.2
 40
0.2
 40
0.2
 40
0.2
 40
0.3
 40
0.3
 40
0.3
 40
0.3
 40
0.4
 40
0.4
 40
0.4
 40
0.4
 40
0.5
 40
0.5
 40
0.5
 40
0.5
 40
0.6
 40
0.6
 40
0.6
 40
0.6
 40
0.7
 40
0.7
 40
0.7
 40
0.7
 40
0.8
 40
0.8
 40
0.8
 40
0.8
 40
1.0
 40
1.0
 40
1.0
 40
1.0
 10
-37.6439
 20
-41.3865
 30
0.0
 10
-37.6439
 20
-41.3865
 30
0.0
 10
-37.6439
 20
-41.6344
 30
0.0
 10
-37.6439
 20
-41.6344
 30
0.0
 10
-37.6439
 20
-41.6344
 30
0.0
 10
-37.6439
 20
-41.6344
 30
0.0
 10
-39.2243
 20
-41.6344
 30
0.0
 10
-39.2243
 20
-41.6344
 30
0.0
 10
-39.2243
 20
-41.6344
 30
0.0
 10
-39.1674
 20
-41.6942
 30
0.0
 10
-39.1105
 20
-41.7722
 30
0.0
 10
-39.0536
 20
-41.8691
 30
0.0
 10
-39.0536
 20
-41.8691
 30
0.0
 10
-38.9967
 20
-41.9665
 30
0.0
 10
-38.9539
 20
-42.0535
 30
0.0
 10
-38.9256
 20
-42.1307
 30
0.0
 10
-38.9256
 20
-42.1307
 30
0.0
 10
-38.9256
 20
-42.1307
 30
0.0
 10
-39.1651
 20
-42.1307
 30
0.0
 10
-39.1651
 20
-42.1307
 30
0.0
 10
-39.1651
 20
-42.1307
 30
0.0
 10
-39.2304
 20
-41.9919
 30
0.0
 10
-39.3095
 20
-41.8705
 30
0.0
 10
-39.4021
 20
-41.7666
 30
0.0
 10
-39.4021
 20
-41.7666
 30
0.0
 10
-39.4953
 20
-41.6631
 30
0.0
 10
-39.5851
 20
-41.5893
 30
0.0
 10
-39.6726
 20
-41.546
 30
0.0
 10
-39.6726
 20
-41.546
 30
0.0
 10
-39.6726
 20
-41.546
 30
0.0
 10
-39.6726
 20
-41.3865
 30
0.0
 10
-39.6726
 20
-41.3865
 30
0.0
 10
-39.6726
 20
-41.3865
 30
0.0
 10
-39.6726
 20
-41.3865
 30
0.0
 10
-37.6439
 20
-41.3865
 30
0.0
 10
-37.6439
 20
-41.3865
 30
0.0
  0
SPLINE
  5
70
330
1F
100
AcDbEntity
  8
DATUMS
 62
   250
100
AcDbSpline
210
0.0
220
0.0
230
1.0
 70
    11
 71
     3
 72
    92
 73
    88
 74
     0
 42
0.0000000001
 43
0.0000000001
 40
0.0
 40
0.0
 40
0.0
 40
0.0
 40
0.0434782608695652
 40
0.0434782608695652
 40
0.0434782608695652
 40
0.0434782608695652
 40
0.0869565217391304
 40
0.0869565217391304
 40
0.0869565217391304
 40
0.0869565217391304
 40
0.1304347826086956
 40
0.1304347826086956
 40
0.1304347826086956
 40
0.1304347826086956
 40
0.1739130434782609
 40
0.1739130434782609
 40
0.1739130434782609
 40
0.1739130434782609
 40
0.2173913043478261
 40
0.2173913043478261
 40
0.2173913043478261
 40
0.2173913043478261
 40
0.2608695652173913
 40
0.2608695652173913
 40
0.2608695652173913
 40
0.2608695652173913
 40
0.3043478260869565
 40
0.3043478260869565
 40
0.3043478260869565
 40
0.3043478260869565
 40
0.3478260869565217
 40
0.3478260869565217
 40
0.3478260869565217
 40
0.3478260869565217
 40
0.391304347826087
 40
0.391304347826087
 40
0.391304347826087
 40
0.391304347826087
 40
0.4347826086956522
 40
0.4347826086956522
 40
0.4347826086956522
 40
0.4347826086956522
 40
0.4782608695652174
 40
0.4782608695652174
 40
0.4782608695652174
 40
0.4782608695652174
 40
0.5217391304347826
 40
0.5217391304347826
 40
0.5217391304347826
 40
0.5217391304347826
 40
0.5652173913043478
 40
0.5652173913043478
 40
0.5652173913043478
 40
0.5652173913043478
 40
0.6086956521739131
 40
0.6086956521739131
 40
0.6086956521739131
 40
0.6086956521739131
 40
0.6521739130434783
 40
0.6521739130434783
 40
0.6521739130434783
 40
0.6521739130434783
 40
0.6956521739130435
 40
0.6956521739130435
 40
0.6956521739130435
 40
0.6956521739130435
 40
0.7391304347826086
 40
0.7391304347826086
 40
0.7391304347826086
 40
0.7391304347826086
 40
0.782608695652174
 40
0.782608695652174
 40
0.782608695652174
 40
0.782608695652174
 40
0.8260869565217391
 40
0.8260869565217391
 40
0.8260869565217391
 40
0.8260869565217391
 40
0.8695652173913043
 40
0.8695652173913043
 40
0.8695652173913043
 40
0.8695652173913043
 40
0.9130434782608695
 40
0.9130434782608695
 40
0.9130434782608695
 40
0.9130434782608695
 40
1.0
 40
1.0
 40
1.0
 40
1.0
 10
-38.1731
 20
-40.7511
 30
0.0
 10
-38.1731
 20
-40.7511
 30
0.0
 10
-38.1952
 20
-40.4905
 30
0.0
 10
-38.1952
 20
-40.4905
 30
0.0
 10
-38.1952
 20
-40.4905
 30
0.0
 10
-38.0682
 20
-40.4712
 30
0.0
 10
-37.9732
 20
-40.4265
 30
0.0
 10
-37.9092
 20
-40.3564
 30
0.0
 10
-37.9092
 20
-40.3564
 30
0.0
 10
-37.8452
 20
-40.2859
 30
0.0
 10
-37.8132
 20
-40.2012
 30
0.0
 10
-37.8132
 20
-40.102
 30
0.0
 10
-37.8132
 20
-40.102
 30
0.0
 10
-37.8132
 20
-39.9825
 30
0.0
 10
-37.8584
 20
-39.8814
 30
0.0
 10
-37.9482
 20
-39.7991
 30
0.0
 10
-37.9482
 20
-39.7991
 30
0.0
 10
-38.0385
 20
-39.7163
 30
0.0
 10
-38.158
 20
-39.6749
 30
0.0
 10
-38.3066
 20
-39.6749
 30
0.0
 10
-38.3066
 20
-39.6749
 30
0.0
 10
-38.4482
 20
-39.6749
 30
0.0
 10
-38.5597
 20
-39.7144
 30
0.0
 10
-38.6415
 20
-39.7939
 30
0.0
 10
-38.6415
 20
-39.7939
 30
0.0
 10
-38.7234
 20
-39.8734
 30
0.0
 10
-38.7643
 20
-39.9773
 30
0.0
 10
-38.7643
 20
-40.1062
 30
0.0
 10
-38.7643
 20
-40.1062
 30
0.0
 10
-38.7643
 20
-40.1862
 30
0.0
 10
-38.746
 20
-40.2581
 30
0.0
 10
-38.7098
 20
-40.3226
 30
0.0
 10
-38.7098
 20
-40.3226
 30
0.0
 10
-38.6735
 20
-40.387
 30
0.0
 10
-38.6265
 20
-40.4373
 30
0.0
 10
-38.5686
 20
-40.474
 30
0.0
 10
-38.5686
 20
-40.474
 30
0.0
 10
-38.5686
 20
-40.474
 30
0.0
 10
-38.5987
 20
-40.7069
 30
0.0
 10
-38.5987
 20
-40.7069
 30
0.0
 10
-38.5987
 20
-40.7069
 30
0.0
 10
-38.5987
 20
-40.7069
 30
0.0
 10
-39.6364
 20
-40.5112
 30
0.0
 10
-39.6364
 20
-40.5112
 30
0.0
 10
-39.6364
 20
-40.5112
 30
0.0
 10
-39.6364
 20
-40.5112
 30
0.0
 10
-39.6364
 20
-39.5065
 30
0.0
 10
-39.6364
 20
-39.5065
 30
0.0
 10
-39.6364
 20
-39.5065
 30
0.0
 10
-39.6364
 20
-39.5065
 30
0.0
 10
-39.3993
 20
-39.5065
 30
0.0
 10
-39.3993
 20
-39.5065
 30
0.0
 10
-39.3993
 20
-39.5065
 30
0.0
 10
-39.3993
 20
-39.5065
 30
0.0
 10
-39.3993
 20
-40.3127
 30
0.0
 10
-39.3993
 20
-40.3127
 30
0.0
 10
-39.3993
 20
-40.3127
 30
0.0
 10
-39.3993
 20
-40.3127
 30
0.0
 10
-38.8565
 20
-40.4218
 30
0.0
 10
-38.8565
 20
-40.4218
 30
0.0
 10
-38.8565
 20
-40.4218
 30
0.0
 10
-38.9412
 20
-40.3005
 30
0.0
 10
-38.9835
 20
-40.173
 30
0.0
 10
-38.9835
 20
-40.0399
 30
0.0
 10
-38.9835
 20
-40.0399
 30
0.0
 10
-38.9835
 20
-39.8635
 30
0.0
 10
-38.9224
 20
-39.7149
 30
0.0
 10
-38.8001
 20
-39.5935
 30
0.0
 10
-38.8001
 20
-39.5935
 30
0.0
 10
-38.6778
 20
-39.4722
 30
0.0
 10
-38.5207
 20
-39.4115
 30
0.0
 10
-38.3288
 20
-39.4115
 30
0.0
 10
-38.3288
 20
-39.4115
 30
0.0
 10
-38.1458
 20
-39.4115
 30
0.0
 10
-37.9877
 20
-39.4651
 30
0.0
 10
-37.8546
 20
-39.5714
 30
0.0
 10
-37.8546
 20
-39.5714
 30
0.0
 10
-37.6914
 20
-39.7012
 30
0.0
 10
-37.6096
 20
-39.8781
 30
0.0
 10
-37.6096
 20
-40.102
 30
0.0
 10
-37.6096
 20
-40.102
 30
0.0
 10
-37.6096
 20
-40.2859
 30
0.0
 10
-37.6608
 20
-40.4359
 30
0.0
 10
-37.7638
 20
-40.5521
 30
0.0
 10
-37.7638
 20
-40.5521
 30
0.0
 10
-37.8669
 20
-40.6683
 30
0.0
 10
-38.0033
 20
-40.7346
 30
0.0
 10
-38.1731
 20
-40.7511
 30
0.0
  0
SPLINE
  5
71
330
1F
100
AcDbEntity
  8
DATUMS
 62
   250
100
AcDbSpline
210
0.0
220
0.0
230
1.0
 70
    11
 71
     3
 72
    20
 73
    16
 74
     0
 42
0.0000000001
 43
0.0000000001
 40
0.0
 40
0.0
 40
0.0
 40
0.0
 40
0.2
 40
0.2
 40
0.2
 40
0.2
 40
0.4
 40
0.4
 40
0.4
 40
0.4
 40
0.6
 40
0.6
 40
0.6
 40
0.6
 40
1.0
 40
1.0
 40
1.0
 40
1.0
 10
-37.1045
 20
-17.7331
 30
0.0
 10
-37.1045
 20
-17.7331
 30
0.0
 10
-37.5425
 20
-20.7331
 30
0.0
 10
-37.5425
 20
-20.7331
 30
0.0
 10
-37.5425
 20
-20.7331
 30
0.0
 10
-37.5425
 20
-20.7331
 30
0.0
 10
-36.5756
 20
-20.7331
 30
0.0
 10
-36.5756
 20
-20.7331
 30
0.0
 10
-36.5756
 20
-20.7331
 30
0.0
 10
-36.5756
 20
-20.7331
 30
0.0
 10
-37.1032
 20
-17.7331
 30
0.0
 10
-37.1032
 20
-17.7331
 30
0.0
 10
-37.1032
 20
-17.7331
 30
0.0
 10
-37.1032
 20
-17.7331
 30
0.0
 10
-37.1045
 20
-17.7331
 30
0.0
 10
-37.1045
 20
-17.7331
 30
0.0
  0
SPLINE
  5
72
330
1F
100
AcDbEntity
  8
DATUMS
 62
   250
100
AcDbSpline
210
0.0
220
0.0
230
1.0
 70
    11
 71
     3
 72
    20
 73
    16
 74
     0
 42
0.0000000001
 43
0.0000000001
 40
0.0
 40
0.0
 40
0.0
 40
0.0
 40
0.2
 40
0.2
 40
0.2
 40
0.2
 40
0.4
 40
0.4
 40
0.4
 40
0.4
 40
0.6
 40
0.6
 40
0.6
 40
0.6
 40
1.0
 40
1.0
 40
1.0
 40
1.0
 10
-37.0934
 20
-42.8294
 30
0.0
 10
-37.0934
 20
-42.8294
 30
0.0
 10
-37.5314
 20
-45.8294
 30
0.0
 10
-37.5314
 20
-45.8294
 30
0.0
 10
-37.5314
 20
-45.8294
 30
0.0
 10
-37.5314
 20
-45.8294
 30
0.0
 10
-36.5645
 20
-45.8294
 30
0.0
 10
-36.5645
 20
-45.8294
 30
0.0
 10
-36.5645
 20
-45.8294
 30
0.0
 10
-36.5645
 20
-45.8294
 30
0.0
 10
-37.0921
 20
-42.8294
 30
0.0
 10
-37.0921
 20
-42.8294
 30
0.0
 10
-37.0921
 20
-42.8294
 30
0.0
 10
-37.0921
 20
-42.8294
 30
0.0
 10
-37.0934
 20
-42.8294
 30
0.0
 10
-37.0934
 20
-42.8294
 30
0.0
  0
SPLINE
  5
73
330
1F
100
AcDbEntity
  8
DATUMS
 62
   250
100
AcDbSpline
210
0.0
220
0.0
230
1.0
 70
    11
 71
     3
 72
    20
 73
    16
 74
     0
 42
0.0000000001
 43
0.0000000001
 40
0.0
 40
0.0
 40
0.0
 40
0.0
 40
0.2
 40
0.2
 40
0.2
 40
0.2
 40
0.4
 40
0.4
 40
0.4
 40
0.4
 40
0.6
 40
0.6
 40
0.6
 40
0.6
 40
1.0
 40
1.0
 40
1.0
 40
1.0
 10
-37.0744
 20
-39.0736
 30
0.0
 10
-37.0744
 20
-39.0736
 30
0.0
 10
-36.6364
 20
-36.0735
 30
0.0
 10
-36.6364
 20
-36.0735
 30
0.0
 10
-36.6364
 20
-36.0735
 30
0.0
 10
-36.6364
 20
-36.0735
 30
0.0
 10
-37.6033
 20
-36.0735
 30
0.0
 10
-37.6033
 20
-36.0735
 30
0.0
 10
-37.6033
 20
-36.0735
 30
0.0
 10
-37.6033
 20
-36.0735
 30
0.0
 10
-37.0757
 20
-39.0736
 30
0.0
 10
-37.0757
 20
-39.0736
 30
0.0
 10
-37.0757
 20
-39.0736
 30
0.0
 10
-37.0757
 20
-39.0736
 30
0.0
 10
-37.0744
 20
-39.0736
 30
0.0
 10
-37.0744
 20
-39.0736
 30
0.0
  0
SPLINE
  5
74
330
1F
100
AcDbEntity
  8
DATUMS
 62
   250
100
AcDbSpline
210
0.0
220
0.0
230
1.0
 70
    24
 71
     3
 72
     8
 73
     4
 74
     0
 42
0.0000000001
 43
0.0000000001
 40
0.0
 40
0.0
 40
0.0
 40
0.0
 40
1.0
 40
1.0
 40
1.0
 40
1.0
 10
-37.0906
 20
-46.9574
 30
0.0
 10
-37.0906
 20
-46.9574
 30
0.0
 10
-37.0906
 20
-18.1387
 30
0.0
 10
-37.0906
 20
-18.1387
 30
0.0
  0
SPLINE
  5
75
330
1F
100
AcDbEntity
  8
DATUMS
  6
NEW_LINE11
 62
   250
100
AcDbSpline
210
0.0
220
0.0
230
1.0
 70
    24
 71
     3
 72
     8
 73
     4
 74
     0
 42
0.0000000001
 43
0.0000000001
 40
0.0
 40
0.0
 40
0.0
 40
0.0
 40
1.0
 40
1.0
 40
1.0
 40
1.0
 10
-37.6047
 20
-17.6606
 30
0.0
 10
-37.6047
 20
-17.6606
 30
0.0
 10
-30.485
 20
-17.6606
 30
0.0
 10
-30.485
 20
-17.6606
 30
0.0
  0
SPLINE
  5
77
330
1F
100
AcDbEntity
  8
DATUMS
  6
NEW_LINE12
 62
   250
100
AcDbSpline
210
0.0
220
0.0
230
1.0
 70
    24
 71
     3
 72
     8
 73
     4
 74
     0
 42
0.0000000001
 43
0.0000000001
 40
0.0
 40
0.0
 40
0.0
 40
0.0
 40
1.0
 40
1.0
 40
1.0
 40
1.0
 10
-37.5772
 20
-39.0766
 30
0.0
 10
-37.5772
 20
-39.0766
 30
0.0
 10
-33.3505
 20
-39.0766
 30
0.0
 10
-33.3505
 20
-39.0766
 30
0.0
  0
SPLINE
  5
79
330
1F
100
AcDbEntity
  8
DATUMS
  6
NEW_LINE13
 62
   250
100
AcDbSpline
210
0.0
220
0.0
230
1.0
 70
    24
 71
     3
 72
     8
 73
     4
 74
     0
 42
0.0000000001
 43
0.0000000001
 40
0.0
 40
0.0
 40
0.0
 40
0.0
 40
1.0
 40
1.0
 40
1.0
 40
1.0
 10
-37.6572
 20
-42.836
 30
0.0
 10
-37.6572
 20
-42.836
 30
0.0
 10
-33.3064
 20
-42.836
 30
0.0
 10
-33.3064
 20
-42.836
 30
0.0
  0
SPLINE
  5
7B
330
1F
100
AcDbEntity
  8
DATUMS
 62
   250
100
AcDbSpline
210
0.0
220
0.0
230
1.0
 70
    11
 71
     3
 72
    40
 73
    36
 74
     0
 42
0.0000000001
 43
0.0000000001
 40
0.0
 40
0.0
 40
0.0
 40
0.0
 40
0.1
 40
0.1
 40
0.1
 40
0.1
 40
0.2
 40
0.2
 40
0.2
 40
0.2
 40
0.3
 40
0.3
 40
0.3
 40
0.3
 40
0.4
 40
0.4
 40
0.4
 40
0.4
 40
0.5
 40
0.5
 40
0.5
 40
0.5
 40
0.6
 40
0.6
 40
0.6
 40
0.6
 40
0.7
 40
0.7
 40
0.7
 40
0.7
 40
0.8
 40
0.8
 40
0.8
 40
0.8
 40
1.0
 40
1.0
 40
1.0
 40
1.0
 10
10.4443
 20
14.9777
 30
0.0
 10
10.4443
 20
14.9777
 30
0.0
 10
10.4443
 20
14.7298
 30
0.0
 10
10.4443
 20
14.7298
 30
0.0
 10
10.4443
 20
14.7298
 30
0.0
 10
10.4443
 20
14.7298
 30
0.0
 10
8.8639
 20
14.7298
 30
0.0
 10
8.8639
 20
14.7298
 30
0.0
 10
8.8639
 20
14.7298
 30
0.0
 10
8.9208
 20
14.67
 30
0.0
 10
8.9777
 20
14.592
 30
0.0
 10
9.0346
 20
14.4951
 30
0.0
 10
9.0346
 20
14.4951
 30
0.0
 10
9.0915
 20
14.3977
 30
0.0
 10
9.1343
 20
14.3107
 30
0.0
 10
9.1626
 20
14.2335
 30
0.0
 10
9.1626
 20
14.2335
 30
0.0
 10
9.1626
 20
14.2335
 30
0.0
 10
8.9231
 20
14.2335
 30
0.0
 10
8.9231
 20
14.2335
 30
0.0
 10
8.9231
 20
14.2335
 30
0.0
 10
8.8578
 20
14.3723
 30
0.0
 10
8.7787
 20
14.4937
 30
0.0
 10
8.6861
 20
14.5976
 30
0.0
 10
8.6861
 20
14.5976
 30
0.0
 10
8.5929
 20
14.7011
 30
0.0
 10
8.5031
 20
14.7749
 30
0.0
 10
8.4156
 20
14.8182
 30
0.0
 10
8.4156
 20
14.8182
 30
0.0
 10
8.4156
 20
14.8182
 30
0.0
 10
8.4156
 20
14.9777
 30
0.0
 10
8.4156
 20
14.9777
 30
0.0
 10
8.4156
 20
14.9777
 30
0.0
 10
8.4156
 20
14.9777
 30
0.0
 10
10.4443
 20
14.9777
 30
0.0
 10
10.4443
 20
14.9777
 30
0.0
  0
SPLINE
  5
7C
330
1F
100
AcDbEntity
  8
DATUMS
 62
   250
100
AcDbSpline
210
0.0
220
0.0
230
1.0
 70
    11
 71
     3
 72
    48
 73
    44
 74
     0
 42
0.0000000001
 43
0.0000000001
 40
0.0
 40
0.0
 40
0.0
 40
0.0
 40
0.0833333333333333
 40
0.0833333333333333
 40
0.0833333333333333
 40
0.0833333333333333
 40
0.1666666666666667
 40
0.1666666666666667
 40
0.1666666666666667
 40
0.1666666666666667
 40
0.25
 40
0.25
 40
0.25
 40
0.25
 40
0.3333333333333333
 40
0.3333333333333333
 40
0.3333333333333333
 40
0.3333333333333333
 40
0.4166666666666667
 40
0.4166666666666667
 40
0.4166666666666667
 40
0.4166666666666667
 40
0.5
 40
0.5
 40
0.5
 40
0.5
 40
0.5833333333333334
 40
0.5833333333333334
 40
0.5833333333333334
 40
0.5833333333333334
 40
0.6666666666666666
 40
0.6666666666666666
 40
0.6666666666666666
 40
0.6666666666666666
 40
0.75
 40
0.75
 40
0.75
 40
0.75
 40
0.8333333333333334
 40
0.8333333333333334
 40
0.8333333333333334
 40
0.8333333333333334
 40
1.0
 40
1.0
 40
1.0
 40
1.0
 10
10.4443
 20
16.408
 30
0.0
 10
10.4443
 20
16.408
 30
0.0
 10
9.9608
 20
16.408
 30
0.0
 10
9.9608
 20
16.408
 30
0.0
 10
9.9608
 20
16.408
 30
0.0
 10
9.9608
 20
16.408
 30
0.0
 10
9.9608
 20
15.5317
 30
0.0
 10
9.9608
 20
15.5317
 30
0.0
 10
9.9608
 20
15.5317
 30
0.0
 10
9.9608
 20
15.5317
 30
0.0
 10
9.7331
 20
15.5317
 30
0.0
 10
9.7331
 20
15.5317
 30
0.0
 10
9.7331
 20
15.5317
 30
0.0
 10
9.7331
 20
15.5317
 30
0.0
 10
8.4241
 20
16.4537
 30
0.0
 10
8.4241
 20
16.4537
 30
0.0
 10
8.4241
 20
16.4537
 30
0.0
 10
8.4241
 20
16.4537
 30
0.0
 10
8.4241
 20
16.6564
 30
0.0
 10
8.4241
 20
16.6564
 30
0.0
 10
8.4241
 20
16.6564
 30
0.0
 10
8.4241
 20
16.6564
 30
0.0
 10
9.7331
 20
16.6564
 30
0.0
 10
9.7331
 20
16.6564
 30
0.0
 10
9.7331
 20
16.6564
 30
0.0
 10
9.7331
 20
16.6564
 30
0.0
 10
9.7331
 20
16.9292
 30
0.0
 10
9.7331
 20
16.9292
 30
0.0
 10
9.7331
 20
16.9292
 30
0.0
 10
9.7331
 20
16.9292
 30
0.0
 10
9.9608
 20
16.9292
 30
0.0
 10
9.9608
 20
16.9292
 30
0.0
 10
9.9608
 20
16.9292
 30
0.0
 10
9.9608
 20
16.9292
 30
0.0
 10
9.9608
 20
16.6564
 30
0.0
 10
9.9608
 20
16.6564
 30
0.0
 10
9.9608
 20
16.6564
 30
0.0
 10
9.9608
 20
16.6564
 30
0.0
 10
10.4443
 20
16.6564
 30
0.0
 10
10.4443
 20
16.6564
 30
0.0
 10
10.4443
 20
16.6564
 30
0.0
 10
10.4443
 20
16.6564
 30
0.0
 10
10.4443
 20
16.408
 30
0.0
 10
10.4443
 20
16.408
 30
0.0
  0
SPLINE
  5
7D
330
1F
100
AcDbEntity
  8
DATUMS
 62
   250
100
AcDbSpline
210
0.0
220
0.0
230
1.0
 70
    11
 71
     3
 72
    16
 73
    12
 74
     0
 42
0.0000000001
 43
0.0000000001
 40
0.0
 40
0.0
 40
0.0
 40
0.0
 40
0.25
 40
0.25
 40
0.25
 40
0.25
 40
0.5
 40
0.5
 40
0.5
 40
0.5
 40
1.0
 40
1.0
 40
1.0
 40
1.0
 10
9.7331
 20
16.408
 30
0.0
 10
9.7331
 20
16.408
 30
0.0
 10
8.8225
 20
16.408
 30
0.0
 10
8.8225
 20
16.408
 30
0.0
 10
8.8225
 20
16.408
 30
0.0
 10
8.8225
 20
16.408
 30
0.0
 10
9.7331
 20
15.7759
 30
0.0
 10
9.7331
 20
15.7759
 30
0.0
 10
9.7331
 20
15.7759
 30
0.0
 10
9.7331
 20
15.7759
 30
0.0
 10
9.7331
 20
16.408
 30
0.0
 10
9.7331
 20
16.408
 30
0.0
  0
SPLINE
  5
7E
330
1F
100
AcDbEntity
  8
DATUMS
 62
   250
100
AcDbSpline
210
0.0
220
0.0
230
1.0
 70
    11
 71
     3
 72
    52
 73
    48
 74
     0
 42
0.0000000001
 43
0.0000000001
 40
0.0
 40
0.0
 40
0.0
 40
0.0
 40
0.0769230769230769
 40
0.0769230769230769
 40
0.0769230769230769
 40
0.0769230769230769
 40
0.1538461538461539
 40
0.1538461538461539
 40
0.1538461538461539
 40
0.1538461538461539
 40
0.2307692307692308
 40
0.2307692307692308
 40
0.2307692307692308
 40
0.2307692307692308
 40
0.3076923076923077
 40
0.3076923076923077
 40
0.3076923076923077
 40
0.3076923076923077
 40
0.3846153846153846
 40
0.3846153846153846
 40
0.3846153846153846
 40
0.3846153846153846
 40
0.4615384615384616
 40
0.4615384615384616
 40
0.4615384615384616
 40
0.4615384615384616
 40
0.5384615384615384
 40
0.5384615384615384
 40
0.5384615384615384
 40
0.5384615384615384
 40
0.6153846153846154
 40
0.6153846153846154
 40
0.6153846153846154
 40
0.6153846153846154
 40
0.6923076923076923
 40
0.6923076923076923
 40
0.6923076923076923
 40
0.6923076923076923
 40
0.7692307692307693
 40
0.7692307692307693
 40
0.7692307692307693
 40
0.7692307692307693
 40
0.8461538461538461
 40
0.8461538461538461
 40
0.8461538461538461
 40
0.8461538461538461
 40
1.0
 40
1.0
 40
1.0
 40
1.0
 10
9.4481
 20
17.1827
 30
0.0
 10
9.2091
 20
17.1827
 30
0.0
 10
9.0167
 20
17.2072
 30
0.0
 10
8.8714
 20
17.2566
 30
0.0
 10
8.8714
 20
17.2566
 30
0.0
 10
8.7256
 20
17.3055
 30
0.0
 10
8.6132
 20
17.3789
 30
0.0
 10
8.5341
 20
17.4758
 30
0.0
 10
8.5341
 20
17.4758
 30
0.0
 10
8.4551
 20
17.5727
 30
0.0
 10
8.4156
 20
17.6945
 30
0.0
 10
8.4156
 20
17.8412
 30
0.0
 10
8.4156
 20
17.8412
 30
0.0
 10
8.4156
 20
17.9499
 30
0.0
 10
8.4377
 20
18.0449
 30
0.0
 10
8.4815
 20
18.1267
 30
0.0
 10
8.4815
 20
18.1267
 30
0.0
 10
8.5247
 20
18.2086
 30
0.0
 10
8.5878
 20
18.2759
 30
0.0
 10
8.6701
 20
18.3295
 30
0.0
 10
8.6701
 20
18.3295
 30
0.0
 10
8.7524
 20
18.3826
 30
0.0
 10
8.8526
 20
18.4245
 30
0.0
 10
8.9706
 20
18.4546
 30
0.0
 10
8.9706
 20
18.4546
 30
0.0
 10
9.0887
 20
18.4852
 30
0.0
 10
9.2477
 20
18.5002
 30
0.0
 10
9.4481
 20
18.5002
 30
0.0
 10
9.4481
 20
18.5002
 30
0.0
 10
9.6851
 20
18.5002
 30
0.0
 10
9.8761
 20
18.4758
 30
0.0
 10
10.0219
 20
18.4273
 30
0.0
 10
10.0219
 20
18.4273
 30
0.0
 10
10.1677
 20
18.3784
 30
0.0
 10
10.2801
 20
18.3055
 30
0.0
 10
10.3596
 20
18.2086
 30
0.0
 10
10.3596
 20
18.2086
 30
0.0
 10
10.4391
 20
18.1117
 30
0.0
 10
10.4786
 20
17.9894
 30
0.0
 10
10.4786
 20
17.8412
 30
0.0
 10
10.4786
 20
17.8412
 30
0.0
 10
10.4786
 20
17.6465
 30
0.0
 10
10.409
 20
17.4936
 30
0.0
 10
10.2693
 20
17.3826
 30
0.0
 10
10.2693
 20
17.3826
 30
0.0
 10
10.1014
 20
17.2495
 30
0.0
 10
9.8272
 20
17.1827
 30
0.0
 10
9.4481
 20
17.1827
 30
0.0
  0
SPLINE
  5
7F
330
1F
100
AcDbEntity
  8
DATUMS
 62
   250
100
AcDbSpline
210
0.0
220
0.0
230
1.0
 70
    11
 71
     3
 72
    36
 73
    32
 74
     0
 42
0.0000000001
 43
0.0000000001
 40
0.0
 40
0.0
 40
0.0
 40
0.0
 40
0.1111111111111111
 40
0.1111111111111111
 40
0.1111111111111111
 40
0.1111111111111111
 40
0.2222222222222222
 40
0.2222222222222222
 40
0.2222222222222222
 40
0.2222222222222222
 40
0.3333333333333333
 40
0.3333333333333333
 40
0.3333333333333333
 40
0.3333333333333333
 40
0.4444444444444444
 40
0.4444444444444444
 40
0.4444444444444444
 40
0.4444444444444444
 40
0.5555555555555556
 40
0.5555555555555556
 40
0.5555555555555556
 40
0.5555555555555556
 40
0.6666666666666666
 40
0.6666666666666666
 40
0.6666666666666666
 40
0.6666666666666666
 40
0.7777777777777778
 40
0.7777777777777778
 40
0.7777777777777778
 40
0.7777777777777778
 40
1.0
 40
1.0
 40
1.0
 40
1.0
 10
9.4481
 20
17.4377
 30
0.0
 10
9.7797
 20
17.4377
 30
0.0
 10
10.0003
 20
17.4767
 30
0.0
 10
10.1103
 20
17.5543
 30
0.0
 10
10.1103
 20
17.5543
 30
0.0
 10
10.2199
 20
17.6319
 30
0.0
 10
10.275
 20
17.7274
 30
0.0
 10
10.275
 20
17.8412
 30
0.0
 10
10.275
 20
17.8412
 30
0.0
 10
10.275
 20
17.9555
 30
0.0
 10
10.2195
 20
18.051
 30
0.0
 10
10.1094
 20
18.1286
 30
0.0
 10
10.1094
 20
18.1286
 30
0.0
 10
9.9993
 20
18.2062
 30
0.0
 10
9.7787
 20
18.2453
 30
0.0
 10
9.4481
 20
18.2453
 30
0.0
 10
9.4481
 20
18.2453
 30
0.0
 10
9.1155
 20
18.2453
 30
0.0
 10
8.8944
 20
18.2062
 30
0.0
 10
8.7853
 20
18.1286
 30
0.0
 10
8.7853
 20
18.1286
 30
0.0
 10
8.6757
 20
18.051
 30
0.0
 10
8.6212
 20
17.9546
 30
0.0
 10
8.6212
 20
17.8389
 30
0.0
 10
8.6212
 20
17.8389
 30
0.0
 10
8.6212
 20
17.7246
 30
0.0
 10
8.6696
 20
17.6338
 30
0.0
 10
8.766
 20
17.5656
 30
0.0
 10
8.766
 20
17.5656
 30
0.0
 10
8.8888
 20
17.4805
 30
0.0
 10
9.1165
 20
17.4377
 30
0.0
 10
9.4481
 20
17.4377
 30
0.0
  0
SPLINE
  5
80
330
1F
100
AcDbEntity
  8
DATUMS
 62
   250
100
AcDbSpline
210
0.0
220
0.0
230
1.0
 70
    11
 71
     3
 72
    20
 73
    16
 74
     0
 42
0.0000000001
 43
0.0000000001
 40
0.0
 40
0.0
 40
0.0
 40
0.0
 40
0.2
 40
0.2
 40
0.2
 40
0.2
 40
0.4
 40
0.4
 40
0.4
 40
0.4
 40
0.6
 40
0.6
 40
0.6
 40
0.6
 40
1.0
 40
1.0
 40
1.0
 40
1.0
 10
10.8954
 20
33.5768
 30
0.0
 10
10.8954
 20
33.5768
 30
0.0
 10
10.4574
 20
30.5768
 30
0.0
 10
10.4574
 20
30.5768
 30
0.0
 10
10.4574
 20
30.5768
 30
0.0
 10
10.4574
 20
30.5768
 30
0.0
 10
11.4243
 20
30.5768
 30
0.0
 10
11.4243
 20
30.5768
 30
0.0
 10
11.4243
 20
30.5768
 30
0.0
 10
11.4243
 20
30.5768
 30
0.0
 10
10.8967
 20
33.5768
 30
0.0
 10
10.8967
 20
33.5768
 30
0.0
 10
10.8967
 20
33.5768
 30
0.0
 10
10.8967
 20
33.5768
 30
0.0
 10
10.8954
 20
33.5768
 30
0.0
 10
10.8954
 20
33.5768
 30
0.0
  0
SPLINE
  5
81
330
1F
100
AcDbEntity
  8
DATUMS
 62
   250
100
AcDbSpline
210
0.0
220
0.0
230
1.0
 70
    11
 71
     3
 72
    20
 73
    16
 74
     0
 42
0.0000000001
 43
0.0000000001
 40
0.0
 40
0.0
 40
0.0
 40
0.0
 40
0.2
 40
0.2
 40
0.2
 40
0.2
 40
0.4
 40
0.4
 40
0.4
 40
0.4
 40
0.6
 40
0.6
 40
0.6
 40
0.6
 40
1.0
 40
1.0
 40
1.0
 40
1.0
 10
10.9422
 20
-1.5499
 30
0.0
 10
10.9422
 20
-1.5499
 30
0.0
 10
11.3802
 20
1.4502
 30
0.0
 10
11.3802
 20
1.4502
 30
0.0
 10
11.3802
 20
1.4502
 30
0.0
 10
11.3802
 20
1.4502
 30
0.0
 10
10.4133
 20
1.4502
 30
0.0
 10
10.4133
 20
1.4502
 30
0.0
 10
10.4133
 20
1.4502
 30
0.0
 10
10.4133
 20
1.4502
 30
0.0
 10
10.9409
 20
-1.5499
 30
0.0
 10
10.9409
 20
-1.5499
 30
0.0
 10
10.9409
 20
-1.5499
 30
0.0
 10
10.9409
 20
-1.5499
 30
0.0
 10
10.9422
 20
-1.5499
 30
0.0
 10
10.9422
 20
-1.5499
 30
0.0
  0
SPLINE
  5
82
330
1F
100
AcDbEntity
  8
DATUMS
 62
   250
100
AcDbSpline
210
0.0
220
0.0
230
1.0
 70
    24
 71
     3
 72
     8
 73
     4
 74
     0
 42
0.0000000001
 43
0.0000000001
 40
0.0
 40
0.0
 40
0.0
 40
0.0
 40
1.0
 40
1.0
 40
1.0
 40
1.0
 10
10.9094
 20
-1.3787
 30
0.0
 10
10.9094
 20
-1.3787
 30
0.0
 10
10.9094
 20
33.3261
 30
0.0
 10
10.9094
 20
33.3261
 30
0.0
  0
SPLINE
  5
83
330
1F
100
AcDbEntity
  8
DATUMS
  6
NEW_LINE14
 62
   250
100
AcDbSpline
210
0.0
220
0.0
230
1.0
 70
    24
 71
     3
 72
     8
 73
     4
 74
     0
 42
0.0000000001
 43
0.0000000001
 40
0.0
 40
0.0
 40
0.0
 40
0.0
 40
1.0
 40
1.0
 40
1.0
 40
1.0
 10
10.4537
 20
33.6605
 30
0.0
 10
10.4537
 20
33.6605
 30
0.0
 10
14.1321
 20
33.6605
 30
0.0
 10
14.1321
 20
33.6605
 30
0.0
  0
SPLINE
  5
85
330
1F
100
AcDbEntity
  8
DATUMS
  6
NEW_LINE15
 62
   250
100
AcDbSpline
210
0.0
220
0.0
230
1.0
 70
    24
 71
     3
 72
     8
 73
     4
 74
     0
 42
0.0000000001
 43
0.0000000001
 40
0.0
 40
0.0
 40
0.0
 40
0.0
 40
1.0
 40
1.0
 40
1.0
 40
1.0
 10
10.494
 20
-1.6577
 30
0.0
 10
10.494
 20
-1.6577
 30
0.0
 10
14.2148
 20
-1.6577
 30
0.0
 10
14.2148
 20
-1.6577
 30
0.0
  0
SPLINE
  5
87
330
1F
100
AcDbEntity
  8
DATUMS
 62
   250
100
AcDbSpline
210
0.0
220
0.0
230
1.0
 70
    11
 71
     3
 72
    92
 73
    88
 74
     0
 42
0.0000000001
 43
0.0000000001
 40
0.0
 40
0.0
 40
0.0
 40
0.0
 40
0.0434782608695652
 40
0.0434782608695652
 40
0.0434782608695652
 40
0.0434782608695652
 40
0.0869565217391304
 40
0.0869565217391304
 40
0.0869565217391304
 40
0.0869565217391304
 40
0.1304347826086956
 40
0.1304347826086956
 40
0.1304347826086956
 40
0.1304347826086956
 40
0.1739130434782609
 40
0.1739130434782609
 40
0.1739130434782609
 40
0.1739130434782609
 40
0.2173913043478261
 40
0.2173913043478261
 40
0.2173913043478261
 40
0.2173913043478261
 40
0.2608695652173913
 40
0.2608695652173913
 40
0.2608695652173913
 40
0.2608695652173913
 40
0.3043478260869565
 40
0.3043478260869565
 40
0.3043478260869565
 40
0.3043478260869565
 40
0.3478260869565217
 40
0.3478260869565217
 40
0.3478260869565217
 40
0.3478260869565217
 40
0.391304347826087
 40
0.391304347826087
 40
0.391304347826087
 40
0.391304347826087
 40
0.4347826086956522
 40
0.4347826086956522
 40
0.4347826086956522
 40
0.4347826086956522
 40
0.4782608695652174
 40
0.4782608695652174
 40
0.4782608695652174
 40
0.4782608695652174
 40
0.5217391304347826
 40
0.5217391304347826
 40
0.5217391304347826
 40
0.5217391304347826
 40
0.5652173913043478
 40
0.5652173913043478
 40
0.5652173913043478
 40
0.5652173913043478
 40
0.6086956521739131
 40
0.6086956521739131
 40
0.6086956521739131
 40
0.6086956521739131
 40
0.6521739130434783
 40
0.6521739130434783
 40
0.6521739130434783
 40
0.6521739130434783
 40
0.6956521739130435
 40
0.6956521739130435
 40
0.6956521739130435
 40
0.6956521739130435
 40
0.7391304347826086
 40
0.7391304347826086
 40
0.7391304347826086
 40
0.7391304347826086
 40
0.782608695652174
 40
0.782608695652174
 40
0.782608695652174
 40
0.782608695652174
 40
0.8260869565217391
 40
0.8260869565217391
 40
0.8260869565217391
 40
0.8260869565217391
 40
0.8695652173913043
 40
0.8695652173913043
 40
0.8695652173913043
 40
0.8695652173913043
 40
0.9130434782608695
 40
0.9130434782608695
 40
0.9130434782608695
 40
0.9130434782608695
 40
1.0
 40
1.0
 40
1.0
 40
1.0
 10
-20.0274
 20
-21.1082
 30
0.0
 10
-20.0274
 20
-21.1082
 30
0.0
 10
-19.7889
 20
-21.1082
 30
0.0
 10
-19.7889
 20
-21.1082
 30
0.0
 10
-19.7889
 20
-21.1082
 30
0.0
 10
-19.7889
 20
-21.1082
 30
0.0
 10
-19.7889
 20
-22.4436
 30
0.0
 10
-19.7889
 20
-22.4436
 30
0.0
 10
-19.7889
 20
-22.4436
 30
0.0
 10
-19.8486
 20
-22.4455
 30
0.0
 10
-19.906
 20
-22.4361
 30
0.0
 10
-19.9611
 20
-22.4149
 30
0.0
 10
-19.9611
 20
-22.4149
 30
0.0
 10
-20.0523
 20
-22.381
 30
0.0
 10
-20.1417
 20
-22.3265
 30
0.0
 10
-20.2301
 20
-22.2517
 30
0.0
 10
-20.2301
 20
-22.2517
 30
0.0
 10
-20.3181
 20
-22.1764
 30
0.0
 10
-20.4201
 20
-22.0682
 30
0.0
 10
-20.5358
 20
-21.9271
 30
0.0
 10
-20.5358
 20
-21.9271
 30
0.0
 10
-20.716
 20
-21.7075
 30
0.0
 10
-20.8585
 20
-21.5588
 30
0.0
 10
-20.9639
 20
-21.4817
 30
0.0
 10
-20.9639
 20
-21.4817
 30
0.0
 10
-21.0688
 20
-21.4046
 30
0.0
 10
-21.1685
 20
-21.366
 30
0.0
 10
-21.2621
 20
-21.366
 30
0.0
 10
-21.2621
 20
-21.366
 30
0.0
 10
-21.3604
 20
-21.366
 30
0.0
 10
-21.4432
 20
-21.4013
 30
0.0
 10
-21.5109
 20
-21.4713
 30
0.0
 10
-21.5109
 20
-21.4713
 30
0.0
 10
-21.5782
 20
-21.5419
 30
0.0
 10
-21.612
 20
-21.6336
 30
0.0
 10
-21.612
 20
-21.7465
 30
0.0
 10
-21.612
 20
-21.7465
 30
0.0
 10
-21.612
 20
-21.866
 30
0.0
 10
-21.5763
 20
-21.9615
 30
0.0
 10
-21.5043
 20
-22.033
 30
0.0
 10
-21.5043
 20
-22.033
 30
0.0
 10
-21.4328
 20
-22.1049
 30
0.0
 10
-21.3336
 20
-22.1411
 30
0.0
 10
-21.2071
 20
-22.1421
 30
0.0
 10
-21.2071
 20
-22.1421
 30
0.0
 10
-21.2071
 20
-22.1421
 30
0.0
 10
-21.2329
 20
-22.397
 30
0.0
 10
-21.2329
 20
-22.397
 30
0.0
 10
-21.2329
 20
-22.397
 30
0.0
 10
-21.4234
 20
-22.3796
 30
0.0
 10
-21.5683
 20
-22.3138
 30
0.0
 10
-21.668
 20
-22.1999
 30
0.0
 10
-21.668
 20
-22.1999
 30
0.0
 10
-21.7677
 20
-22.0861
 30
0.0
 10
-21.8176
 20
-21.9328
 30
0.0
 10
-21.8176
 20
-21.7409
 30
0.0
 10
-21.8176
 20
-21.7409
 30
0.0
 10
-21.8176
 20
-21.5471
 30
0.0
 10
-21.7635
 20
-21.3937
 30
0.0
 10
-21.6563
 20
-21.2808
 30
0.0
 10
-21.6563
 20
-21.2808
 30
0.0
 10
-21.5485
 20
-21.1675
 30
0.0
 10
-21.4154
 20
-21.111
 30
0.0
 10
-21.2564
 20
-21.111
 30
0.0
 10
-21.2564
 20
-21.111
 30
0.0
 10
-21.1755
 20
-21.111
 30
0.0
 10
-21.096
 20
-21.1275
 30
0.0
 10
-21.018
 20
-21.1609
 30
0.0
 10
-21.018
 20
-21.1609
 30
0.0
 10
-20.9399
 20
-21.1938
 30
0.0
 10
-20.8576
 20
-21.2489
 30
0.0
 10
-20.7715
 20
-21.3255
 30
0.0
 10
-20.7715
 20
-21.3255
 30
0.0
 10
-20.6849
 20
-21.4022
 30
0.0
 10
-20.5664
 20
-21.5297
 30
0.0
 10
-20.4159
 20
-21.7079
 30
0.0
 10
-20.4159
 20
-21.7079
 30
0.0
 10
-20.2908
 20
-21.8566
 30
0.0
 10
-20.2061
 20
-21.9521
 30
0.0
 10
-20.1614
 20
-21.9944
 30
0.0
 10
-20.1614
 20
-21.9944
 30
0.0
 10
-20.1172
 20
-22.0367
 30
0.0
 10
-20.0725
 20
-22.0715
 30
0.0
 10
-20.0274
 20
-22.0993
 30
0.0
 10
-20.0274
 20
-22.0993
 30
0.0
 10
-20.0274
 20
-22.0993
 30
0.0
 10
-20.0274
 20
-21.1082
 30
0.0
 10
-20.0274
 20
-21.1082
 30
0.0
  0
SPLINE
  5
88
330
1F
100
AcDbEntity
  8
DATUMS
 62
   250
100
AcDbSpline
210
0.0
220
0.0
230
1.0
 70
    11
 71
     3
 72
    80
 73
    76
 74
     0
 42
0.0000000001
 43
0.0000000001
 40
0.0
 40
0.0
 40
0.0
 40
0.0
 40
0.05
 40
0.05
 40
0.05
 40
0.05
 40
0.1
 40
0.1
 40
0.1
 40
0.1
 40
0.15
 40
0.15
 40
0.15
 40
0.15
 40
0.2
 40
0.2
 40
0.2
 40
0.2
 40
0.25
 40
0.25
 40
0.25
 40
0.25
 40
0.3
 40
0.3
 40
0.3
 40
0.3
 40
0.35
 40
0.35
 40
0.35
 40
0.35
 40
0.4
 40
0.4
 40
0.4
 40
0.4
 40
0.45
 40
0.45
 40
0.45
 40
0.45
 40
0.5
 40
0.5
 40
0.5
 40
0.5
 40
0.55
 40
0.55
 40
0.55
 40
0.55
 40
0.6
 40
0.6
 40
0.6
 40
0.6
 40
0.65
 40
0.65
 40
0.65
 40
0.65
 40
0.7
 40
0.7
 40
0.7
 40
0.7
 40
0.75
 40
0.75
 40
0.75
 40
0.75
 40
0.8
 40
0.8
 40
0.8
 40
0.8
 40
0.85
 40
0.85
 40
0.85
 40
0.85
 40
0.9
 40
0.9
 40
0.9
 40
0.9
 40
1.0
 40
1.0
 40
1.0
 40
1.0
 10
-21.3143
 20
-19.5556
 30
0.0
 10
-21.3143
 20
-19.5556
 30
0.0
 10
-21.295
 20
-19.802
 30
0.0
 10
-21.295
 20
-19.802
 30
0.0
 10
-21.295
 20
-19.802
 30
0.0
 10
-21.3924
 20
-19.8241
 30
0.0
 10
-21.4634
 20
-19.8552
 30
0.0
 10
-21.5071
 20
-19.8956
 30
0.0
 10
-21.5071
 20
-19.8956
 30
0.0
 10
-21.5782
 20
-19.9629
 30
0.0
 10
-21.6135
 20
-20.0457
 30
0.0
 10
-21.6135
 20
-20.144
 30
0.0
 10
-21.6135
 20
-20.144
 30
0.0
 10
-21.6135
 20
-20.223
 30
0.0
 10
-21.5913
 20
-20.2921
 30
0.0
 10
-21.5471
 20
-20.3519
 30
0.0
 10
-21.5471
 20
-20.3519
 30
0.0
 10
-21.4902
 20
-20.43
 30
0.0
 10
-21.407
 20
-20.4916
 30
0.0
 10
-21.2978
 20
-20.5367
 30
0.0
 10
-21.2978
 20
-20.5367
 30
0.0
 10
-21.1887
 20
-20.5814
 30
0.0
 10
-21.033
 20
-20.6049
 30
0.0
 10
-20.8308
 20
-20.6068
 30
0.0
 10
-20.8308
 20
-20.6068
 30
0.0
 10
-20.9215
 20
-20.5471
 30
0.0
 10
-20.9893
 20
-20.4742
 30
0.0
 10
-21.0335
 20
-20.3876
 30
0.0
 10
-21.0335
 20
-20.3876
 30
0.0
 10
-21.0772
 20
-20.3016
 30
0.0
 10
-21.0993
 20
-20.2108
 30
0.0
 10
-21.0993
 20
-20.1162
 30
0.0
 10
-21.0993
 20
-20.1162
 30
0.0
 10
-21.0993
 20
-19.9507
 30
0.0
 10
-21.0387
 20
-19.81
 30
0.0
 10
-20.9168
 20
-19.6938
 30
0.0
 10
-20.9168
 20
-19.6938
 30
0.0
 10
-20.795
 20
-19.5777
 30
0.0
 10
-20.6379
 20
-19.5193
 30
0.0
 10
-20.4451
 20
-19.5193
 30
0.0
 10
-20.4451
 20
-19.5193
 30
0.0
 10
-20.3181
 20
-19.5193
 30
0.0
 10
-20.2005
 20
-19.5471
 30
0.0
 10
-20.0913
 20
-19.6017
 30
0.0
 10
-20.0913
 20
-19.6017
 30
0.0
 10
-19.9827
 20
-19.6562
 30
0.0
 10
-19.899
 20
-19.7315
 30
0.0
 10
-19.8411
 20
-19.827
 30
0.0
 10
-19.8411
 20
-19.827
 30
0.0
 10
-19.7833
 20
-19.9224
 30
0.0
 10
-19.7546
 20
-20.0306
 30
0.0
 10
-19.7546
 20
-20.152
 30
0.0
 10
-19.7546
 20
-20.152
 30
0.0
 10
-19.7546
 20
-20.3589
 30
0.0
 10
-19.8303
 20
-20.5273
 30
0.0
 10
-19.9827
 20
-20.6576
 30
0.0
 10
-19.9827
 20
-20.6576
 30
0.0
 10
-20.1346
 20
-20.7884
 30
0.0
 10
-20.3853
 20
-20.8533
 30
0.0
 10
-20.7343
 20
-20.8533
 30
0.0
 10
-20.7343
 20
-20.8533
 30
0.0
 10
-21.1247
 20
-20.8533
 30
0.0
 10
-21.4084
 20
-20.7813
 30
0.0
 10
-21.5857
 20
-20.6369
 30
0.0
 10
-21.5857
 20
-20.6369
 30
0.0
 10
-21.74
 20
-20.5113
 30
0.0
 10
-21.8176
 20
-20.342
 30
0.0
 10
-21.8176
 20
-20.1285
 30
0.0
 10
-21.8176
 20
-20.1285
 30
0.0
 10
-21.8176
 20
-19.9699
 30
0.0
 10
-21.7729
 20
-19.8397
 30
0.0
 10
-21.6835
 20
-19.7381
 30
0.0
 10
-21.6835
 20
-19.7381
 30
0.0
 10
-21.5946
 20
-19.6365
 30
0.0
 10
-21.4714
 20
-19.5758
 30
0.0
 10
-21.3143
 20
-19.5556
 30
0.0
  0
SPLINE
  5
89
330
1F
100
AcDbEntity
  8
DATUMS
 62
   250
100
AcDbSpline
210
0.0
220
0.0
230
1.0
 70
    11
 71
     3
 72
    40
 73
    36
 74
     0
 42
0.0000000001
 43
0.0000000001
 40
0.0
 40
0.0
 40
0.0
 40
0.0
 40
0.1
 40
0.1
 40
0.1
 40
0.1
 40
0.2
 40
0.2
 40
0.2
 40
0.2
 40
0.3
 40
0.3
 40
0.3
 40
0.3
 40
0.4
 40
0.4
 40
0.4
 40
0.4
 40
0.5
 40
0.5
 40
0.5
 40
0.5
 40
0.6
 40
0.6
 40
0.6
 40
0.6
 40
0.7
 40
0.7
 40
0.7
 40
0.7
 40
0.8
 40
0.8
 40
0.8
 40
0.8
 40
1.0
 40
1.0
 40
1.0
 40
1.0
 10
-20.4437
 20
-20.5683
 30
0.0
 10
-20.358
 20
-20.5683
 30
0.0
 10
-20.2762
 20
-20.5499
 30
0.0
 10
-20.1981
 20
-20.5137
 30
0.0
 10
-20.1981
 20
-20.5137
 30
0.0
 10
-20.12
 20
-20.4775
 30
0.0
 10
-20.0608
 20
-20.4267
 30
0.0
 10
-20.0199
 20
-20.3618
 30
0.0
 10
-20.0199
 20
-20.3618
 30
0.0
 10
-19.9789
 20
-20.2964
 30
0.0
 10
-19.9582
 20
-20.2277
 30
0.0
 10
-19.9582
 20
-20.1562
 30
0.0
 10
-19.9582
 20
-20.1562
 30
0.0
 10
-19.9582
 20
-20.0513
 30
0.0
 10
-20.0006
 20
-19.9615
 30
0.0
 10
-20.0852
 20
-19.8862
 30
0.0
 10
-20.0852
 20
-19.8862
 30
0.0
 10
-20.1699
 20
-19.811
 30
0.0
 10
-20.2847
 20
-19.7733
 30
0.0
 10
-20.4295
 20
-19.7733
 30
0.0
 10
-20.4295
 20
-19.7733
 30
0.0
 10
-20.5692
 20
-19.7733
 30
0.0
 10
-20.6793
 20
-19.8105
 30
0.0
 10
-20.7597
 20
-19.8848
 30
0.0
 10
-20.7597
 20
-19.8848
 30
0.0
 10
-20.8402
 20
-19.9591
 30
0.0
 10
-20.8802
 20
-20.0527
 30
0.0
 10
-20.8802
 20
-20.1656
 30
0.0
 10
-20.8802
 20
-20.1656
 30
0.0
 10
-20.8802
 20
-20.278
 30
0.0
 10
-20.8402
 20
-20.3731
 30
0.0
 10
-20.7597
 20
-20.4511
 30
0.0
 10
-20.7597
 20
-20.4511
 30
0.0
 10
-20.6793
 20
-20.5292
 30
0.0
 10
-20.5739
 20
-20.5683
 30
0.0
 10
-20.4437
 20
-20.5683
 30
0.0
  0
SPLINE
  5
8A
330
1F
100
AcDbEntity
  8
DATUMS
 62
   250
100
AcDbSpline
210
0.0
220
0.0
230
1.0
 70
    11
 71
     3
 72
    20
 73
    16
 74
     0
 42
0.0000000001
 43
0.0000000001
 40
0.0
 40
0.0
 40
0.0
 40
0.0
 40
0.2
 40
0.2
 40
0.2
 40
0.2
 40
0.4
 40
0.4
 40
0.4
 40
0.4
 40
0.6
 40
0.6
 40
0.6
 40
0.6
 40
1.0
 40
1.0
 40
1.0
 40
1.0
 10
-19.3268
 20
-24.2879
 30
0.0
 10
-19.3268
 20
-24.2879
 30
0.0
 10
-19.7648
 20
-27.2879
 30
0.0
 10
-19.7648
 20
-27.2879
 30
0.0
 10
-19.7648
 20
-27.2879
 30
0.0
 10
-19.7648
 20
-27.2879
 30
0.0
 10
-18.7979
 20
-27.2879
 30
0.0
 10
-18.7979
 20
-27.2879
 30
0.0
 10
-18.7979
 20
-27.2879
 30
0.0
 10
-18.7979
 20
-27.2879
 30
0.0
 10
-19.3255
 20
-24.2879
 30
0.0
 10
-19.3255
 20
-24.2879
 30
0.0
 10
-19.3255
 20
-24.2879
 30
0.0
 10
-19.3255
 20
-24.2879
 30
0.0
 10
-19.3268
 20
-24.2879
 30
0.0
 10
-19.3268
 20
-24.2879
 30
0.0
  0
SPLINE
  5
8B
330
1F
100
AcDbEntity
  8
DATUMS
 62
   250
100
AcDbSpline
210
0.0
220
0.0
230
1.0
 70
    11
 71
     3
 72
    20
 73
    16
 74
     0
 42
0.0000000001
 43
0.0000000001
 40
0.0
 40
0.0
 40
0.0
 40
0.0
 40
0.2
 40
0.2
 40
0.2
 40
0.2
 40
0.4
 40
0.4
 40
0.4
 40
0.4
 40
0.6
 40
0.6
 40
0.6
 40
0.6
 40
1.0
 40
1.0
 40
1.0
 40
1.0
 10
-19.3076
 20
-17.5777
 30
0.0
 10
-19.3076
 20
-17.5777
 30
0.0
 10
-18.8696
 20
-14.5776
 30
0.0
 10
-18.8696
 20
-14.5776
 30
0.0
 10
-18.8696
 20
-14.5776
 30
0.0
 10
-18.8696
 20
-14.5776
 30
0.0
 10
-19.8365
 20
-14.5776
 30
0.0
 10
-19.8365
 20
-14.5776
 30
0.0
 10
-19.8365
 20
-14.5776
 30
0.0
 10
-19.8365
 20
-14.5776
 30
0.0
 10
-19.3089
 20
-17.5777
 30
0.0
 10
-19.3089
 20
-17.5777
 30
0.0
 10
-19.3089
 20
-17.5777
 30
0.0
 10
-19.3089
 20
-17.5777
 30
0.0
 10
-19.3076
 20
-17.5777
 30
0.0
 10
-19.3076
 20
-17.5777
 30
0.0
  0
SPLINE
  5
8C
330
1F
100
AcDbEntity
  8
DATUMS
 62
   250
100
AcDbSpline
210
0.0
220
0.0
230
1.0
 70
    24
 71
     3
 72
     8
 73
     4
 74
     0
 42
0.0000000001
 43
0.0000000001
 40
0.0
 40
0.0
 40
0.0
 40
0.0
 40
1.0
 40
1.0
 40
1.0
 40
1.0
 10
-19.3239
 20
-28.4572
 30
0.0
 10
-19.3239
 20
-28.4572
 30
0.0
 10
-19.3239
 20
-13.8169
 30
0.0
 10
-19.3239
 20
-13.8169
 30
0.0
  0
SPLINE
  5
8D
330
1F
100
AcDbEntity
  8
DATUMS
 62
   250
100
AcDbSpline
210
0.0
220
0.0
230
1.0
 70
    11
 71
     3
 72
   120
 73
   116
 74
     0
 42
0.0000000001
 43
0.0000000001
 40
0.0
 40
0.0
 40
0.0
 40
0.0
 40
0.0333333333333333
 40
0.0333333333333333
 40
0.0333333333333333
 40
0.0333333333333333
 40
0.0666666666666667
 40
0.0666666666666667
 40
0.0666666666666667
 40
0.0666666666666667
 40
0.1
 40
0.1
 40
0.1
 40
0.1
 40
0.1333333333333333
 40
0.1333333333333333
 40
0.1333333333333333
 40
0.1333333333333333
 40
0.1666666666666667
 40
0.1666666666666667
 40
0.1666666666666667
 40
0.1666666666666667
 40
0.2
 40
0.2
 40
0.2
 40
0.2
 40
0.2333333333333333
 40
0.2333333333333333
 40
0.2333333333333333
 40
0.2333333333333333
 40
0.2666666666666667
 40
0.2666666666666667
 40
0.2666666666666667
 40
0.2666666666666667
 40
0.3
 40
0.3
 40
0.3
 40
0.3
 40
0.3333333333333333
 40
0.3333333333333333
 40
0.3333333333333333
 40
0.3333333333333333
 40
0.3666666666666666
 40
0.3666666666666666
 40
0.3666666666666666
 40
0.3666666666666666
 40
0.4
 40
0.4
 40
0.4
 40
0.4
 40
0.4333333333333333
 40
0.4333333333333333
 40
0.4333333333333333
 40
0.4333333333333333
 40
0.4666666666666667
 40
0.4666666666666667
 40
0.4666666666666667
 40
0.4666666666666667
 40
0.5
 40
0.5
 40
0.5
 40
0.5
 40
0.5333333333333333
 40
0.5333333333333333
 40
0.5333333333333333
 40
0.5333333333333333
 40
0.5666666666666667
 40
0.5666666666666667
 40
0.5666666666666667
 40
0.5666666666666667
 40
0.6
 40
0.6
 40
0.6
 40
0.6
 40
0.6333333333333333
 40
0.6333333333333333
 40
0.6333333333333333
 40
0.6333333333333333
 40
0.6666666666666666
 40
0.6666666666666666
 40
0.6666666666666666
 40
0.6666666666666666
 40
0.7
 40
0.7
 40
0.7
 40
0.7
 40
0.7333333333333333
 40
0.7333333333333333
 40
0.7333333333333333
 40
0.7333333333333333
 40
0.7666666666666667
 40
0.7666666666666667
 40
0.7666666666666667
 40
0.7666666666666667
 40
0.8
 40
0.8
 40
0.8
 40
0.8
 40
0.8333333333333334
 40
0.8333333333333334
 40
0.8333333333333334
 40
0.8333333333333334
 40
0.8666666666666667
 40
0.8666666666666667
 40
0.8666666666666667
 40
0.8666666666666667
 40
0.9
 40
0.9
 40
0.9
 40
0.9
 40
0.9333333333333333
 40
0.9333333333333333
 40
0.9333333333333333
 40
0.9333333333333333
 40
1.0
 40
1.0
 40
1.0
 40
1.0
 10
18.498
 20
43.4887
 30
0.0
 10
18.498
 20
43.4887
 30
0.0
 10
18.498
 20
43.7253
 30
0.0
 10
18.498
 20
43.7253
 30
0.0
 10
18.498
 20
43.7253
 30
0.0
 10
18.498
 20
43.7253
 30
0.0
 10
19.3536
 20
43.7267
 30
0.0
 10
19.3536
 20
43.7267
 30
0.0
 10
19.3536
 20
43.7267
 30
0.0
 10
19.3536
 20
43.7267
 30
0.0
 10
19.3536
 20
42.9774
 30
0.0
 10
19.3536
 20
42.9774
 30
0.0
 10
19.3536
 20
42.9774
 30
0.0
 10
19.2224
 20
42.8725
 30
0.0
 10
19.0869
 20
42.7939
 30
0.0
 10
18.9472
 20
42.7408
 30
0.0
 10
18.9472
 20
42.7408
 30
0.0
 10
18.8075
 20
42.6881
 30
0.0
 10
18.6641
 20
42.6618
 30
0.0
 10
18.5173
 20
42.6618
 30
0.0
 10
18.5173
 20
42.6618
 30
0.0
 10
18.3188
 20
42.6618
 30
0.0
 10
18.1382
 20
42.7041
 30
0.0
 10
17.9764
 20
42.7892
 30
0.0
 10
17.9764
 20
42.7892
 30
0.0
 10
17.8141
 20
42.8739
 30
0.0
 10
17.6918
 20
42.9971
 30
0.0
 10
17.609
 20
43.1575
 30
0.0
 10
17.609
 20
43.1575
 30
0.0
 10
17.5262
 20
43.3184
 30
0.0
 10
17.4848
 20
43.4981
 30
0.0
 10
17.4848
 20
43.6966
 30
0.0
 10
17.4848
 20
43.6966
 30
0.0
 10
17.4848
 20
43.8932
 30
0.0
 10
17.5262
 20
44.0766
 30
0.0
 10
17.6086
 20
44.2469
 30
0.0
 10
17.6086
 20
44.2469
 30
0.0
 10
17.6904
 20
44.4176
 30
0.0
 10
17.8089
 20
44.5442
 30
0.0
 10
17.9632
 20
44.627
 30
0.0
 10
17.9632
 20
44.627
 30
0.0
 10
18.1175
 20
44.7093
 30
0.0
 10
18.2953
 20
44.7507
 30
0.0
 10
18.4966
 20
44.7507
 30
0.0
 10
18.4966
 20
44.7507
 30
0.0
 10
18.6424
 20
44.7507
 30
0.0
 10
18.7746
 20
44.7271
 30
0.0
 10
18.8927
 20
44.6796
 30
0.0
 10
18.8927
 20
44.6796
 30
0.0
 10
19.0107
 20
44.6326
 30
0.0
 10
19.1034
 20
44.5667
 30
0.0
 10
19.1702
 20
44.4821
 30
0.0
 10
19.1702
 20
44.4821
 30
0.0
 10
19.2374
 20
44.3974
 30
0.0
 10
19.2882
 20
44.2874
 30
0.0
 10
19.3235
 20
44.1514
 30
0.0
 10
19.3235
 20
44.1514
 30
0.0
 10
19.3235
 20
44.1514
 30
0.0
 10
19.0822
 20
44.0851
 30
0.0
 10
19.0822
 20
44.0851
 30
0.0
 10
19.0822
 20
44.0851
 30
0.0
 10
19.0516
 20
44.1881
 30
0.0
 10
19.014
 20
44.269
 30
0.0
 10
18.9693
 20
44.3278
 30
0.0
 10
18.9693
 20
44.3278
 30
0.0
 10
18.9242
 20
44.3866
 30
0.0
 10
18.8597
 20
44.4336
 30
0.0
 10
18.776
 20
44.4689
 30
0.0
 10
18.776
 20
44.4689
 30
0.0
 10
18.6927
 20
44.5042
 30
0.0
 10
18.5996
 20
44.5221
 30
0.0
 10
18.498
 20
44.5221
 30
0.0
 10
18.498
 20
44.5221
 30
0.0
 10
18.3757
 20
44.5221
 30
0.0
 10
18.2699
 20
44.5032
 30
0.0
 10
18.181
 20
44.4661
 30
0.0
 10
18.181
 20
44.4661
 30
0.0
 10
18.0916
 20
44.4289
 30
0.0
 10
18.0201
 20
44.38
 30
0.0
 10
17.9651
 20
44.3193
 30
0.0
 10
17.9651
 20
44.3193
 30
0.0
 10
17.9105
 20
44.2587
 30
0.0
 10
17.8682
 20
44.1923
 30
0.0
 10
17.8376
 20
44.1194
 30
0.0
 10
17.8376
 20
44.1194
 30
0.0
 10
17.7864
 20
43.9948
 30
0.0
 10
17.7605
 20
43.8593
 30
0.0
 10
17.7605
 20
43.713
 30
0.0
 10
17.7605
 20
43.713
 30
0.0
 10
17.7605
 20
43.5329
 30
0.0
 10
17.7915
 20
43.3824
 30
0.0
 10
17.8536
 20
43.261
 30
0.0
 10
17.8536
 20
43.261
 30
0.0
 10
17.9157
 20
43.1397
 30
0.0
 10
18.006
 20
43.0498
 30
0.0
 10
18.1245
 20
42.991
 30
0.0
 10
18.1245
 20
42.991
 30
0.0
 10
18.2431
 20
42.9322
 30
0.0
 10
18.3687
 20
42.9026
 30
0.0
 10
18.5018
 20
42.9026
 30
0.0
 10
18.5018
 20
42.9026
 30
0.0
 10
18.618
 20
42.9026
 30
0.0
 10
18.7308
 20
42.9252
 30
0.0
 10
18.8409
 20
42.9699
 30
0.0
 10
18.8409
 20
42.9699
 30
0.0
 10
18.9515
 20
43.0141
 30
0.0
 10
19.0347
 20
43.0616
 30
0.0
 10
19.0916
 20
43.1124
 30
0.0
 10
19.0916
 20
43.1124
 30
0.0
 10
19.0916
 20
43.1124
 30
0.0
 10
19.0916
 20
43.4887
 30
0.0
 10
19.0916
 20
43.4887
 30
0.0
 10
19.0916
 20
43.4887
 30
0.0
 10
19.0916
 20
43.4887
 30
0.0
 10
18.498
 20
43.4887
 30
0.0
 10
18.498
 20
43.4887
 30
0.0
  0
SPLINE
  5
8E
330
1F
100
AcDbEntity
  8
DATUMS
 62
   250
100
AcDbSpline
210
0.0
220
0.0
230
1.0
 70
    11
 71
     3
 72
    40
 73
    36
 74
     0
 42
0.0000000001
 43
0.0000000001
 40
0.0
 40
0.0
 40
0.0
 40
0.0
 40
0.1
 40
0.1
 40
0.1
 40
0.1
 40
0.2
 40
0.2
 40
0.2
 40
0.2
 40
0.3
 40
0.3
 40
0.3
 40
0.3
 40
0.4
 40
0.4
 40
0.4
 40
0.4
 40
0.5
 40
0.5
 40
0.5
 40
0.5
 40
0.6
 40
0.6
 40
0.6
 40
0.6
 40
0.7
 40
0.7
 40
0.7
 40
0.7
 40
0.8
 40
0.8
 40
0.8
 40
0.8
 40
1.0
 40
1.0
 40
1.0
 40
1.0
 10
21.3654
 20
42.6961
 30
0.0
 10
21.3654
 20
42.6961
 30
0.0
 10
21.1175
 20
42.6961
 30
0.0
 10
21.1175
 20
42.6961
 30
0.0
 10
21.1175
 20
42.6961
 30
0.0
 10
21.1175
 20
42.6961
 30
0.0
 10
21.1175
 20
44.2765
 30
0.0
 10
21.1175
 20
44.2765
 30
0.0
 10
21.1175
 20
44.2765
 30
0.0
 10
21.0577
 20
44.2196
 30
0.0
 10
20.9797
 20
44.1627
 30
0.0
 10
20.8828
 20
44.1058
 30
0.0
 10
20.8828
 20
44.1058
 30
0.0
 10
20.7854
 20
44.0489
 30
0.0
 10
20.6984
 20
44.0061
 30
0.0
 10
20.6212
 20
43.9778
 30
0.0
 10
20.6212
 20
43.9778
 30
0.0
 10
20.6212
 20
43.9778
 30
0.0
 10
20.6212
 20
44.2173
 30
0.0
 10
20.6212
 20
44.2173
 30
0.0
 10
20.6212
 20
44.2173
 30
0.0
 10
20.76
 20
44.2826
 30
0.0
 10
20.8814
 20
44.3617
 30
0.0
 10
20.9853
 20
44.4543
 30
0.0
 10
20.9853
 20
44.4543
 30
0.0
 10
21.0888
 20
44.5475
 30
0.0
 10
21.1626
 20
44.6373
 30
0.0
 10
21.2059
 20
44.7248
 30
0.0
 10
21.2059
 20
44.7248
 30
0.0
 10
21.2059
 20
44.7248
 30
0.0
 10
21.3654
 20
44.7248
 30
0.0
 10
21.3654
 20
44.7248
 30
0.0
 10
21.3654
 20
44.7248
 30
0.0
 10
21.3654
 20
44.7248
 30
0.0
 10
21.3654
 20
42.6961
 30
0.0
 10
21.3654
 20
42.6961
 30
0.0
  0
SPLINE
  5
8F
330
1F
100
AcDbEntity
  8
DATUMS
 62
   250
100
AcDbSpline
210
0.0
220
0.0
230
1.0
 70
    11
 71
     3
 72
    20
 73
    16
 74
     0
 42
0.0000000001
 43
0.0000000001
 40
0.0
 40
0.0
 40
0.0
 40
0.0
 40
0.2
 40
0.2
 40
0.2
 40
0.2
 40
0.4
 40
0.4
 40
0.4
 40
0.4
 40
0.6
 40
0.6
 40
0.6
 40
0.6
 40
1.0
 40
1.0
 40
1.0
 40
1.0
 10
21.8837
 20
42.6618
 30
0.0
 10
21.8837
 20
42.6618
 30
0.0
 10
22.4693
 20
44.7507
 30
0.0
 10
22.4693
 20
44.7507
 30
0.0
 10
22.4693
 20
44.7507
 30
0.0
 10
22.4693
 20
44.7507
 30
0.0
 10
22.6678
 20
44.7507
 30
0.0
 10
22.6678
 20
44.7507
 30
0.0
 10
22.6678
 20
44.7507
 30
0.0
 10
22.6678
 20
44.7507
 30
0.0
 10
22.0836
 20
42.6618
 30
0.0
 10
22.0836
 20
42.6618
 30
0.0
 10
22.0836
 20
42.6618
 30
0.0
 10
22.0836
 20
42.6618
 30
0.0
 10
21.8837
 20
42.6618
 30
0.0
 10
21.8837
 20
42.6618
 30
0.0
  0
SPLINE
  5
90
330
1F
100
AcDbEntity
  8
DATUMS
 62
   250
100
AcDbSpline
210
0.0
220
0.0
230
1.0
 70
    11
 71
     3
 72
    92
 73
    88
 74
     0
 42
0.0000000001
 43
0.0000000001
 40
0.0
 40
0.0
 40
0.0
 40
0.0
 40
0.0434782608695652
 40
0.0434782608695652
 40
0.0434782608695652
 40
0.0434782608695652
 40
0.0869565217391304
 40
0.0869565217391304
 40
0.0869565217391304
 40
0.0869565217391304
 40
0.1304347826086956
 40
0.1304347826086956
 40
0.1304347826086956
 40
0.1304347826086956
 40
0.1739130434782609
 40
0.1739130434782609
 40
0.1739130434782609
 40
0.1739130434782609
 40
0.2173913043478261
 40
0.2173913043478261
 40
0.2173913043478261
 40
0.2173913043478261
 40
0.2608695652173913
 40
0.2608695652173913
 40
0.2608695652173913
 40
0.2608695652173913
 40
0.3043478260869565
 40
0.3043478260869565
 40
0.3043478260869565
 40
0.3043478260869565
 40
0.3478260869565217
 40
0.3478260869565217
 40
0.3478260869565217
 40
0.3478260869565217
 40
0.391304347826087
 40
0.391304347826087
 40
0.391304347826087
 40
0.391304347826087
 40
0.4347826086956522
 40
0.4347826086956522
 40
0.4347826086956522
 40
0.4347826086956522
 40
0.4782608695652174
 40
0.4782608695652174
 40
0.4782608695652174
 40
0.4782608695652174
 40
0.5217391304347826
 40
0.5217391304347826
 40
0.5217391304347826
 40
0.5217391304347826
 40
0.5652173913043478
 40
0.5652173913043478
 40
0.5652173913043478
 40
0.5652173913043478
 40
0.6086956521739131
 40
0.6086956521739131
 40
0.6086956521739131
 40
0.6086956521739131
 40
0.6521739130434783
 40
0.6521739130434783
 40
0.6521739130434783
 40
0.6521739130434783
 40
0.6956521739130435
 40
0.6956521739130435
 40
0.6956521739130435
 40
0.6956521739130435
 40
0.7391304347826086
 40
0.7391304347826086
 40
0.7391304347826086
 40
0.7391304347826086
 40
0.782608695652174
 40
0.782608695652174
 40
0.782608695652174
 40
0.782608695652174
 40
0.8260869565217391
 40
0.8260869565217391
 40
0.8260869565217391
 40
0.8260869565217391
 40
0.8695652173913043
 40
0.8695652173913043
 40
0.8695652173913043
 40
0.8695652173913043
 40
0.9130434782608695
 40
0.9130434782608695
 40
0.9130434782608695
 40
0.9130434782608695
 40
1.0
 40
1.0
 40
1.0
 40
1.0
 10
24.0888
 20
42.9346
 30
0.0
 10
24.0888
 20
42.9346
 30
0.0
 10
24.0888
 20
42.6961
 30
0.0
 10
24.0888
 20
42.6961
 30
0.0
 10
24.0888
 20
42.6961
 30
0.0
 10
24.0888
 20
42.6961
 30
0.0
 10
22.7534
 20
42.6961
 30
0.0
 10
22.7534
 20
42.6961
 30
0.0
 10
22.7534
 20
42.6961
 30
0.0
 10
22.7515
 20
42.7558
 30
0.0
 10
22.7609
 20
42.8132
 30
0.0
 10
22.7821
 20
42.8683
 30
0.0
 10
22.7821
 20
42.8683
 30
0.0
 10
22.816
 20
42.9595
 30
0.0
 10
22.8705
 20
43.0489
 30
0.0
 10
22.9453
 20
43.1373
 30
0.0
 10
22.9453
 20
43.1373
 30
0.0
 10
23.0206
 20
43.2253
 30
0.0
 10
23.1288
 20
43.3273
 30
0.0
 10
23.2699
 20
43.443
 30
0.0
 10
23.2699
 20
43.443
 30
0.0
 10
23.4895
 20
43.6232
 30
0.0
 10
23.6382
 20
43.7657
 30
0.0
 10
23.7153
 20
43.8711
 30
0.0
 10
23.7153
 20
43.8711
 30
0.0
 10
23.7924
 20
43.976
 30
0.0
 10
23.831
 20
44.0757
 30
0.0
 10
23.831
 20
44.1693
 30
0.0
 10
23.831
 20
44.1693
 30
0.0
 10
23.831
 20
44.2676
 30
0.0
 10
23.7957
 20
44.3504
 30
0.0
 10
23.7257
 20
44.4181
 30
0.0
 10
23.7257
 20
44.4181
 30
0.0
 10
23.6551
 20
44.4854
 30
0.0
 10
23.5634
 20
44.5192
 30
0.0
 10
23.4505
 20
44.5192
 30
0.0
 10
23.4505
 20
44.5192
 30
0.0
 10
23.331
 20
44.5192
 30
0.0
 10
23.2355
 20
44.4835
 30
0.0
 10
23.164
 20
44.4115
 30
0.0
 10
23.164
 20
44.4115
 30
0.0
 10
23.0921
 20
44.34
 30
0.0
 10
23.0559
 20
44.2408
 30
0.0
 10
23.0549
 20
44.1143
 30
0.0
 10
23.0549
 20
44.1143
 30
0.0
 10
23.0549
 20
44.1143
 30
0.0
 10
22.8
 20
44.1401
 30
0.0
 10
22.8
 20
44.1401
 30
0.0
 10
22.8
 20
44.1401
 30
0.0
 10
22.8174
 20
44.3306
 30
0.0
 10
22.8832
 20
44.4755
 30
0.0
 10
22.9971
 20
44.5752
 30
0.0
 10
22.9971
 20
44.5752
 30
0.0
 10
23.1109
 20
44.6749
 30
0.0
 10
23.2642
 20
44.7248
 30
0.0
 10
23.4561
 20
44.7248
 30
0.0
 10
23.4561
 20
44.7248
 30
0.0
 10
23.6499
 20
44.7248
 30
0.0
 10
23.8033
 20
44.6707
 30
0.0
 10
23.9162
 20
44.5635
 30
0.0
 10
23.9162
 20
44.5635
 30
0.0
 10
24.0295
 20
44.4557
 30
0.0
 10
24.086
 20
44.3226
 30
0.0
 10
24.086
 20
44.1636
 30
0.0
 10
24.086
 20
44.1636
 30
0.0
 10
24.086
 20
44.0827
 30
0.0
 10
24.0695
 20
44.0032
 30
0.0
 10
24.0361
 20
43.9252
 30
0.0
 10
24.0361
 20
43.9252
 30
0.0
 10
24.0032
 20
43.8471
 30
0.0
 10
23.9481
 20
43.7648
 30
0.0
 10
23.8715
 20
43.6787
 30
0.0
 10
23.8715
 20
43.6787
 30
0.0
 10
23.7948
 20
43.5921
 30
0.0
 10
23.6673
 20
43.4736
 30
0.0
 10
23.4891
 20
43.3231
 30
0.0
 10
23.4891
 20
43.3231
 30
0.0
 10
23.3404
 20
43.198
 30
0.0
 10
23.2449
 20
43.1133
 30
0.0
 10
23.2026
 20
43.0686
 30
0.0
 10
23.2026
 20
43.0686
 30
0.0
 10
23.1603
 20
43.0244
 30
0.0
 10
23.1255
 20
42.9797
 30
0.0
 10
23.0977
 20
42.9346
 30
0.0
 10
23.0977
 20
42.9346
 30
0.0
 10
23.0977
 20
42.9346
 30
0.0
 10
24.0888
 20
42.9346
 30
0.0
 10
24.0888
 20
42.9346
 30
0.0
  0
SPLINE
  5
91
330
1F
100
AcDbEntity
  8
DATUMS
 62
   250
100
AcDbSpline
210
0.0
220
0.0
230
1.0
 70
    11
 71
     3
 72
    28
 73
    24
 74
     0
 42
0.0000000001
 43
0.0000000001
 40
0.0
 40
0.0
 40
0.0
 40
0.0
 40
0.1428571428571428
 40
0.1428571428571428
 40
0.1428571428571428
 40
0.1428571428571428
 40
0.2857142857142857
 40
0.2857142857142857
 40
0.2857142857142857
 40
0.2857142857142857
 40
0.4285714285714285
 40
0.4285714285714285
 40
0.4285714285714285
 40
0.4285714285714285
 40
0.5714285714285714
 40
0.5714285714285714
 40
0.5714285714285714
 40
0.5714285714285714
 40
0.7142857142857143
 40
0.7142857142857143
 40
0.7142857142857143
 40
0.7142857142857143
 40
1.0
 40
1.0
 40
1.0
 40
1.0
 10
24.4359
 20
44.0009
 30
0.0
 10
24.4359
 20
44.0009
 30
0.0
 10
24.3668
 20
44.3857
 30
0.0
 10
24.3668
 20
44.3857
 30
0.0
 10
24.3668
 20
44.3857
 30
0.0
 10
24.3668
 20
44.3857
 30
0.0
 10
24.3668
 20
44.7163
 30
0.0
 10
24.3668
 20
44.7163
 30
0.0
 10
24.3668
 20
44.7163
 30
0.0
 10
24.3668
 20
44.7163
 30
0.0
 10
24.6494
 20
44.7163
 30
0.0
 10
24.6494
 20
44.7163
 30
0.0
 10
24.6494
 20
44.7163
 30
0.0
 10
24.6494
 20
44.7163
 30
0.0
 10
24.6494
 20
44.3857
 30
0.0
 10
24.6494
 20
44.3857
 30
0.0
 10
24.6494
 20
44.3857
 30
0.0
 10
24.6494
 20
44.3857
 30
0.0
 10
24.5874
 20
44.0009
 30
0.0
 10
24.5874
 20
44.0009
 30
0.0
 10
24.5874
 20
44.0009
 30
0.0
 10
24.5874
 20
44.0009
 30
0.0
 10
24.4359
 20
44.0009
 30
0.0
 10
24.4359
 20
44.0009
 30
0.0
  0
SPLINE
  5
92
330
1F
100
AcDbEntity
  8
DATUMS
 62
   250
100
AcDbSpline
210
0.0
220
0.0
230
1.0
 70
    11
 71
     3
 72
    28
 73
    24
 74
     0
 42
0.0000000001
 43
0.0000000001
 40
0.0
 40
0.0
 40
0.0
 40
0.0
 40
0.1428571428571428
 40
0.1428571428571428
 40
0.1428571428571428
 40
0.1428571428571428
 40
0.2857142857142857
 40
0.2857142857142857
 40
0.2857142857142857
 40
0.2857142857142857
 40
0.4285714285714285
 40
0.4285714285714285
 40
0.4285714285714285
 40
0.4285714285714285
 40
0.5714285714285714
 40
0.5714285714285714
 40
0.5714285714285714
 40
0.5714285714285714
 40
0.7142857142857143
 40
0.7142857142857143
 40
0.7142857142857143
 40
0.7142857142857143
 40
1.0
 40
1.0
 40
1.0
 40
1.0
 10
24.8922
 20
44.0009
 30
0.0
 10
24.8922
 20
44.0009
 30
0.0
 10
24.8244
 20
44.3857
 30
0.0
 10
24.8244
 20
44.3857
 30
0.0
 10
24.8244
 20
44.3857
 30
0.0
 10
24.8244
 20
44.3857
 30
0.0
 10
24.8244
 20
44.7163
 30
0.0
 10
24.8244
 20
44.7163
 30
0.0
 10
24.8244
 20
44.7163
 30
0.0
 10
24.8244
 20
44.7163
 30
0.0
 10
25.1071
 20
44.7163
 30
0.0
 10
25.1071
 20
44.7163
 30
0.0
 10
25.1071
 20
44.7163
 30
0.0
 10
25.1071
 20
44.7163
 30
0.0
 10
25.1071
 20
44.3857
 30
0.0
 10
25.1071
 20
44.3857
 30
0.0
 10
25.1071
 20
44.3857
 30
0.0
 10
25.1071
 20
44.3857
 30
0.0
 10
25.0408
 20
44.0009
 30
0.0
 10
25.0408
 20
44.0009
 30
0.0
 10
25.0408
 20
44.0009
 30
0.0
 10
25.0408
 20
44.0009
 30
0.0
 10
24.8922
 20
44.0009
 30
0.0
 10
24.8922
 20
44.0009
 30
0.0
  0
SPLINE
  5
93
330
1F
100
AcDbEntity
  8
DATUMS
 62
   250
100
AcDbSpline
210
0.0
220
0.0
230
1.0
 70
    11
 71
     3
 72
    20
 73
    16
 74
     0
 42
0.0000000001
 43
0.0000000001
 40
0.0
 40
0.0
 40
0.0
 40
0.0
 40
0.2
 40
0.2
 40
0.2
 40
0.2
 40
0.4
 40
0.4
 40
0.4
 40
0.4
 40
0.6
 40
0.6
 40
0.6
 40
0.6
 40
1.0
 40
1.0
 40
1.0
 40
1.0
 10
18.1667
 20
41.7872
 30
0.0
 10
18.1667
 20
41.7872
 30
0.0
 10
15.1667
 20
42.2253
 30
0.0
 10
15.1667
 20
42.2253
 30
0.0
 10
15.1667
 20
42.2253
 30
0.0
 10
15.1667
 20
42.2253
 30
0.0
 10
15.1667
 20
41.2584
 30
0.0
 10
15.1667
 20
41.2584
 30
0.0
 10
15.1667
 20
41.2584
 30
0.0
 10
15.1667
 20
41.2584
 30
0.0
 10
18.1667
 20
41.7859
 30
0.0
 10
18.1667
 20
41.7859
 30
0.0
 10
18.1667
 20
41.7859
 30
0.0
 10
18.1667
 20
41.7859
 30
0.0
 10
18.1667
 20
41.7872
 30
0.0
 10
18.1667
 20
41.7872
 30
0.0
  0
SPLINE
  5
94
330
1F
100
AcDbEntity
  8
DATUMS
 62
   250
100
AcDbSpline
210
0.0
220
0.0
230
1.0
 70
    11
 71
     3
 72
    20
 73
    16
 74
     0
 42
0.0000000001
 43
0.0000000001
 40
0.0
 40
0.0
 40
0.0
 40
0.0
 40
0.2
 40
0.2
 40
0.2
 40
0.2
 40
0.4
 40
0.4
 40
0.4
 40
0.4
 40
0.6
 40
0.6
 40
0.6
 40
0.6
 40
1.0
 40
1.0
 40
1.0
 40
1.0
 10
23.7365
 20
41.7894
 30
0.0
 10
23.7365
 20
41.7894
 30
0.0
 10
26.7366
 20
41.3514
 30
0.0
 10
26.7366
 20
41.3514
 30
0.0
 10
26.7366
 20
41.3514
 30
0.0
 10
26.7366
 20
41.3514
 30
0.0
 10
26.7366
 20
42.3183
 30
0.0
 10
26.7366
 20
42.3183
 30
0.0
 10
26.7366
 20
42.3183
 30
0.0
 10
26.7366
 20
42.3183
 30
0.0
 10
23.7365
 20
41.7908
 30
0.0
 10
23.7365
 20
41.7908
 30
0.0
 10
23.7365
 20
41.7908
 30
0.0
 10
23.7365
 20
41.7908
 30
0.0
 10
23.7365
 20
41.7894
 30
0.0
 10
23.7365
 20
41.7894
 30
0.0
  0
SPLINE
  5
95
330
1F
100
AcDbEntity
  8
DATUMS
 62
   250
100
AcDbSpline
210
0.0
220
0.0
230
1.0
 70
    24
 71
     3
 72
     8
 73
     4
 74
     0
 42
0.0000000001
 43
0.0000000001
 40
0.0
 40
0.0
 40
0.0
 40
0.0
 40
1.0
 40
1.0
 40
1.0
 40
1.0
 10
14.3214
 20
41.7738
 30
0.0
 10
14.3214
 20
41.7738
 30
0.0
 10
27.5506
 20
41.7738
 30
0.0
 10
27.5506
 20
41.7738
 30
0.0
  0
SPLINE
  5
96
330
1F
100
AcDbEntity
  8
DATUMS
  6
NEW_LINE16
 62
   250
100
AcDbSpline
210
0.0
220
0.0
230
1.0
 70
    24
 71
     3
 72
     8
 73
     4
 74
     0
 42
0.0000000001
 43
0.0000000001
 40
0.0
 40
0.0
 40
0.0
 40
0.0
 40
1.0
 40
1.0
 40
1.0
 40
1.0
 10
18.174
 20
42.1819
 30
0.0
 10
18.174
 20
42.1819
 30
0.0
 10
18.174
 20
38.2879
 30
0.0
 10
18.174
 20
38.2879
 30
0.0
  0
SPLINE
  5
98
330
1F
100
AcDbEntity
  8
DATUMS
  6
NEW_LINE17
 62
   250
100
AcDbSpline
210
0.0
220
0.0
230
1.0
 70
    24
 71
     3
 72
     8
 73
     4
 74
     0
 42
0.0000000001
 43
0.0000000001
 40
0.0
 40
0.0
 40
0.0
 40
0.0
 40
1.0
 40
1.0
 40
1.0
 40
1.0
 10
23.6215
 20
42.3117
 30
0.0
 10
23.6215
 20
42.3117
 30
0.0
 10
23.6215
 20
38.2795
 30
0.0
 10
23.6215
 20
38.2795
 30
0.0
  0
SPLINE
  5
9A
330
1F
100
AcDbEntity
  8
DATUMS
 62
   250
100
AcDbSpline
210
0.0
220
0.0
230
1.0
 70
    11
 71
     3
 72
   120
 73
   116
 74
     0
 42
0.0000000001
 43
0.0000000001
 40
0.0
 40
0.0
 40
0.0
 40
0.0
 40
0.0333333333333333
 40
0.0333333333333333
 40
0.0333333333333333
 40
0.0333333333333333
 40
0.0666666666666667
 40
0.0666666666666667
 40
0.0666666666666667
 40
0.0666666666666667
 40
0.1
 40
0.1
 40
0.1
 40
0.1
 40
0.1333333333333333
 40
0.1333333333333333
 40
0.1333333333333333
 40
0.1333333333333333
 40
0.1666666666666667
 40
0.1666666666666667
 40
0.1666666666666667
 40
0.1666666666666667
 40
0.2
 40
0.2
 40
0.2
 40
0.2
 40
0.2333333333333333
 40
0.2333333333333333
 40
0.2333333333333333
 40
0.2333333333333333
 40
0.2666666666666667
 40
0.2666666666666667
 40
0.2666666666666667
 40
0.2666666666666667
 40
0.3
 40
0.3
 40
0.3
 40
0.3
 40
0.3333333333333333
 40
0.3333333333333333
 40
0.3333333333333333
 40
0.3333333333333333
 40
0.3666666666666666
 40
0.3666666666666666
 40
0.3666666666666666
 40
0.3666666666666666
 40
0.4
 40
0.4
 40
0.4
 40
0.4
 40
0.4333333333333333
 40
0.4333333333333333
 40
0.4333333333333333
 40
0.4333333333333333
 40
0.4666666666666667
 40
0.4666666666666667
 40
0.4666666666666667
 40
0.4666666666666667
 40
0.5
 40
0.5
 40
0.5
 40
0.5
 40
0.5333333333333333
 40
0.5333333333333333
 40
0.5333333333333333
 40
0.5333333333333333
 40
0.5666666666666667
 40
0.5666666666666667
 40
0.5666666666666667
 40
0.5666666666666667
 40
0.6
 40
0.6
 40
0.6
 40
0.6
 40
0.6333333333333333
 40
0.6333333333333333
 40
0.6333333333333333
 40
0.6333333333333333
 40
0.6666666666666666
 40
0.6666666666666666
 40
0.6666666666666666
 40
0.6666666666666666
 40
0.7
 40
0.7
 40
0.7
 40
0.7
 40
0.7333333333333333
 40
0.7333333333333333
 40
0.7333333333333333
 40
0.7333333333333333
 40
0.7666666666666667
 40
0.7666666666666667
 40
0.7666666666666667
 40
0.7666666666666667
 40
0.8
 40
0.8
 40
0.8
 40
0.8
 40
0.8333333333333334
 40
0.8333333333333334
 40
0.8333333333333334
 40
0.8333333333333334
 40
0.8666666666666667
 40
0.8666666666666667
 40
0.8666666666666667
 40
0.8666666666666667
 40
0.9
 40
0.9
 40
0.9
 40
0.9
 40
0.9333333333333333
 40
0.9333333333333333
 40
0.9333333333333333
 40
0.9333333333333333
 40
1.0
 40
1.0
 40
1.0
 40
1.0
 10
9.8577
 20
-4.9925
 30
0.0
 10
9.8577
 20
-4.9925
 30
0.0
 10
9.8577
 20
-4.7559
 30
0.0
 10
9.8577
 20
-4.7559
 30
0.0
 10
9.8577
 20
-4.7559
 30
0.0
 10
9.8577
 20
-4.7559
 30
0.0
 10
10.7133
 20
-4.7545
 30
0.0
 10
10.7133
 20
-4.7545
 30
0.0
 10
10.7133
 20
-4.7545
 30
0.0
 10
10.7133
 20
-4.7545
 30
0.0
 10
10.7133
 20
-5.5038
 30
0.0
 10
10.7133
 20
-5.5038
 30
0.0
 10
10.7133
 20
-5.5038
 30
0.0
 10
10.5821
 20
-5.6087
 30
0.0
 10
10.4466
 20
-5.6873
 30
0.0
 10
10.3069
 20
-5.7404
 30
0.0
 10
10.3069
 20
-5.7404
 30
0.0
 10
10.1672
 20
-5.7931
 30
0.0
 10
10.0238
 20
-5.8194
 30
0.0
 10
9.877
 20
-5.8194
 30
0.0
 10
9.877
 20
-5.8194
 30
0.0
 10
9.6785
 20
-5.8194
 30
0.0
 10
9.4979
 20
-5.7771
 30
0.0
 10
9.3361
 20
-5.692
 30
0.0
 10
9.3361
 20
-5.692
 30
0.0
 10
9.1738
 20
-5.6073
 30
0.0
 10
9.0515
 20
-5.4841
 30
0.0
 10
8.9687
 20
-5.3237
 30
0.0
 10
8.9687
 20
-5.3237
 30
0.0
 10
8.8859
 20
-5.1628
 30
0.0
 10
8.8445
 20
-4.9831
 30
0.0
 10
8.8445
 20
-4.7846
 30
0.0
 10
8.8445
 20
-4.7846
 30
0.0
 10
8.8445
 20
-4.588
 30
0.0
 10
8.8859
 20
-4.4046
 30
0.0
 10
8.9683
 20
-4.2343
 30
0.0
 10
8.9683
 20
-4.2343
 30
0.0
 10
9.0501
 20
-4.0636
 30
0.0
 10
9.1686
 20
-3.937
 30
0.0
 10
9.3229
 20
-3.8542
 30
0.0
 10
9.3229
 20
-3.8542
 30
0.0
 10
9.4772
 20
-3.7719
 30
0.0
 10
9.655
 20
-3.7305
 30
0.0
 10
9.8563
 20
-3.7305
 30
0.0
 10
9.8563
 20
-3.7305
 30
0.0
 10
10.0021
 20
-3.7305
 30
0.0
 10
10.1343
 20
-3.7541
 30
0.0
 10
10.2524
 20
-3.8016
 30
0.0
 10
10.2524
 20
-3.8016
 30
0.0
 10
10.3704
 20
-3.8486
 30
0.0
 10
10.4631
 20
-3.9145
 30
0.0
 10
10.5299
 20
-3.9991
 30
0.0
 10
10.5299
 20
-3.9991
 30
0.0
 10
10.5971
 20
-4.0838
 30
0.0
 10
10.6479
 20
-4.1938
 30
0.0
 10
10.6832
 20
-4.3298
 30
0.0
 10
10.6832
 20
-4.3298
 30
0.0
 10
10.6832
 20
-4.3298
 30
0.0
 10
10.4419
 20
-4.3961
 30
0.0
 10
10.4419
 20
-4.3961
 30
0.0
 10
10.4419
 20
-4.3961
 30
0.0
 10
10.4113
 20
-4.2931
 30
0.0
 10
10.3737
 20
-4.2122
 30
0.0
 10
10.329
 20
-4.1534
 30
0.0
 10
10.329
 20
-4.1534
 30
0.0
 10
10.2839
 20
-4.0946
 30
0.0
 10
10.2194
 20
-4.0476
 30
0.0
 10
10.1357
 20
-4.0123
 30
0.0
 10
10.1357
 20
-4.0123
 30
0.0
 10
10.0524
 20
-3.977
 30
0.0
 10
9.9593
 20
-3.9591
 30
0.0
 10
9.8577
 20
-3.9591
 30
0.0
 10
9.8577
 20
-3.9591
 30
0.0
 10
9.7354
 20
-3.9591
 30
0.0
 10
9.6296
 20
-3.978
 30
0.0
 10
9.5407
 20
-4.0151
 30
0.0
 10
9.5407
 20
-4.0151
 30
0.0
 10
9.4513
 20
-4.0523
 30
0.0
 10
9.3798
 20
-4.1012
 30
0.0
 10
9.3248
 20
-4.1619
 30
0.0
 10
9.3248
 20
-4.1619
 30
0.0
 10
9.2702
 20
-4.2225
 30
0.0
 10
9.2279
 20
-4.2889
 30
0.0
 10
9.1973
 20
-4.3618
 30
0.0
 10
9.1973
 20
-4.3618
 30
0.0
 10
9.1461
 20
-4.4864
 30
0.0
 10
9.1202
 20
-4.6219
 30
0.0
 10
9.1202
 20
-4.7682
 30
0.0
 10
9.1202
 20
-4.7682
 30
0.0
 10
9.1202
 20
-4.9483
 30
0.0
 10
9.1512
 20
-5.0988
 30
0.0
 10
9.2133
 20
-5.2202
 30
0.0
 10
9.2133
 20
-5.2202
 30
0.0
 10
9.2754
 20
-5.3415
 30
0.0
 10
9.3657
 20
-5.4314
 30
0.0
 10
9.4842
 20
-5.4902
 30
0.0
 10
9.4842
 20
-5.4902
 30
0.0
 10
9.6028
 20
-5.549
 30
0.0
 10
9.7284
 20
-5.5786
 30
0.0
 10
9.8615
 20
-5.5786
 30
0.0
 10
9.8615
 20
-5.5786
 30
0.0
 10
9.9777
 20
-5.5786
 30
0.0
 10
10.0905
 20
-5.556
 30
0.0
 10
10.2006
 20
-5.5113
 30
0.0
 10
10.2006
 20
-5.5113
 30
0.0
 10
10.3112
 20
-5.4671
 30
0.0
 10
10.3944
 20
-5.4196
 30
0.0
 10
10.4513
 20
-5.3688
 30
0.0
 10
10.4513
 20
-5.3688
 30
0.0
 10
10.4513
 20
-5.3688
 30
0.0
 10
10.4513
 20
-4.9925
 30
0.0
 10
10.4513
 20
-4.9925
 30
0.0
 10
10.4513
 20
-4.9925
 30
0.0
 10
10.4513
 20
-4.9925
 30
0.0
 10
9.8577
 20
-4.9925
 30
0.0
 10
9.8577
 20
-4.9925
 30
0.0
  0
SPLINE
  5
9B
330
1F
100
AcDbEntity
  8
DATUMS
 62
   250
100
AcDbSpline
210
0.0
220
0.0
230
1.0
 70
    11
 71
     3
 72
   124
 73
   120
 74
     0
 42
0.0000000001
 43
0.0000000001
 40
0.0
 40
0.0
 40
0.0
 40
0.0
 40
0.032258064516129
 40
0.032258064516129
 40
0.032258064516129
 40
0.032258064516129
 40
0.0645161290322581
 40
0.0645161290322581
 40
0.0645161290322581
 40
0.0645161290322581
 40
0.0967741935483871
 40
0.0967741935483871
 40
0.0967741935483871
 40
0.0967741935483871
 40
0.1290322580645161
 40
0.1290322580645161
 40
0.1290322580645161
 40
0.1290322580645161
 40
0.1612903225806452
 40
0.1612903225806452
 40
0.1612903225806452
 40
0.1612903225806452
 40
0.1935483870967742
 40
0.1935483870967742
 40
0.1935483870967742
 40
0.1935483870967742
 40
0.2258064516129032
 40
0.2258064516129032
 40
0.2258064516129032
 40
0.2258064516129032
 40
0.2580645161290323
 40
0.2580645161290323
 40
0.2580645161290323
 40
0.2580645161290323
 40
0.2903225806451613
 40
0.2903225806451613
 40
0.2903225806451613
 40
0.2903225806451613
 40
0.3225806451612903
 40
0.3225806451612903
 40
0.3225806451612903
 40
0.3225806451612903
 40
0.3548387096774194
 40
0.3548387096774194
 40
0.3548387096774194
 40
0.3548387096774194
 40
0.3870967741935484
 40
0.3870967741935484
 40
0.3870967741935484
 40
0.3870967741935484
 40
0.4193548387096774
 40
0.4193548387096774
 40
0.4193548387096774
 40
0.4193548387096774
 40
0.4516129032258064
 40
0.4516129032258064
 40
0.4516129032258064
 40
0.4516129032258064
 40
0.4838709677419355
 40
0.4838709677419355
 40
0.4838709677419355
 40
0.4838709677419355
 40
0.5161290322580645
 40
0.5161290322580645
 40
0.5161290322580645
 40
0.5161290322580645
 40
0.5483870967741935
 40
0.5483870967741935
 40
0.5483870967741935
 40
0.5483870967741935
 40
0.5806451612903226
 40
0.5806451612903226
 40
0.5806451612903226
 40
0.5806451612903226
 40
0.6129032258064516
 40
0.6129032258064516
 40
0.6129032258064516
 40
0.6129032258064516
 40
0.6451612903225806
 40
0.6451612903225806
 40
0.6451612903225806
 40
0.6451612903225806
 40
0.6774193548387096
 40
0.6774193548387096
 40
0.6774193548387096
 40
0.6774193548387096
 40
0.7096774193548387
 40
0.7096774193548387
 40
0.7096774193548387
 40
0.7096774193548387
 40
0.7419354838709677
 40
0.7419354838709677
 40
0.7419354838709677
 40
0.7419354838709677
 40
0.7741935483870968
 40
0.7741935483870968
 40
0.7741935483870968
 40
0.7741935483870968
 40
0.8064516129032258
 40
0.8064516129032258
 40
0.8064516129032258
 40
0.8064516129032258
 40
0.8387096774193549
 40
0.8387096774193549
 40
0.8387096774193549
 40
0.8387096774193549
 40
0.8709677419354839
 40
0.8709677419354839
 40
0.8709677419354839
 40
0.8709677419354839
 40
0.9032258064516129
 40
0.9032258064516129
 40
0.9032258064516129
 40
0.9032258064516129
 40
0.9354838709677419
 40
0.9354838709677419
 40
0.9354838709677419
 40
0.9354838709677419
 40
1.0
 40
1.0
 40
1.0
 40
1.0
 10
11.7923
 20
-5.2517
 30
0.0
 10
11.7923
 20
-5.2517
 30
0.0
 10
12.0402
 20
-5.2188
 30
0.0
 10
12.0402
 20
-5.2188
 30
0.0
 10
12.0402
 20
-5.2188
 30
0.0
 10
12.0689
 20
-5.3594
 30
0.0
 10
12.1174
 20
-5.4605
 30
0.0
 10
12.1856
 20
-5.5226
 30
0.0
 10
12.1856
 20
-5.5226
 30
0.0
 10
12.2542
 20
-5.5847
 30
0.0
 10
12.3375
 20
-5.6158
 30
0.0
 10
12.4358
 20
-5.6158
 30
0.0
 10
12.4358
 20
-5.6158
 30
0.0
 10
12.5524
 20
-5.6158
 30
0.0
 10
12.6512
 20
-5.5753
 30
0.0
 10
12.7317
 20
-5.4944
 30
0.0
 10
12.7317
 20
-5.4944
 30
0.0
 10
12.8116
 20
-5.4135
 30
0.0
 10
12.8521
 20
-5.3133
 30
0.0
 10
12.8521
 20
-5.1938
 30
0.0
 10
12.8521
 20
-5.1938
 30
0.0
 10
12.8521
 20
-5.08
 30
0.0
 10
12.8149
 20
-4.9859
 30
0.0
 10
12.7406
 20
-4.9121
 30
0.0
 10
12.7406
 20
-4.9121
 30
0.0
 10
12.6658
 20
-4.8383
 30
0.0
 10
12.5713
 20
-4.8011
 30
0.0
 10
12.4565
 20
-4.8011
 30
0.0
 10
12.4565
 20
-4.8011
 30
0.0
 10
12.4095
 20
-4.8011
 30
0.0
 10
12.3511
 20
-4.8105
 30
0.0
 10
12.2815
 20
-4.8288
 30
0.0
 10
12.2815
 20
-4.8288
 30
0.0
 10
12.2815
 20
-4.8288
 30
0.0
 10
12.3093
 20
-4.6111
 30
0.0
 10
12.3093
 20
-4.6111
 30
0.0
 10
12.3093
 20
-4.6111
 30
0.0
 10
12.3257
 20
-4.6129
 30
0.0
 10
12.3389
 20
-4.6139
 30
0.0
 10
12.3492
 20
-4.6139
 30
0.0
 10
12.3492
 20
-4.6139
 30
0.0
 10
12.4546
 20
-4.6139
 30
0.0
 10
12.5496
 20
-4.5861
 30
0.0
 10
12.6343
 20
-4.5311
 30
0.0
 10
12.6343
 20
-4.5311
 30
0.0
 10
12.719
 20
-4.4761
 30
0.0
 10
12.7613
 20
-4.3909
 30
0.0
 10
12.7613
 20
-4.2762
 30
0.0
 10
12.7613
 20
-4.2762
 30
0.0
 10
12.7613
 20
-4.1854
 30
0.0
 10
12.7302
 20
-4.1097
 30
0.0
 10
12.6686
 20
-4.0504
 30
0.0
 10
12.6686
 20
-4.0504
 30
0.0
 10
12.607
 20
-3.9907
 30
0.0
 10
12.5275
 20
-3.9605
 30
0.0
 10
12.4301
 20
-3.9605
 30
0.0
 10
12.4301
 20
-3.9605
 30
0.0
 10
12.3337
 20
-3.9605
 30
0.0
 10
12.2533
 20
-3.9911
 30
0.0
 10
12.1893
 20
-4.0513
 30
0.0
 10
12.1893
 20
-4.0513
 30
0.0
 10
12.1249
 20
-4.112
 30
0.0
 10
12.0835
 20
-4.2033
 30
0.0
 10
12.0651
 20
-4.3246
 30
0.0
 10
12.0651
 20
-4.3246
 30
0.0
 10
12.0651
 20
-4.3246
 30
0.0
 10
11.8173
 20
-4.2804
 30
0.0
 10
11.8173
 20
-4.2804
 30
0.0
 10
11.8173
 20
-4.2804
 30
0.0
 10
11.8474
 20
-4.1139
 30
0.0
 10
11.9165
 20
-3.985
 30
0.0
 10
12.0238
 20
-3.8938
 30
0.0
 10
12.0238
 20
-3.8938
 30
0.0
 10
12.1315
 20
-3.8025
 30
0.0
 10
12.2651
 20
-3.7564
 30
0.0
 10
12.425
 20
-3.7564
 30
0.0
 10
12.425
 20
-3.7564
 30
0.0
 10
12.535
 20
-3.7564
 30
0.0
 10
12.6366
 20
-3.7804
 30
0.0
 10
12.7293
 20
-3.8274
 30
0.0
 10
12.7293
 20
-3.8274
 30
0.0
 10
12.822
 20
-3.8749
 30
0.0
 10
12.893
 20
-3.9394
 30
0.0
 10
12.9424
 20
-4.0212
 30
0.0
 10
12.9424
 20
-4.0212
 30
0.0
 10
12.9913
 20
-4.1031
 30
0.0
 10
13.0162
 20
-4.1896
 30
0.0
 10
13.0162
 20
-4.2818
 30
0.0
 10
13.0162
 20
-4.2818
 30
0.0
 10
13.0162
 20
-4.3688
 30
0.0
 10
12.9927
 20
-4.4483
 30
0.0
 10
12.9457
 20
-4.5203
 30
0.0
 10
12.9457
 20
-4.5203
 30
0.0
 10
12.8986
 20
-4.5918
 30
0.0
 10
12.8295
 20
-4.6487
 30
0.0
 10
12.7378
 20
-4.691
 30
0.0
 10
12.7378
 20
-4.691
 30
0.0
 10
12.8572
 20
-4.7183
 30
0.0
 10
12.9499
 20
-4.7757
 30
0.0
 10
13.0162
 20
-4.8627
 30
0.0
 10
13.0162
 20
-4.8627
 30
0.0
 10
13.0821
 20
-4.9493
 30
0.0
 10
13.115
 20
-5.0579
 30
0.0
 10
13.115
 20
-5.1882
 30
0.0
 10
13.115
 20
-5.1882
 30
0.0
 10
13.115
 20
-5.3646
 30
0.0
 10
13.051
 20
-5.5142
 30
0.0
 10
12.9222
 20
-5.6369
 30
0.0
 10
12.9222
 20
-5.6369
 30
0.0
 10
12.7937
 20
-5.7597
 30
0.0
 10
12.631
 20
-5.8208
 30
0.0
 10
12.4344
 20
-5.8208
 30
0.0
 10
12.4344
 20
-5.8208
 30
0.0
 10
12.2571
 20
-5.8208
 30
0.0
 10
12.1098
 20
-5.7682
 30
0.0
 10
11.9927
 20
-5.6623
 30
0.0
 10
11.9927
 20
-5.6623
 30
0.0
 10
11.8756
 20
-5.557
 30
0.0
 10
11.8088
 20
-5.4201
 30
0.0
 10
11.7923
 20
-5.2517
 30
0.0
  0
SPLINE
  5
9C
330
1F
100
AcDbEntity
  8
DATUMS
 62
   250
100
AcDbSpline
210
0.0
220
0.0
230
1.0
 70
    11
 71
     3
 72
    20
 73
    16
 74
     0
 42
0.0000000001
 43
0.0000000001
 40
0.0
 40
0.0
 40
0.0
 40
0.0
 40
0.2
 40
0.2
 40
0.2
 40
0.2
 40
0.4
 40
0.4
 40
0.4
 40
0.4
 40
0.6
 40
0.6
 40
0.6
 40
0.6
 40
1.0
 40
1.0
 40
1.0
 40
1.0
 10
13.2434
 20
-5.8194
 30
0.0
 10
13.2434
 20
-5.8194
 30
0.0
 10
13.829
 20
-3.7305
 30
0.0
 10
13.829
 20
-3.7305
 30
0.0
 10
13.829
 20
-3.7305
 30
0.0
 10
13.829
 20
-3.7305
 30
0.0
 10
14.0275
 20
-3.7305
 30
0.0
 10
14.0275
 20
-3.7305
 30
0.0
 10
14.0275
 20
-3.7305
 30
0.0
 10
14.0275
 20
-3.7305
 30
0.0
 10
13.4433
 20
-5.8194
 30
0.0
 10
13.4433
 20
-5.8194
 30
0.0
 10
13.4433
 20
-5.8194
 30
0.0
 10
13.4433
 20
-5.8194
 30
0.0
 10
13.2434
 20
-5.8194
 30
0.0
 10
13.2434
 20
-5.8194
 30
0.0
  0
SPLINE
  5
9D
330
1F
100
AcDbEntity
  8
DATUMS
 62
   250
100
AcDbSpline
210
0.0
220
0.0
230
1.0
 70
    11
 71
     3
 72
    68
 73
    64
 74
     0
 42
0.0000000001
 43
0.0000000001
 40
0.0
 40
0.0
 40
0.0
 40
0.0
 40
0.0588235294117647
 40
0.0588235294117647
 40
0.0588235294117647
 40
0.0588235294117647
 40
0.1176470588235294
 40
0.1176470588235294
 40
0.1176470588235294
 40
0.1176470588235294
 40
0.1764705882352941
 40
0.1764705882352941
 40
0.1764705882352941
 40
0.1764705882352941
 40
0.2352941176470588
 40
0.2352941176470588
 40
0.2352941176470588
 40
0.2352941176470588
 40
0.2941176470588235
 40
0.2941176470588235
 40
0.2941176470588235
 40
0.2941176470588235
 40
0.3529411764705883
 40
0.3529411764705883
 40
0.3529411764705883
 40
0.3529411764705883
 40
0.4117647058823529
 40
0.4117647058823529
 40
0.4117647058823529
 40
0.4117647058823529
 40
0.4705882352941176
 40
0.4705882352941176
 40
0.4705882352941176
 40
0.4705882352941176
 40
0.5294117647058824
 40
0.5294117647058824
 40
0.5294117647058824
 40
0.5294117647058824
 40
0.5882352941176471
 40
0.5882352941176471
 40
0.5882352941176471
 40
0.5882352941176471
 40
0.6470588235294118
 40
0.6470588235294118
 40
0.6470588235294118
 40
0.6470588235294118
 40
0.7058823529411765
 40
0.7058823529411765
 40
0.7058823529411765
 40
0.7058823529411765
 40
0.7647058823529411
 40
0.7647058823529411
 40
0.7647058823529411
 40
0.7647058823529411
 40
0.8235294117647058
 40
0.8235294117647058
 40
0.8235294117647058
 40
0.8235294117647058
 40
0.8823529411764706
 40
0.8823529411764706
 40
0.8823529411764706
 40
0.8823529411764706
 40
1.0
 40
1.0
 40
1.0
 40
1.0
 10
14.5266
 20
-4.6896
 30
0.0
 10
14.4235
 20
-4.652
 30
0.0
 10
14.3473
 20
-4.5984
 30
0.0
 10
14.2975
 20
-4.5283
 30
0.0
 10
14.2975
 20
-4.5283
 30
0.0
 10
14.2481
 20
-4.4587
 30
0.0
 10
14.2232
 20
-4.3749
 30
0.0
 10
14.2232
 20
-4.2776
 30
0.0
 10
14.2232
 20
-4.2776
 30
0.0
 10
14.2232
 20
-4.1304
 30
0.0
 10
14.2759
 20
-4.0071
 30
0.0
 10
14.3817
 20
-3.9069
 30
0.0
 10
14.3817
 20
-3.9069
 30
0.0
 10
14.4875
 20
-3.8067
 30
0.0
 10
14.6277
 20
-3.7564
 30
0.0
 10
14.8031
 20
-3.7564
 30
0.0
 10
14.8031
 20
-3.7564
 30
0.0
 10
14.9795
 20
-3.7564
 30
0.0
 10
15.1216
 20
-3.8077
 30
0.0
 10
15.2293
 20
-3.9102
 30
0.0
 10
15.2293
 20
-3.9102
 30
0.0
 10
15.3365
 20
-4.0128
 30
0.0
 10
15.3902
 20
-4.1374
 30
0.0
 10
15.3902
 20
-4.2846
 30
0.0
 10
15.3902
 20
-4.2846
 30
0.0
 10
15.3902
 20
-4.3782
 30
0.0
 10
15.3657
 20
-4.4596
 30
0.0
 10
15.3168
 20
-4.5292
 30
0.0
 10
15.3168
 20
-4.5292
 30
0.0
 10
15.2674
 20
-4.5984
 30
0.0
 10
15.1931
 20
-4.652
 30
0.0
 10
15.0929
 20
-4.6896
 30
0.0
 10
15.0929
 20
-4.6896
 30
0.0
 10
15.2166
 20
-4.7301
 30
0.0
 10
15.3111
 20
-4.795
 30
0.0
 10
15.376
 20
-4.8853
 30
0.0
 10
15.376
 20
-4.8853
 30
0.0
 10
15.4405
 20
-4.9751
 30
0.0
 10
15.4729
 20
-5.0828
 30
0.0
 10
15.4729
 20
-5.2075
 30
0.0
 10
15.4729
 20
-5.2075
 30
0.0
 10
15.4729
 20
-5.3806
 30
0.0
 10
15.4118
 20
-5.5255
 30
0.0
 10
15.29
 20
-5.643
 30
0.0
 10
15.29
 20
-5.643
 30
0.0
 10
15.1677
 20
-5.7606
 30
0.0
 10
15.0068
 20
-5.8194
 30
0.0
 10
14.8074
 20
-5.8194
 30
0.0
 10
14.8074
 20
-5.8194
 30
0.0
 10
14.6079
 20
-5.8194
 30
0.0
 10
14.4475
 20
-5.7606
 30
0.0
 10
14.3252
 20
-5.6426
 30
0.0
 10
14.3252
 20
-5.6426
 30
0.0
 10
14.2029
 20
-5.5245
 30
0.0
 10
14.1418
 20
-5.3773
 30
0.0
 10
14.1418
 20
-5.2009
 30
0.0
 10
14.1418
 20
-5.2009
 30
0.0
 10
14.1418
 20
-5.0697
 30
0.0
 10
14.1752
 20
-4.9596
 30
0.0
 10
14.242
 20
-4.8707
 30
0.0
 10
14.242
 20
-4.8707
 30
0.0
 10
14.3083
 20
-4.7823
 30
0.0
 10
14.4033
 20
-4.7216
 30
0.0
 10
14.5266
 20
-4.6896
 30
0.0
  0
SPLINE
  5
9E
330
1F
100
AcDbEntity
  8
DATUMS
 62
   250
100
AcDbSpline
210
0.0
220
0.0
230
1.0
 70
    11
 71
     3
 72
    36
 73
    32
 74
     0
 42
0.0000000001
 43
0.0000000001
 40
0.0
 40
0.0
 40
0.0
 40
0.0
 40
0.1111111111111111
 40
0.1111111111111111
 40
0.1111111111111111
 40
0.1111111111111111
 40
0.2222222222222222
 40
0.2222222222222222
 40
0.2222222222222222
 40
0.2222222222222222
 40
0.3333333333333333
 40
0.3333333333333333
 40
0.3333333333333333
 40
0.3333333333333333
 40
0.4444444444444444
 40
0.4444444444444444
 40
0.4444444444444444
 40
0.4444444444444444
 40
0.5555555555555556
 40
0.5555555555555556
 40
0.5555555555555556
 40
0.5555555555555556
 40
0.6666666666666666
 40
0.6666666666666666
 40
0.6666666666666666
 40
0.6666666666666666
 40
0.7777777777777778
 40
0.7777777777777778
 40
0.7777777777777778
 40
0.7777777777777778
 40
1.0
 40
1.0
 40
1.0
 40
1.0
 10
14.4767
 20
-4.2691
 30
0.0
 10
14.4767
 20
-4.3646
 30
0.0
 10
14.5077
 20
-4.4427
 30
0.0
 10
14.5689
 20
-4.5034
 30
0.0
 10
14.5689
 20
-4.5034
 30
0.0
 10
14.6305
 20
-4.564
 30
0.0
 10
14.7105
 20
-4.5946
 30
0.0
 10
14.8088
 20
-4.5946
 30
0.0
 10
14.8088
 20
-4.5946
 30
0.0
 10
14.9043
 20
-4.5946
 30
0.0
 10
14.9828
 20
-4.5645
 30
0.0
 10
15.044
 20
-4.5043
 30
0.0
 10
15.044
 20
-4.5043
 30
0.0
 10
15.1051
 20
-4.4441
 30
0.0
 10
15.1352
 20
-4.3702
 30
0.0
 10
15.1352
 20
-4.2832
 30
0.0
 10
15.1352
 20
-4.2832
 30
0.0
 10
15.1352
 20
-4.192
 30
0.0
 10
15.1042
 20
-4.1158
 30
0.0
 10
15.0411
 20
-4.0537
 30
0.0
 10
15.0411
 20
-4.0537
 30
0.0
 10
14.9781
 20
-3.9916
 30
0.0
 10
14.9
 20
-3.9605
 30
0.0
 10
14.806
 20
-3.9605
 30
0.0
 10
14.806
 20
-3.9605
 30
0.0
 10
14.7114
 20
-3.9605
 30
0.0
 10
14.6329
 20
-3.9911
 30
0.0
 10
14.5703
 20
-4.0513
 30
0.0
 10
14.5703
 20
-4.0513
 30
0.0
 10
14.5077
 20
-4.112
 30
0.0
 10
14.4767
 20
-4.1849
 30
0.0
 10
14.4767
 20
-4.2691
 30
0.0
  0
SPLINE
  5
9F
330
1F
100
AcDbEntity
  8
DATUMS
 62
   250
100
AcDbSpline
210
0.0
220
0.0
230
1.0
 70
    11
 71
     3
 72
    40
 73
    36
 74
     0
 42
0.0000000001
 43
0.0000000001
 40
0.0
 40
0.0
 40
0.0
 40
0.0
 40
0.1
 40
0.1
 40
0.1
 40
0.1
 40
0.2
 40
0.2
 40
0.2
 40
0.2
 40
0.3
 40
0.3
 40
0.3
 40
0.3
 40
0.4
 40
0.4
 40
0.4
 40
0.4
 40
0.5
 40
0.5
 40
0.5
 40
0.5
 40
0.6
 40
0.6
 40
0.6
 40
0.6
 40
0.7
 40
0.7
 40
0.7
 40
0.7
 40
0.8
 40
0.8
 40
0.8
 40
0.8
 40
1.0
 40
1.0
 40
1.0
 40
1.0
 10
14.3967
 20
-5.2023
 30
0.0
 10
14.3967
 20
-5.2729
 30
0.0
 10
14.4137
 20
-5.3415
 30
0.0
 10
14.4471
 20
-5.4074
 30
0.0
 10
14.4471
 20
-5.4074
 30
0.0
 10
14.4805
 20
-5.4737
 30
0.0
 10
14.5303
 20
-5.525
 30
0.0
 10
14.5966
 20
-5.5612
 30
0.0
 10
14.5966
 20
-5.5612
 30
0.0
 10
14.663
 20
-5.5974
 30
0.0
 10
14.734
 20
-5.6158
 30
0.0
 10
14.8102
 20
-5.6158
 30
0.0
 10
14.8102
 20
-5.6158
 30
0.0
 10
14.9287
 20
-5.6158
 30
0.0
 10
15.0266
 20
-5.5777
 30
0.0
 10
15.1037
 20
-5.501
 30
0.0
 10
15.1037
 20
-5.501
 30
0.0
 10
15.1808
 20
-5.4248
 30
0.0
 10
15.2194
 20
-5.3279
 30
0.0
 10
15.2194
 20
-5.2103
 30
0.0
 10
15.2194
 20
-5.2103
 30
0.0
 10
15.2194
 20
-5.0908
 30
0.0
 10
15.1799
 20
-4.9921
 30
0.0
 10
15.1004
 20
-4.914
 30
0.0
 10
15.1004
 20
-4.914
 30
0.0
 10
15.0209
 20
-4.8359
 30
0.0
 10
14.9212
 20
-4.7969
 30
0.0
 10
14.8017
 20
-4.7969
 30
0.0
 10
14.8017
 20
-4.7969
 30
0.0
 10
14.6851
 20
-4.7969
 30
0.0
 10
14.5886
 20
-4.8354
 30
0.0
 10
14.512
 20
-4.9126
 30
0.0
 10
14.512
 20
-4.9126
 30
0.0
 10
14.4353
 20
-4.9902
 30
0.0
 10
14.3967
 20
-5.0866
 30
0.0
 10
14.3967
 20
-5.2023
 30
0.0
  0
SPLINE
  5
A0
330
1F
100
AcDbEntity
  8
DATUMS
 62
   250
100
AcDbSpline
210
0.0
220
0.0
230
1.0
 70
    11
 71
     3
 72
    28
 73
    24
 74
     0
 42
0.0000000001
 43
0.0000000001
 40
0.0
 40
0.0
 40
0.0
 40
0.0
 40
0.1428571428571428
 40
0.1428571428571428
 40
0.1428571428571428
 40
0.1428571428571428
 40
0.2857142857142857
 40
0.2857142857142857
 40
0.2857142857142857
 40
0.2857142857142857
 40
0.4285714285714285
 40
0.4285714285714285
 40
0.4285714285714285
 40
0.4285714285714285
 40
0.5714285714285714
 40
0.5714285714285714
 40
0.5714285714285714
 40
0.5714285714285714
 40
0.7142857142857143
 40
0.7142857142857143
 40
0.7142857142857143
 40
0.7142857142857143
 40
1.0
 40
1.0
 40
1.0
 40
1.0
 10
15.7956
 20
-4.4803
 30
0.0
 10
15.7956
 20
-4.4803
 30
0.0
 10
15.7265
 20
-4.0955
 30
0.0
 10
15.7265
 20
-4.0955
 30
0.0
 10
15.7265
 20
-4.0955
 30
0.0
 10
15.7265
 20
-4.0955
 30
0.0
 10
15.7265
 20
-3.7649
 30
0.0
 10
15.7265
 20
-3.7649
 30
0.0
 10
15.7265
 20
-3.7649
 30
0.0
 10
15.7265
 20
-3.7649
 30
0.0
 10
16.0091
 20
-3.7649
 30
0.0
 10
16.0091
 20
-3.7649
 30
0.0
 10
16.0091
 20
-3.7649
 30
0.0
 10
16.0091
 20
-3.7649
 30
0.0
 10
16.0091
 20
-4.0955
 30
0.0
 10
16.0091
 20
-4.0955
 30
0.0
 10
16.0091
 20
-4.0955
 30
0.0
 10
16.0091
 20
-4.0955
 30
0.0
 10
15.9471
 20
-4.4803
 30
0.0
 10
15.9471
 20
-4.4803
 30
0.0
 10
15.9471
 20
-4.4803
 30
0.0
 10
15.9471
 20
-4.4803
 30
0.0
 10
15.7956
 20
-4.4803
 30
0.0
 10
15.7956
 20
-4.4803
 30
0.0
  0
SPLINE
  5
A1
330
1F
100
AcDbEntity
  8
DATUMS
 62
   250
100
AcDbSpline
210
0.0
220
0.0
230
1.0
 70
    11
 71
     3
 72
    28
 73
    24
 74
     0
 42
0.0000000001
 43
0.0000000001
 40
0.0
 40
0.0
 40
0.0
 40
0.0
 40
0.1428571428571428
 40
0.1428571428571428
 40
0.1428571428571428
 40
0.1428571428571428
 40
0.2857142857142857
 40
0.2857142857142857
 40
0.2857142857142857
 40
0.2857142857142857
 40
0.4285714285714285
 40
0.4285714285714285
 40
0.4285714285714285
 40
0.4285714285714285
 40
0.5714285714285714
 40
0.5714285714285714
 40
0.5714285714285714
 40
0.5714285714285714
 40
0.7142857142857143
 40
0.7142857142857143
 40
0.7142857142857143
 40
0.7142857142857143
 40
1.0
 40
1.0
 40
1.0
 40
1.0
 10
16.2519
 20
-4.4803
 30
0.0
 10
16.2519
 20
-4.4803
 30
0.0
 10
16.1841
 20
-4.0955
 30
0.0
 10
16.1841
 20
-4.0955
 30
0.0
 10
16.1841
 20
-4.0955
 30
0.0
 10
16.1841
 20
-4.0955
 30
0.0
 10
16.1841
 20
-3.7649
 30
0.0
 10
16.1841
 20
-3.7649
 30
0.0
 10
16.1841
 20
-3.7649
 30
0.0
 10
16.1841
 20
-3.7649
 30
0.0
 10
16.4668
 20
-3.7649
 30
0.0
 10
16.4668
 20
-3.7649
 30
0.0
 10
16.4668
 20
-3.7649
 30
0.0
 10
16.4668
 20
-3.7649
 30
0.0
 10
16.4668
 20
-4.0955
 30
0.0
 10
16.4668
 20
-4.0955
 30
0.0
 10
16.4668
 20
-4.0955
 30
0.0
 10
16.4668
 20
-4.0955
 30
0.0
 10
16.4005
 20
-4.4803
 30
0.0
 10
16.4005
 20
-4.4803
 30
0.0
 10
16.4005
 20
-4.4803
 30
0.0
 10
16.4005
 20
-4.4803
 30
0.0
 10
16.2519
 20
-4.4803
 30
0.0
 10
16.2519
 20
-4.4803
 30
0.0
  0
SPLINE
  5
A2
330
1F
100
AcDbEntity
  8
DATUMS
 62
   250
100
AcDbSpline
210
0.0
220
0.0
230
1.0
 70
    11
 71
     3
 72
    20
 73
    16
 74
     0
 42
0.0000000001
 43
0.0000000001
 40
0.0
 40
0.0
 40
0.0
 40
0.0
 40
0.2
 40
0.2
 40
0.2
 40
0.2
 40
0.4
 40
0.4
 40
0.4
 40
0.4
 40
0.6
 40
0.6
 40
0.6
 40
0.6
 40
1.0
 40
1.0
 40
1.0
 40
1.0
 10
18.6931
 20
-6.6116
 30
0.0
 10
18.6931
 20
-6.6116
 30
0.0
 10
15.6931
 20
-6.1735
 30
0.0
 10
15.6931
 20
-6.1735
 30
0.0
 10
15.6931
 20
-6.1735
 30
0.0
 10
15.6931
 20
-6.1735
 30
0.0
 10
15.6931
 20
-7.1404
 30
0.0
 10
15.6931
 20
-7.1404
 30
0.0
 10
15.6931
 20
-7.1404
 30
0.0
 10
15.6931
 20
-7.1404
 30
0.0
 10
18.6931
 20
-6.6129
 30
0.0
 10
18.6931
 20
-6.6129
 30
0.0
 10
18.6931
 20
-6.6129
 30
0.0
 10
18.6931
 20
-6.6129
 30
0.0
 10
18.6931
 20
-6.6116
 30
0.0
 10
18.6931
 20
-6.6116
 30
0.0
  0
SPLINE
  5
A3
330
1F
100
AcDbEntity
  8
DATUMS
 62
   250
100
AcDbSpline
210
0.0
220
0.0
230
1.0
 70
    11
 71
     3
 72
    20
 73
    16
 74
     0
 42
0.0000000001
 43
0.0000000001
 40
0.0
 40
0.0
 40
0.0
 40
0.0
 40
0.2
 40
0.2
 40
0.2
 40
0.2
 40
0.4
 40
0.4
 40
0.4
 40
0.4
 40
0.6
 40
0.6
 40
0.6
 40
0.6
 40
1.0
 40
1.0
 40
1.0
 40
1.0
 10
23.0696
 20
-6.6273
 30
0.0
 10
23.0696
 20
-6.6273
 30
0.0
 10
26.0697
 20
-7.0653
 30
0.0
 10
26.0697
 20
-7.0653
 30
0.0
 10
26.0697
 20
-7.0653
 30
0.0
 10
26.0697
 20
-7.0653
 30
0.0
 10
26.0697
 20
-6.0984
 30
0.0
 10
26.0697
 20
-6.0984
 30
0.0
 10
26.0697
 20
-6.0984
 30
0.0
 10
26.0697
 20
-6.0984
 30
0.0
 10
23.0696
 20
-6.6259
 30
0.0
 10
23.0696
 20
-6.6259
 30
0.0
 10
23.0696
 20
-6.6259
 30
0.0
 10
23.0696
 20
-6.6259
 30
0.0
 10
23.0696
 20
-6.6273
 30
0.0
 10
23.0696
 20
-6.6273
 30
0.0
  0
SPLINE
  5
A4
330
1F
100
AcDbEntity
  8
DATUMS
 62
   250
100
AcDbSpline
210
0.0
220
0.0
230
1.0
 70
    24
 71
     3
 72
     8
 73
     4
 74
     0
 42
0.0000000001
 43
0.0000000001
 40
0.0
 40
0.0
 40
0.0
 40
0.0
 40
1.0
 40
1.0
 40
1.0
 40
1.0
 10
8.5393
 20
-6.6208
 30
0.0
 10
8.5393
 20
-6.6208
 30
0.0
 10
26.8448
 20
-6.6208
 30
0.0
 10
26.8448
 20
-6.6208
 30
0.0
  0
SPLINE
  5
A5
330
1F
100
AcDbEntity
  8
DATUMS
  6
NEW_LINE18
 62
   250
100
AcDbSpline
210
0.0
220
0.0
230
1.0
 70
    24
 71
     3
 72
     8
 73
     4
 74
     0
 42
0.0000000001
 43
0.0000000001
 40
0.0
 40
0.0
 40
0.0
 40
0.0
 40
1.0
 40
1.0
 40
1.0
 40
1.0
 10
18.7252
 20
-2.2242
 30
0.0
 10
18.7252
 20
-2.2242
 30
0.0
 10
18.7252
 20
-7.1191
 30
0.0
 10
18.7252
 20
-7.1191
 30
0.0
  0
SPLINE
  5
A7
330
1F
100
AcDbEntity
  8
DATUMS
  6
NEW_LINE19
 62
   250
100
AcDbSpline
210
0.0
220
0.0
230
1.0
 70
    24
 71
     3
 72
     8
 73
     4
 74
     0
 42
0.0000000001
 43
0.0000000001
 40
0.0
 40
0.0
 40
0.0
 40
0.0
 40
1.0
 40
1.0
 40
1.0
 40
1.0
 10
23.0647
 20
-2.1085
 30
0.0
 10
23.0647
 20
-2.1085
 30
0.0
 10
23.0647
 20
-7.075
 30
0.0
 10
23.0647
 20
-7.075
 30
0.0
  0
SPLINE
  5
A9
330
1F
100
AcDbEntity
  8
DATUMS
 62
   250
100
AcDbSpline
210
0.0
220
0.0
230
1.0
 70
    24
 71
     3
 72
     8
 73
     4
 74
     0
 42
0.0000000001
 43
0.0000000001
 40
0.0
 40
0.0
 40
0.0
 40
0.0
 40
1.0
 40
1.0
 40
1.0
 40
1.0
 10
-16.0568
 20
36.2494
 30
0.0
 10
-16.0568
 20
36.2494
 30
0.0
 10
-10.8928
 20
36.3625
 30
0.0
 10
-10.8928
 20
36.3625
 30
0.0
  0
SPLINE
  5
AA
330
1F
100
AcDbEntity
  8
DATUMS
 62
   250
100
AcDbSpline
210
0.0
220
0.0
230
1.0
 70
    24
 71
     3
 72
     8
 73
     4
 74
     0
 42
0.0000000001
 43
0.0000000001
 40
0.0
 40
0.0
 40
0.0
 40
0.0
 40
1.0
 40
1.0
 40
1.0
 40
1.0
 10
-16.0569
 20
36.7269
 30
0.0
 10
-16.0569
 20
36.7269
 30
0.0
 10
-10.8929
 20
36.8399
 30
0.0
 10
-10.8929
 20
36.8399
 30
0.0
  0
SPLINE
  5
AB
330
1F
100
AcDbEntity
  8
DATUMS
 62
   250
100
AcDbSpline
210
0.0
220
0.0
230
1.0
 70
    24
 71
     3
 72
     8
 73
     4
 74
     0
 42
0.0000000001
 43
0.0000000001
 40
0.0
 40
0.0
 40
0.0
 40
0.0
 40
1.0
 40
1.0
 40
1.0
 40
1.0
 10
-16.0569
 20
37.2043
 30
0.0
 10
-16.0569
 20
37.2043
 30
0.0
 10
-10.893
 20
37.3174
 30
0.0
 10
-10.893
 20
37.3174
 30
0.0
  0
SPLINE
  5
AC
330
1F
100
AcDbEntity
  8
DATUMS
 62
   250
100
AcDbSpline
210
0.0
220
0.0
230
1.0
 70
    24
 71
     3
 72
     8
 73
     4
 74
     0
 42
0.0000000001
 43
0.0000000001
 40
0.0
 40
0.0
 40
0.0
 40
0.0
 40
1.0
 40
1.0
 40
1.0
 40
1.0
 10
-16.057
 20
37.6818
 30
0.0
 10
-16.057
 20
37.6818
 30
0.0
 10
-10.893
 20
37.7948
 30
0.0
 10
-10.893
 20
37.7948
 30
0.0
  0
SPLINE
  5
AD
330
1F
100
AcDbEntity
  8
DATUMS
 62
   250
100
AcDbSpline
210
0.0
220
0.0
230
1.0
 70
    24
 71
     3
 72
     8
 73
     4
 74
     0
 42
0.0000000001
 43
0.0000000001
 40
0.0
 40
0.0
 40
0.0
 40
0.0
 40
1.0
 40
1.0
 40
1.0
 40
1.0
 10
18.3337
 20
35.6937
 30
0.0
 10
18.3337
 20
35.6937
 30
0.0
 10
23.4534
 20
35.8057
 30
0.0
 10
23.4534
 20
35.8057
 30
0.0
  0
SPLINE
  5
AE
330
1F
100
AcDbEntity
  8
DATUMS
 62
   250
100
AcDbSpline
210
0.0
220
0.0
230
1.0
 70
    24
 71
     3
 72
     8
 73
     4
 74
     0
 42
0.0000000001
 43
0.0000000001
 40
0.0
 40
0.0
 40
0.0
 40
0.0
 40
1.0
 40
1.0
 40
1.0
 40
1.0
 10
18.3336
 20
36.167
 30
0.0
 10
18.3336
 20
36.167
 30
0.0
 10
23.4533
 20
36.2791
 30
0.0
 10
23.4533
 20
36.2791
 30
0.0
  0
SPLINE
  5
AF
330
1F
100
AcDbEntity
  8
DATUMS
 62
   250
100
AcDbSpline
210
0.0
220
0.0
230
1.0
 70
    24
 71
     3
 72
     8
 73
     4
 74
     0
 42
0.0000000001
 43
0.0000000001
 40
0.0
 40
0.0
 40
0.0
 40
0.0
 40
1.0
 40
1.0
 40
1.0
 40
1.0
 10
18.3336
 20
36.6404
 30
0.0
 10
18.3336
 20
36.6404
 30
0.0
 10
23.4532
 20
36.7525
 30
0.0
 10
23.4532
 20
36.7525
 30
0.0
  0
SPLINE
  5
B0
330
1F
100
AcDbEntity
  8
DATUMS
 62
   250
100
AcDbSpline
210
0.0
220
0.0
230
1.0
 70
    24
 71
     3
 72
     8
 73
     4
 74
     0
 42
0.0000000001
 43
0.0000000001
 40
0.0
 40
0.0
 40
0.0
 40
0.0
 40
1.0
 40
1.0
 40
1.0
 40
1.0
 10
18.3335
 20
37.1137
 30
0.0
 10
18.3335
 20
37.1137
 30
0.0
 10
23.4532
 20
37.2258
 30
0.0
 10
23.4532
 20
37.2258
 30
0.0
  0
SPLINE
  5
B1
330
1F
100
AcDbEntity
  8
DATUMS
 62
   250
100
AcDbSpline
210
0.0
220
0.0
230
1.0
 70
    24
 71
     3
 72
     8
 73
     4
 74
     0
 42
0.0000000001
 43
0.0000000001
 40
0.0
 40
0.0
 40
0.0
 40
0.0
 40
1.0
 40
1.0
 40
1.0
 40
1.0
 10
18.3334
 20
37.5871
 30
0.0
 10
18.3334
 20
37.5871
 30
0.0
 10
23.4531
 20
37.6992
 30
0.0
 10
23.4531
 20
37.6992
 30
0.0
  0
SPLINE
  5
B2
330
1F
100
AcDbEntity
  8
DATUMS
 62
   250
100
AcDbSpline
210
0.0
220
0.0
230
1.0
 70
    11
 71
     3
 72
    52
 73
    48
 74
     0
 42
0.0000000001
 43
0.0000000001
 40
0.0
 40
0.0
 40
0.0
 40
0.0
 40
0.0769230769230769
 40
0.0769230769230769
 40
0.0769230769230769
 40
0.0769230769230769
 40
0.1538461538461539
 40
0.1538461538461539
 40
0.1538461538461539
 40
0.1538461538461539
 40
0.2307692307692308
 40
0.2307692307692308
 40
0.2307692307692308
 40
0.2307692307692308
 40
0.3076923076923077
 40
0.3076923076923077
 40
0.3076923076923077
 40
0.3076923076923077
 40
0.3846153846153846
 40
0.3846153846153846
 40
0.3846153846153846
 40
0.3846153846153846
 40
0.4615384615384616
 40
0.4615384615384616
 40
0.4615384615384616
 40
0.4615384615384616
 40
0.5384615384615384
 40
0.5384615384615384
 40
0.5384615384615384
 40
0.5384615384615384
 40
0.6153846153846154
 40
0.6153846153846154
 40
0.6153846153846154
 40
0.6153846153846154
 40
0.6923076923076923
 40
0.6923076923076923
 40
0.6923076923076923
 40
0.6923076923076923
 40
0.7692307692307693
 40
0.7692307692307693
 40
0.7692307692307693
 40
0.7692307692307693
 40
0.8461538461538461
 40
0.8461538461538461
 40
0.8461538461538461
 40
0.8461538461538461
 40
1.0
 40
1.0
 40
1.0
 40
1.0
 10
18.3209
 20
27.4216
 30
0.0
 10
18.3453
 20
27.9057
 30
0.0
 10
18.4593
 20
28.354
 30
0.0
 10
18.74
 20
28.7572
 30
0.0
 10
18.74
 20
28.7572
 30
0.0
 10
18.9205
 20
29.0167
 30
0.0
 10
19.1538
 20
29.2384
 30
0.0
 10
19.4221
 20
29.4056
 30
0.0
 10
19.4221
 20
29.4056
 30
0.0
 10
19.6904
 20
29.5728
 30
0.0
 10
19.9922
 20
29.6846
 30
0.0
 10
20.3048
 20
29.7326
 30
0.0
 10
20.3048
 20
29.7326
 30
0.0
 10
20.6172
 20
29.7803
 30
0.0
 10
20.9387
 20
29.764
 30
0.0
 10
21.2448
 20
29.6849
 30
0.0
 10
21.2448
 20
29.6849
 30
0.0
 10
21.5508
 20
29.6056
 30
0.0
 10
21.8398
 20
29.4638
 30
0.0
 10
22.0897
 20
29.2704
 30
0.0
 10
22.0897
 20
29.2704
 30
0.0
 10
22.9223
 20
28.6258
 30
0.0
 10
23.2224
 20
27.4673
 30
0.0
 10
22.8072
 20
26.4996
 30
0.0
 10
22.8072
 20
26.4996
 30
0.0
 10
22.7138
 20
26.2818
 30
0.0
 10
22.587
 20
26.0786
 30
0.0
 10
22.4327
 20
25.8987
 30
0.0
 10
22.4327
 20
25.8987
 30
0.0
 10
22.2783
 20
25.7189
 30
0.0
 10
22.0965
 20
25.5629
 30
0.0
 10
21.8953
 20
25.4374
 30
0.0
 10
21.8953
 20
25.4374
 30
0.0
 10
21.5492
 20
25.2217
 30
0.0
 10
21.1784
 20
25.1274
 30
0.0
 10
20.7771
 20
25.0866
 30
0.0
 10
20.7771
 20
25.0866
 30
0.0
 10
20.5358
 20
25.0866
 30
0.0
 10
20.3079
 20
25.0974
 30
0.0
 10
20.0727
 20
25.1582
 30
0.0
 10
20.0727
 20
25.1582
 30
0.0
 10
19.3781
 20
25.3382
 30
0.0
 10
18.7932
 20
25.8404
 30
0.0
 10
18.5103
 20
26.4996
 30
0.0
 10
18.5103
 20
26.4996
 30
0.0
 10
18.3821
 20
26.7982
 30
0.0
 10
18.3371
 20
27.1001
 30
0.0
 10
18.3209
 20
27.4216
 30
0.0
  0
SPLINE
  5
B3
330
1F
100
AcDbEntity
  8
DATUMS
 62
   250
100
AcDbSpline
210
0.0
220
0.0
230
1.0
 70
     8
 71
     3
 72
    40
 73
    36
 74
     0
 42
0.0000000001
 43
0.0000000001
 40
0.0
 40
0.0
 40
0.0
 40
0.0
 40
0.1
 40
0.1
 40
0.1
 40
0.1
 40
0.2
 40
0.2
 40
0.2
 40
0.2
 40
0.3
 40
0.3
 40
0.3
 40
0.3
 40
0.4
 40
0.4
 40
0.4
 40
0.4
 40
0.5
 40
0.5
 40
0.5
 40
0.5
 40
0.6
 40
0.6
 40
0.6
 40
0.6
 40
0.7
 40
0.7
 40
0.7
 40
0.7
 40
0.8
 40
0.8
 40
0.8
 40
0.8
 40
1.0
 40
1.0
 40
1.0
 40
1.0
 10
19.5249
 20
28.111
 30
0.0
 10
19.6686
 20
28.3144
 30
0.0
 10
19.8237
 20
28.4834
 30
0.0
 10
20.0482
 20
28.5997
 30
0.0
 10
20.0482
 20
28.5997
 30
0.0
 10
20.7838
 20
28.9808
 30
0.0
 10
21.7129
 20
28.5773
 30
0.0
 10
21.9364
 20
27.7796
 30
0.0
 10
21.9364
 20
27.7796
 30
0.0
 10
21.9854
 20
27.605
 30
0.0
 10
21.998
 20
27.4206
 30
0.0
 10
21.9732
 20
27.2409
 30
0.0
 10
21.9732
 20
27.2409
 30
0.0
 10
21.9486
 20
27.0611
 30
0.0
 10
21.8868
 20
26.887
 30
0.0
 10
21.7926
 20
26.7322
 30
0.0
 10
21.7926
 20
26.7322
 30
0.0
 10
21.6982
 20
26.5771
 30
0.0
 10
21.5721
 20
26.4421
 30
0.0
 10
21.424
 20
26.3375
 30
0.0
 10
21.424
 20
26.3375
 30
0.0
 10
21.2174
 20
26.1917
 30
0.0
 10
20.9958
 20
26.1317
 30
0.0
 10
20.7492
 20
26.0978
 30
0.0
 10
20.7492
 20
26.0978
 30
0.0
 10
20.5625
 20
26.0978
 30
0.0
 10
20.3926
 20
26.108
 30
0.0
 10
20.2143
 20
26.1712
 30
0.0
 10
20.2143
 20
26.1712
 30
0.0
 10
19.6291
 20
26.3793
 30
0.0
 10
19.2596
 20
26.9869
 30
0.0
 10
19.3441
 20
27.6022
 30
0.0
 10
19.3441
 20
27.6022
 30
0.0
 10
19.3785
 20
27.8529
 30
0.0
 10
19.4859
 20
28.0556
 30
0.0
 10
19.6295
 20
28.2591
 30
0.0
  0
SPLINE
  5
B4
330
1F
100
AcDbEntity
  8
DATUMS
 62
   250
100
AcDbSpline
210
0.0
220
0.0
230
1.0
 70
    24
 71
     3
 72
     8
 73
     4
 74
     0
 42
0.0000000001
 43
0.0000000001
 40
0.0
 40
0.0
 40
0.0
 40
0.0
 40
1.0
 40
1.0
 40
1.0
 40
1.0
 10
18.2733
 20
35.3832
 30
0.0
 10
18.2733
 20
35.3832
 30
0.0
 10
18.2733
 20
37.9865
 30
0.0
 10
18.2733
 20
37.9865
 30
0.0
  0
SPLINE
  5
B5
330
1F
100
AcDbEntity
  8
DATUMS
 62
   250
100
AcDbSpline
210
0.0
220
0.0
230
1.0
 70
    24
 71
     3
 72
     8
 73
     4
 74
     0
 42
0.0000000001
 43
0.0000000001
 40
0.0
 40
0.0
 40
0.0
 40
0.0
 40
1.0
 40
1.0
 40
1.0
 40
1.0
 10
18.2197
 20
35.3832
 30
0.0
 10
18.2197
 20
35.3832
 30
0.0
 10
18.2197
 20
33.7402
 30
0.0
 10
18.2197
 20
33.7402
 30
0.0
  0
SPLINE
  5
B6
330
1F
100
AcDbEntity
  8
DATUMS
 62
   250
100
AcDbSpline
210
0.0
220
0.0
230
1.0
 70
    24
 71
     3
 72
     8
 73
     4
 74
     0
 42
0.0000000001
 43
0.0000000001
 40
0.0
 40
0.0
 40
0.0
 40
0.0
 40
1.0
 40
1.0
 40
1.0
 40
1.0
 10
23.6033
 20
35.3832
 30
0.0
 10
23.6033
 20
35.3832
 30
0.0
 10
18.2197
 20
35.3832
 30
0.0
 10
18.2197
 20
35.3832
 30
0.0
  0
SPLINE
  5
B7
330
1F
100
AcDbEntity
  8
DATUMS
 62
   250
100
AcDbSpline
210
0.0
220
0.0
230
1.0
 70
    24
 71
     3
 72
     8
 73
     4
 74
     0
 42
0.0000000001
 43
0.0000000001
 40
0.0
 40
0.0
 40
0.0
 40
0.0
 40
1.0
 40
1.0
 40
1.0
 40
1.0
 10
23.6033
 20
33.7402
 30
0.0
 10
23.6033
 20
33.7402
 30
0.0
 10
23.6033
 20
35.3832
 30
0.0
 10
23.6033
 20
35.3832
 30
0.0
  0
SPLINE
  5
B8
330
1F
100
AcDbEntity
  8
DATUMS
 62
   250
100
AcDbSpline
210
0.0
220
0.0
230
1.0
 70
    24
 71
     3
 72
     8
 73
     4
 74
     0
 42
0.0000000001
 43
0.0000000001
 40
0.0
 40
0.0
 40
0.0
 40
0.0
 40
1.0
 40
1.0
 40
1.0
 40
1.0
 10
23.5497
 20
35.3832
 30
0.0
 10
23.5497
 20
35.3832
 30
0.0
 10
23.5497
 20
37.9865
 30
0.0
 10
23.5497
 20
37.9865
 30
0.0
  0
SPLINE
  5
B9
330
1F
100
AcDbEntity
  8
DATUMS
 62
   250
100
AcDbSpline
210
0.0
220
0.0
230
1.0
 70
    24
 71
     3
 72
     8
 73
     4
 74
     0
 42
0.0000000001
 43
0.0000000001
 40
0.0
 40
0.0
 40
0.0
 40
0.0
 40
1.0
 40
1.0
 40
1.0
 40
1.0
 10
23.2968
 20
38.2392
 30
0.0
 10
23.2968
 20
38.2392
 30
0.0
 10
23.5497
 20
37.9865
 30
0.0
 10
23.5497
 20
37.9865
 30
0.0
  0
SPLINE
  5
BA
330
1F
100
AcDbEntity
  8
DATUMS
 62
   250
100
AcDbSpline
210
0.0
220
0.0
230
1.0
 70
    24
 71
     3
 72
     8
 73
     4
 74
     0
 42
0.0000000001
 43
0.0000000001
 40
0.0
 40
0.0
 40
0.0
 40
0.0
 40
1.0
 40
1.0
 40
1.0
 40
1.0
 10
22.1218
 20
35.3832
 30
0.0
 10
22.1218
 20
35.3832
 30
0.0
 10
21.8931
 20
35.3832
 30
0.0
 10
21.8931
 20
35.3832
 30
0.0
  0
SPLINE
  5
BB
330
1F
100
AcDbEntity
  8
DATUMS
 62
   250
100
AcDbSpline
210
0.0
220
0.0
230
1.0
 70
    24
 71
     3
 72
     8
 73
     4
 74
     0
 42
0.0000000001
 43
0.0000000001
 40
0.0
 40
0.0
 40
0.0
 40
0.0
 40
1.0
 40
1.0
 40
1.0
 40
1.0
 10
19.9297
 20
35.3832
 30
0.0
 10
19.9297
 20
35.3832
 30
0.0
 10
19.7011
 20
35.3832
 30
0.0
 10
19.7011
 20
35.3832
 30
0.0
  0
SPLINE
  5
BC
330
1F
100
AcDbEntity
  8
DATUMS
 62
   250
100
AcDbSpline
210
0.0
220
0.0
230
1.0
 70
    24
 71
     3
 72
     8
 73
     4
 74
     0
 42
0.0000000001
 43
0.0000000001
 40
0.0
 40
0.0
 40
0.0
 40
0.0
 40
1.0
 40
1.0
 40
1.0
 40
1.0
 10
20.9114
 20
35.1427
 30
0.0
 10
20.9114
 20
35.1427
 30
0.0
 10
20.9114
 20
33.9807
 30
0.0
 10
20.9114
 20
33.9807
 30
0.0
  0
SPLINE
  5
BD
330
1F
100
AcDbEntity
  8
DATUMS
 62
   250
100
AcDbSpline
210
0.0
220
0.0
230
1.0
 70
    24
 71
     3
 72
     8
 73
     4
 74
     0
 42
0.0000000001
 43
0.0000000001
 40
0.0
 40
0.0
 40
0.0
 40
0.0
 40
1.0
 40
1.0
 40
1.0
 40
1.0
 10
20.9114
 20
37.9865
 30
0.0
 10
20.9114
 20
37.9865
 30
0.0
 10
22.9076
 20
37.9865
 30
0.0
 10
22.9076
 20
37.9865
 30
0.0
  0
SPLINE
  5
BE
330
1F
100
AcDbEntity
  8
DATUMS
 62
   250
100
AcDbSpline
210
0.0
220
0.0
230
1.0
 70
    24
 71
     3
 72
     8
 73
     4
 74
     0
 42
0.0000000001
 43
0.0000000001
 40
0.0
 40
0.0
 40
0.0
 40
0.0
 40
1.0
 40
1.0
 40
1.0
 40
1.0
 10
23.5497
 20
37.9865
 30
0.0
 10
23.5497
 20
37.9865
 30
0.0
 10
22.9076
 20
37.9865
 30
0.0
 10
22.9076
 20
37.9865
 30
0.0
  0
SPLINE
  5
BF
330
1F
100
AcDbEntity
  8
DATUMS
 62
   250
100
AcDbSpline
210
0.0
220
0.0
230
1.0
 70
    24
 71
     3
 72
     8
 73
     4
 74
     0
 42
0.0000000001
 43
0.0000000001
 40
0.0
 40
0.0
 40
0.0
 40
0.0
 40
1.0
 40
1.0
 40
1.0
 40
1.0
 10
19.0887
 20
37.9865
 30
0.0
 10
19.0887
 20
37.9865
 30
0.0
 10
18.2733
 20
37.9865
 30
0.0
 10
18.2733
 20
37.9865
 30
0.0
  0
SPLINE
  5
C0
330
1F
100
AcDbEntity
  8
DATUMS
 62
   250
100
AcDbSpline
210
0.0
220
0.0
230
1.0
 70
    24
 71
     3
 72
     8
 73
     4
 74
     0
 42
0.0000000001
 43
0.0000000001
 40
0.0
 40
0.0
 40
0.0
 40
0.0
 40
1.0
 40
1.0
 40
1.0
 40
1.0
 10
20.9114
 20
37.9865
 30
0.0
 10
20.9114
 20
37.9865
 30
0.0
 10
19.0887
 20
37.9865
 30
0.0
 10
19.0887
 20
37.9865
 30
0.0
  0
SPLINE
  5
C1
330
1F
100
AcDbEntity
  8
DATUMS
 62
   250
100
AcDbSpline
210
0.0
220
0.0
230
1.0
 70
    24
 71
     3
 72
     8
 73
     4
 74
     0
 42
0.0000000001
 43
0.0000000001
 40
0.0
 40
0.0
 40
0.0
 40
0.0
 40
1.0
 40
1.0
 40
1.0
 40
1.0
 10
23.2854
 20
38.2392
 30
0.0
 10
21.6991
 20
38.2392
 30
0.0
 10
20.1126
 20
38.2392
 30
0.0
 10
18.5261
 20
38.2392
 30
0.0
  0
SPLINE
  5
C2
330
1F
100
AcDbEntity
  8
DATUMS
 62
   250
100
AcDbSpline
210
0.0
220
0.0
230
1.0
 70
    24
 71
     3
 72
     8
 73
     4
 74
     0
 42
0.0000000001
 43
0.0000000001
 40
0.0
 40
0.0
 40
0.0
 40
0.0
 40
1.0
 40
1.0
 40
1.0
 40
1.0
 10
18.5261
 20
38.2392
 30
0.0
 10
18.5261
 20
38.2392
 30
0.0
 10
18.2733
 20
37.9865
 30
0.0
 10
18.2733
 20
37.9865
 30
0.0
  0
SPLINE
  5
C3
330
1F
100
AcDbEntity
  8
DATUMS
 62
   250
100
AcDbSpline
210
0.0
220
0.0
230
1.0
 70
     8
 71
     3
 72
    20
 73
    16
 74
     0
 42
0.0000000001
 43
0.0000000001
 40
0.0
 40
0.0
 40
0.0
 40
0.0
 40
0.2
 40
0.2
 40
0.2
 40
0.2
 40
0.4
 40
0.4
 40
0.4
 40
0.4
 40
0.6
 40
0.6
 40
0.6
 40
0.6
 40
1.0
 40
1.0
 40
1.0
 40
1.0
 10
23.6033
 20
35.1427
 30
0.0
 10
23.1552
 20
35.2797
 30
0.0
 10
22.726
 20
35.3654
 30
0.0
 10
22.2574
 20
35.3832
 30
0.0
 10
22.2574
 20
35.3832
 30
0.0
 10
21.7887
 20
35.3654
 30
0.0
 10
21.3594
 20
35.2797
 30
0.0
 10
20.9114
 20
35.1427
 30
0.0
 10
20.9114
 20
35.1427
 30
0.0
 10
20.4634
 20
35.2797
 30
0.0
 10
20.0342
 20
35.3654
 30
0.0
 10
19.5656
 20
35.3832
 30
0.0
 10
19.5656
 20
35.3832
 30
0.0
 10
19.0969
 20
35.3654
 30
0.0
 10
18.6676
 20
35.2797
 30
0.0
 10
18.2197
 20
35.1427
 30
0.0
  0
SPLINE
  5
C4
330
1F
100
AcDbEntity
  8
DATUMS
 62
   250
100
AcDbSpline
210
0.0
220
0.0
230
1.0
 70
     8
 71
     3
 72
    12
 73
     8
 74
     0
 42
0.0000000001
 43
0.0000000001
 40
0.0
 40
0.0
 40
0.0
 40
0.0
 40
0.3333333333333333
 40
0.3333333333333333
 40
0.3333333333333333
 40
0.3333333333333333
 40
1.0
 40
1.0
 40
1.0
 40
1.0
 10
18.2197
 20
33.9807
 30
0.0
 10
18.8371
 20
33.7918
 30
0.0
 10
19.4485
 20
33.685
 30
0.0
 10
20.0942
 20
33.7796
 30
0.0
 10
20.0942
 20
33.7796
 30
0.0
 10
20.2747
 20
33.8062
 30
0.0
 10
20.4545
 20
33.8461
 30
0.0
 10
20.6304
 20
33.8947
 30
0.0
  0
SPLINE
  5
C5
330
1F
100
AcDbEntity
  8
DATUMS
 62
   250
100
AcDbSpline
210
0.0
220
0.0
230
1.0
 70
     8
 71
     3
 72
    12
 73
     8
 74
     0
 42
0.0000000001
 43
0.0000000001
 40
0.0
 40
0.0
 40
0.0
 40
0.0
 40
0.3333333333333333
 40
0.3333333333333333
 40
0.3333333333333333
 40
0.3333333333333333
 40
1.0
 40
1.0
 40
1.0
 40
1.0
 10
20.6304
 20
33.8947
 30
0.0
 10
20.6304
 20
33.8947
 30
0.0
 10
20.9114
 20
33.9807
 30
0.0
 10
20.9114
 20
33.9807
 30
0.0
 10
20.9114
 20
33.9807
 30
0.0
 10
20.9114
 20
33.9807
 30
0.0
 10
21.1925
 20
33.8947
 30
0.0
 10
21.1925
 20
33.8947
 30
0.0
  0
SPLINE
  5
C6
330
1F
100
AcDbEntity
  8
DATUMS
 62
   250
100
AcDbSpline
210
0.0
220
0.0
230
1.0
 70
     8
 71
     3
 72
    12
 73
     8
 74
     0
 42
0.0000000001
 43
0.0000000001
 40
0.0
 40
0.0
 40
0.0
 40
0.0
 40
0.3333333333333333
 40
0.3333333333333333
 40
0.3333333333333333
 40
0.3333333333333333
 40
1.0
 40
1.0
 40
1.0
 40
1.0
 10
21.1925
 20
33.8947
 30
0.0
 10
21.3686
 20
33.846
 30
0.0
 10
21.5482
 20
33.8062
 30
0.0
 10
21.7288
 20
33.7796
 30
0.0
 10
21.7288
 20
33.7796
 30
0.0
 10
22.3744
 20
33.685
 30
0.0
 10
22.9859
 20
33.7918
 30
0.0
 10
23.6033
 20
33.9807
 30
0.0
  0
SPLINE
  5
C7
330
1F
100
AcDbEntity
  8
DATUMS
 62
   250
100
AcDbSpline
210
0.0
220
0.0
230
1.0
 70
    24
 71
     3
 72
     8
 73
     4
 74
     0
 42
0.0000000001
 43
0.0000000001
 40
0.0
 40
0.0
 40
0.0
 40
0.0
 40
1.0
 40
1.0
 40
1.0
 40
1.0
 10
18.9906
 20
-1.9729
 30
0.0
 10
18.9906
 20
-1.9729
 30
0.0
 10
22.8323
 20
-1.9729
 30
0.0
 10
22.8323
 20
-1.9729
 30
0.0
  0
SPLINE
  5
C8
330
1F
100
AcDbEntity
  8
DATUMS
 62
   250
100
AcDbSpline
210
0.0
220
0.0
230
1.0
 70
    24
 71
     3
 72
     8
 73
     4
 74
     0
 42
0.0000000001
 43
0.0000000001
 40
0.0
 40
0.0
 40
0.0
 40
0.0
 40
1.0
 40
1.0
 40
1.0
 40
1.0
 10
20.9114
 20
-1.8465
 30
0.0
 10
20.9114
 20
-1.8465
 30
0.0
 10
18.8673
 20
-1.8465
 30
0.0
 10
18.8673
 20
-1.8465
 30
0.0
  0
SPLINE
  5
C9
330
1F
100
AcDbEntity
  8
DATUMS
 62
   250
100
AcDbSpline
210
0.0
220
0.0
230
1.0
 70
    24
 71
     3
 72
     8
 73
     4
 74
     0
 42
0.0000000001
 43
0.0000000001
 40
0.0
 40
0.0
 40
0.0
 40
0.0
 40
1.0
 40
1.0
 40
1.0
 40
1.0
 10
21.1328
 20
-1.8465
 30
0.0
 10
21.1328
 20
-1.8465
 30
0.0
 10
22.9557
 20
-1.8465
 30
0.0
 10
22.9557
 20
-1.8465
 30
0.0
  0
SPLINE
  5
CA
330
1F
100
AcDbEntity
  8
DATUMS
 62
   250
100
AcDbSpline
210
0.0
220
0.0
230
1.0
 70
    24
 71
     3
 72
     8
 73
     4
 74
     0
 42
0.0000000001
 43
0.0000000001
 40
0.0
 40
0.0
 40
0.0
 40
0.0
 40
1.0
 40
1.0
 40
1.0
 40
1.0
 10
20.9114
 20
-1.9729
 30
0.0
 10
20.9114
 20
-1.9729
 30
0.0
 10
20.9114
 20
-1.6444
 30
0.0
 10
20.9114
 20
-1.6444
 30
0.0
  0
SPLINE
  5
CB
330
1F
100
AcDbEntity
  8
DATUMS
 62
   250
100
AcDbSpline
210
0.0
220
0.0
230
1.0
 70
     8
 71
     3
 72
     8
 73
     4
 74
     0
 42
0.0000000001
 43
0.0000000001
 40
0.0
 40
0.0
 40
0.0
 40
0.0
 40
1.0
 40
1.0
 40
1.0
 40
1.0
 10
18.9906
 20
-1.9729
 30
0.0
 10
18.8202
 20
-1.7982
 30
0.0
 10
18.8673
 20
-1.9054
 30
0.0
 10
18.8673
 20
-1.6444
 30
0.0
  0
SPLINE
  5
CC
330
1F
100
AcDbEntity
  8
DATUMS
 62
   250
100
AcDbSpline
210
0.0
220
0.0
230
1.0
 70
     8
 71
     3
 72
     8
 73
     4
 74
     0
 42
0.0000000001
 43
0.0000000001
 40
0.0
 40
0.0
 40
0.0
 40
0.0
 40
1.0
 40
1.0
 40
1.0
 40
1.0
 10
22.9557
 20
-1.6444
 30
0.0
 10
22.9557
 20
-1.9054
 30
0.0
 10
23.0028
 20
-1.7982
 30
0.0
 10
22.8323
 20
-1.9729
 30
0.0
  0
SPLINE
  5
CD
330
1F
100
AcDbEntity
  8
DATUMS
 62
   250
100
AcDbSpline
210
0.0
220
0.0
230
1.0
 70
    24
 71
     3
 72
     8
 73
     4
 74
     0
 42
0.0000000001
 43
0.0000000001
 40
0.0
 40
0.0
 40
0.0
 40
0.0
 40
1.0
 40
1.0
 40
1.0
 40
1.0
 10
33.5994
 20
4.6238
 30
0.0
 10
33.5994
 20
4.6238
 30
0.0
 10
33.5994
 20
4.6491
 30
0.0
 10
33.5994
 20
4.6491
 30
0.0
  0
SPLINE
  5
CE
330
1F
100
AcDbEntity
  8
DATUMS
 62
   250
100
AcDbSpline
210
0.0
220
0.0
230
1.0
 70
    24
 71
     3
 72
     8
 73
     4
 74
     0
 42
0.0000000001
 43
0.0000000001
 40
0.0
 40
0.0
 40
0.0
 40
0.0
 40
1.0
 40
1.0
 40
1.0
 40
1.0
 10
33.8016
 20
4.6491
 30
0.0
 10
33.8016
 20
4.6491
 30
0.0
 10
33.8016
 20
3.5876
 30
0.0
 10
33.8016
 20
3.5876
 30
0.0
  0
SPLINE
  5
CF
330
1F
100
AcDbEntity
  8
DATUMS
 62
   250
100
AcDbSpline
210
0.0
220
0.0
230
1.0
 70
    24
 71
     3
 72
     8
 73
     4
 74
     0
 42
0.0000000001
 43
0.0000000001
 40
0.0
 40
0.0
 40
0.0
 40
0.0
 40
1.0
 40
1.0
 40
1.0
 40
1.0
 10
33.5994
 20
3.5876
 30
0.0
 10
33.5994
 20
3.5876
 30
0.0
 10
33.5994
 20
3.6128
 30
0.0
 10
33.5994
 20
3.6128
 30
0.0
  0
SPLINE
  5
D0
330
1F
100
AcDbEntity
  8
DATUMS
 62
   250
100
AcDbSpline
210
0.0
220
0.0
230
1.0
 70
    24
 71
     3
 72
     8
 73
     4
 74
     0
 42
0.0000000001
 43
0.0000000001
 40
0.0
 40
0.0
 40
0.0
 40
0.0
 40
1.0
 40
1.0
 40
1.0
 40
1.0
 10
33.8016
 20
3.6128
 30
0.0
 10
33.8016
 20
3.6128
 30
0.0
 10
32.1731
 20
3.6128
 30
0.0
 10
32.1731
 20
3.6128
 30
0.0
  0
SPLINE
  5
D1
330
1F
100
AcDbEntity
  8
DATUMS
 62
   250
100
AcDbSpline
210
0.0
220
0.0
230
1.0
 70
    24
 71
     3
 72
     8
 73
     4
 74
     0
 42
0.0000000001
 43
0.0000000001
 40
0.0
 40
0.0
 40
0.0
 40
0.0
 40
1.0
 40
1.0
 40
1.0
 40
1.0
 10
32.1731
 20
4.6238
 30
0.0
 10
32.1731
 20
4.6238
 30
0.0
 10
32.1731
 20
3.6128
 30
0.0
 10
32.1731
 20
3.6128
 30
0.0
  0
SPLINE
  5
D2
330
1F
100
AcDbEntity
  8
DATUMS
 62
   250
100
AcDbSpline
210
0.0
220
0.0
230
1.0
 70
    24
 71
     3
 72
     8
 73
     4
 74
     0
 42
0.0000000001
 43
0.0000000001
 40
0.0
 40
0.0
 40
0.0
 40
0.0
 40
1.0
 40
1.0
 40
1.0
 40
1.0
 10
33.8016
 20
4.6238
 30
0.0
 10
33.8016
 20
4.6238
 30
0.0
 10
32.1731
 20
4.6238
 30
0.0
 10
32.1731
 20
4.6238
 30
0.0
  0
SPLINE
  5
D3
330
1F
100
AcDbEntity
  8
DATUMS
 62
   250
100
AcDbSpline
210
0.0
220
0.0
230
1.0
 70
    24
 71
     3
 72
     8
 73
     4
 74
     0
 42
0.0000000001
 43
0.0000000001
 40
0.0
 40
0.0
 40
0.0
 40
0.0
 40
1.0
 40
1.0
 40
1.0
 40
1.0
 10
33.5994
 20
1.0854
 30
0.0
 10
33.5994
 20
1.0854
 30
0.0
 10
33.5994
 20
1.1107
 30
0.0
 10
33.5994
 20
1.1107
 30
0.0
  0
SPLINE
  5
D4
330
1F
100
AcDbEntity
  8
DATUMS
 62
   250
100
AcDbSpline
210
0.0
220
0.0
230
1.0
 70
    24
 71
     3
 72
     8
 73
     4
 74
     0
 42
0.0000000001
 43
0.0000000001
 40
0.0
 40
0.0
 40
0.0
 40
0.0
 40
1.0
 40
1.0
 40
1.0
 40
1.0
 10
33.8016
 20
1.1107
 30
0.0
 10
33.8016
 20
1.1107
 30
0.0
 10
33.8016
 20
0.0491
 30
0.0
 10
33.8016
 20
0.0491
 30
0.0
  0
SPLINE
  5
D5
330
1F
100
AcDbEntity
  8
DATUMS
 62
   250
100
AcDbSpline
210
0.0
220
0.0
230
1.0
 70
    24
 71
     3
 72
     8
 73
     4
 74
     0
 42
0.0000000001
 43
0.0000000001
 40
0.0
 40
0.0
 40
0.0
 40
0.0
 40
1.0
 40
1.0
 40
1.0
 40
1.0
 10
33.5994
 20
0.0491
 30
0.0
 10
33.5994
 20
0.0491
 30
0.0
 10
33.5994
 20
0.0744
 30
0.0
 10
33.5994
 20
0.0744
 30
0.0
  0
SPLINE
  5
D6
330
1F
100
AcDbEntity
  8
DATUMS
 62
   250
100
AcDbSpline
210
0.0
220
0.0
230
1.0
 70
    24
 71
     3
 72
     8
 73
     4
 74
     0
 42
0.0000000001
 43
0.0000000001
 40
0.0
 40
0.0
 40
0.0
 40
0.0
 40
1.0
 40
1.0
 40
1.0
 40
1.0
 10
33.8016
 20
0.0744
 30
0.0
 10
33.8016
 20
0.0744
 30
0.0
 10
32.1731
 20
0.0744
 30
0.0
 10
32.1731
 20
0.0744
 30
0.0
  0
SPLINE
  5
D7
330
1F
100
AcDbEntity
  8
DATUMS
 62
   250
100
AcDbSpline
210
0.0
220
0.0
230
1.0
 70
    24
 71
     3
 72
     8
 73
     4
 74
     0
 42
0.0000000001
 43
0.0000000001
 40
0.0
 40
0.0
 40
0.0
 40
0.0
 40
1.0
 40
1.0
 40
1.0
 40
1.0
 10
32.1731
 20
1.0854
 30
0.0
 10
32.1731
 20
1.0854
 30
0.0
 10
32.1731
 20
0.0744
 30
0.0
 10
32.1731
 20
0.0744
 30
0.0
  0
SPLINE
  5
D8
330
1F
100
AcDbEntity
  8
DATUMS
 62
   250
100
AcDbSpline
210
0.0
220
0.0
230
1.0
 70
    24
 71
     3
 72
     8
 73
     4
 74
     0
 42
0.0000000001
 43
0.0000000001
 40
0.0
 40
0.0
 40
0.0
 40
0.0
 40
1.0
 40
1.0
 40
1.0
 40
1.0
 10
33.8016
 20
1.0854
 30
0.0
 10
33.8016
 20
1.0854
 30
0.0
 10
32.1731
 20
1.0854
 30
0.0
 10
32.1731
 20
1.0854
 30
0.0
  0
SPLINE
  5
D9
330
1F
100
AcDbEntity
  8
DATUMS
 62
   250
100
AcDbSpline
210
0.0
220
0.0
230
1.0
 70
    24
 71
     3
 72
     8
 73
     4
 74
     0
 42
0.0000000001
 43
0.0000000001
 40
0.0
 40
0.0
 40
0.0
 40
0.0
 40
1.0
 40
1.0
 40
1.0
 40
1.0
 10
33.5742
 20
4.6238
 30
0.0
 10
33.5742
 20
4.6238
 30
0.0
 10
33.5742
 20
3.6128
 30
0.0
 10
33.5742
 20
3.6128
 30
0.0
  0
SPLINE
  5
DA
330
1F
100
AcDbEntity
  8
DATUMS
 62
   250
100
AcDbSpline
210
0.0
220
0.0
230
1.0
 70
    24
 71
     3
 72
     8
 73
     4
 74
     0
 42
0.0000000001
 43
0.0000000001
 40
0.0
 40
0.0
 40
0.0
 40
0.0
 40
1.0
 40
1.0
 40
1.0
 40
1.0
 10
33.5742
 20
1.0854
 30
0.0
 10
33.5742
 20
1.0854
 30
0.0
 10
33.5742
 20
0.0744
 30
0.0
 10
33.5742
 20
0.0744
 30
0.0
  0
SPLINE
  5
DB
330
1F
100
AcDbEntity
  8
DATUMS
 62
   250
100
AcDbSpline
210
0.0
220
0.0
230
1.0
 70
    24
 71
     3
 72
     8
 73
     4
 74
     0
 42
0.0000000001
 43
0.0000000001
 40
0.0
 40
0.0
 40
0.0
 40
0.0
 40
1.0
 40
1.0
 40
1.0
 40
1.0
 10
32.1731
 20
-1.6444
 30
0.0
 10
32.1731
 20
-1.6444
 30
0.0
 10
32.1731
 20
-1.8465
 30
0.0
 10
32.1731
 20
-1.8465
 30
0.0
  0
SPLINE
  5
DC
330
1F
100
AcDbEntity
  8
DATUMS
 62
   250
100
AcDbSpline
210
0.0
220
0.0
230
1.0
 70
     8
 71
     3
 72
     8
 73
     4
 74
     0
 42
0.0000000001
 43
0.0000000001
 40
0.0
 40
0.0
 40
0.0
 40
0.0
 40
1.0
 40
1.0
 40
1.0
 40
1.0
 10
33.7991
 20
-1.6444
 30
0.0
 10
33.787
 20
-1.7665
 30
0.0
 10
33.6884
 20
-1.8352
 30
0.0
 10
33.5742
 20
-1.8465
 30
0.0
  0
SPLINE
  5
DD
330
1F
100
AcDbEntity
  8
DATUMS
 62
   250
100
AcDbSpline
210
0.0
220
0.0
230
1.0
 70
    24
 71
     3
 72
     8
 73
     4
 74
     0
 42
0.0000000001
 43
0.0000000001
 40
0.0
 40
0.0
 40
0.0
 40
0.0
 40
1.0
 40
1.0
 40
1.0
 40
1.0
 10
33.5742
 20
-1.8465
 30
0.0
 10
33.5742
 20
-1.8465
 30
0.0
 10
32.1731
 20
-1.8465
 30
0.0
 10
32.1731
 20
-1.8465
 30
0.0
  0
SPLINE
  5
DE
330
1F
100
AcDbEntity
  8
DATUMS
 62
   250
100
AcDbSpline
210
0.0
220
0.0
230
1.0
 70
    24
 71
     3
 72
     8
 73
     4
 74
     0
 42
0.0000000001
 43
0.0000000001
 40
0.0
 40
0.0
 40
0.0
 40
0.0
 40
1.0
 40
1.0
 40
1.0
 40
1.0
 10
33.5994
 20
30.9853
 30
0.0
 10
33.5994
 20
30.9853
 30
0.0
 10
33.5994
 20
31.0105
 30
0.0
 10
33.5994
 20
31.0105
 30
0.0
  0
SPLINE
  5
DF
330
1F
100
AcDbEntity
  8
DATUMS
 62
   250
100
AcDbSpline
210
0.0
220
0.0
230
1.0
 70
    24
 71
     3
 72
     8
 73
     4
 74
     0
 42
0.0000000001
 43
0.0000000001
 40
0.0
 40
0.0
 40
0.0
 40
0.0
 40
1.0
 40
1.0
 40
1.0
 40
1.0
 10
33.8016
 20
32.0468
 30
0.0
 10
33.8016
 20
32.0468
 30
0.0
 10
33.8016
 20
30.9853
 30
0.0
 10
33.8016
 20
30.9853
 30
0.0
  0
SPLINE
  5
E0
330
1F
100
AcDbEntity
  8
DATUMS
 62
   250
100
AcDbSpline
210
0.0
220
0.0
230
1.0
 70
    24
 71
     3
 72
     8
 73
     4
 74
     0
 42
0.0000000001
 43
0.0000000001
 40
0.0
 40
0.0
 40
0.0
 40
0.0
 40
1.0
 40
1.0
 40
1.0
 40
1.0
 10
33.8016
 20
31.0105
 30
0.0
 10
33.8016
 20
31.0105
 30
0.0
 10
32.1731
 20
31.0105
 30
0.0
 10
32.1731
 20
31.0105
 30
0.0
  0
SPLINE
  5
E1
330
1F
100
AcDbEntity
  8
DATUMS
 62
   250
100
AcDbSpline
210
0.0
220
0.0
230
1.0
 70
    24
 71
     3
 72
     8
 73
     4
 74
     0
 42
0.0000000001
 43
0.0000000001
 40
0.0
 40
0.0
 40
0.0
 40
0.0
 40
1.0
 40
1.0
 40
1.0
 40
1.0
 10
32.1731
 20
32.0216
 30
0.0
 10
32.1731
 20
32.0216
 30
0.0
 10
32.1731
 20
31.0105
 30
0.0
 10
32.1731
 20
31.0105
 30
0.0
  0
SPLINE
  5
E2
330
1F
100
AcDbEntity
  8
DATUMS
 62
   250
100
AcDbSpline
210
0.0
220
0.0
230
1.0
 70
    24
 71
     3
 72
     8
 73
     4
 74
     0
 42
0.0000000001
 43
0.0000000001
 40
0.0
 40
0.0
 40
0.0
 40
0.0
 40
1.0
 40
1.0
 40
1.0
 40
1.0
 10
33.8016
 20
32.0216
 30
0.0
 10
33.8016
 20
32.0216
 30
0.0
 10
32.1731
 20
32.0216
 30
0.0
 10
32.1731
 20
32.0216
 30
0.0
  0
SPLINE
  5
E3
330
1F
100
AcDbEntity
  8
DATUMS
 62
   250
100
AcDbSpline
210
0.0
220
0.0
230
1.0
 70
    24
 71
     3
 72
     8
 73
     4
 74
     0
 42
0.0000000001
 43
0.0000000001
 40
0.0
 40
0.0
 40
0.0
 40
0.0
 40
1.0
 40
1.0
 40
1.0
 40
1.0
 10
33.5994
 20
32.0468
 30
0.0
 10
33.5994
 20
32.0468
 30
0.0
 10
33.5994
 20
32.0216
 30
0.0
 10
33.5994
 20
32.0216
 30
0.0
  0
SPLINE
  5
E4
330
1F
100
AcDbEntity
  8
DATUMS
 62
   250
100
AcDbSpline
210
0.0
220
0.0
230
1.0
 70
    24
 71
     3
 72
     8
 73
     4
 74
     0
 42
0.0000000001
 43
0.0000000001
 40
0.0
 40
0.0
 40
0.0
 40
0.0
 40
1.0
 40
1.0
 40
1.0
 40
1.0
 10
33.5994
 20
28.4831
 30
0.0
 10
33.5994
 20
28.4831
 30
0.0
 10
33.5994
 20
28.5083
 30
0.0
 10
33.5994
 20
28.5083
 30
0.0
  0
SPLINE
  5
E5
330
1F
100
AcDbEntity
  8
DATUMS
 62
   250
100
AcDbSpline
210
0.0
220
0.0
230
1.0
 70
    24
 71
     3
 72
     8
 73
     4
 74
     0
 42
0.0000000001
 43
0.0000000001
 40
0.0
 40
0.0
 40
0.0
 40
0.0
 40
1.0
 40
1.0
 40
1.0
 40
1.0
 10
33.8016
 20
28.5083
 30
0.0
 10
33.8016
 20
28.5083
 30
0.0
 10
33.8016
 20
27.4469
 30
0.0
 10
33.8016
 20
27.4469
 30
0.0
  0
SPLINE
  5
E6
330
1F
100
AcDbEntity
  8
DATUMS
 62
   250
100
AcDbSpline
210
0.0
220
0.0
230
1.0
 70
    24
 71
     3
 72
     8
 73
     4
 74
     0
 42
0.0000000001
 43
0.0000000001
 40
0.0
 40
0.0
 40
0.0
 40
0.0
 40
1.0
 40
1.0
 40
1.0
 40
1.0
 10
33.5994
 20
27.4469
 30
0.0
 10
33.5994
 20
27.4469
 30
0.0
 10
33.5994
 20
27.4721
 30
0.0
 10
33.5994
 20
27.4721
 30
0.0
  0
SPLINE
  5
E7
330
1F
100
AcDbEntity
  8
DATUMS
 62
   250
100
AcDbSpline
210
0.0
220
0.0
230
1.0
 70
    24
 71
     3
 72
     8
 73
     4
 74
     0
 42
0.0000000001
 43
0.0000000001
 40
0.0
 40
0.0
 40
0.0
 40
0.0
 40
1.0
 40
1.0
 40
1.0
 40
1.0
 10
33.8016
 20
27.4721
 30
0.0
 10
33.8016
 20
27.4721
 30
0.0
 10
32.1731
 20
27.4721
 30
0.0
 10
32.1731
 20
27.4721
 30
0.0
  0
SPLINE
  5
E8
330
1F
100
AcDbEntity
  8
DATUMS
 62
   250
100
AcDbSpline
210
0.0
220
0.0
230
1.0
 70
    24
 71
     3
 72
     8
 73
     4
 74
     0
 42
0.0000000001
 43
0.0000000001
 40
0.0
 40
0.0
 40
0.0
 40
0.0
 40
1.0
 40
1.0
 40
1.0
 40
1.0
 10
32.1731
 20
28.4831
 30
0.0
 10
32.1731
 20
28.4831
 30
0.0
 10
32.1731
 20
27.4721
 30
0.0
 10
32.1731
 20
27.4721
 30
0.0
  0
SPLINE
  5
E9
330
1F
100
AcDbEntity
  8
DATUMS
 62
   250
100
AcDbSpline
210
0.0
220
0.0
230
1.0
 70
    24
 71
     3
 72
     8
 73
     4
 74
     0
 42
0.0000000001
 43
0.0000000001
 40
0.0
 40
0.0
 40
0.0
 40
0.0
 40
1.0
 40
1.0
 40
1.0
 40
1.0
 10
33.8016
 20
28.4831
 30
0.0
 10
33.8016
 20
28.4831
 30
0.0
 10
32.1731
 20
28.4831
 30
0.0
 10
32.1731
 20
28.4831
 30
0.0
  0
SPLINE
  5
EA
330
1F
100
AcDbEntity
  8
DATUMS
 62
   250
100
AcDbSpline
210
0.0
220
0.0
230
1.0
 70
    24
 71
     3
 72
     8
 73
     4
 74
     0
 42
0.0000000001
 43
0.0000000001
 40
0.0
 40
0.0
 40
0.0
 40
0.0
 40
1.0
 40
1.0
 40
1.0
 40
1.0
 10
32.1731
 20
33.7402
 30
0.0
 10
32.1731
 20
33.7402
 30
0.0
 10
32.1731
 20
33.9425
 30
0.0
 10
32.1731
 20
33.9425
 30
0.0
  0
SPLINE
  5
EB
330
1F
100
AcDbEntity
  8
DATUMS
 62
   250
100
AcDbSpline
210
0.0
220
0.0
230
1.0
 70
    24
 71
     3
 72
     8
 73
     4
 74
     0
 42
0.0000000001
 43
0.0000000001
 40
0.0
 40
0.0
 40
0.0
 40
0.0
 40
1.0
 40
1.0
 40
1.0
 40
1.0
 10
33.5742
 20
32.0216
 30
0.0
 10
33.5742
 20
32.0216
 30
0.0
 10
33.5742
 20
31.0105
 30
0.0
 10
33.5742
 20
31.0105
 30
0.0
  0
SPLINE
  5
EC
330
1F
100
AcDbEntity
  8
DATUMS
 62
   250
100
AcDbSpline
210
0.0
220
0.0
230
1.0
 70
    24
 71
     3
 72
     8
 73
     4
 74
     0
 42
0.0000000001
 43
0.0000000001
 40
0.0
 40
0.0
 40
0.0
 40
0.0
 40
1.0
 40
1.0
 40
1.0
 40
1.0
 10
33.5742
 20
28.4831
 30
0.0
 10
33.5742
 20
28.4831
 30
0.0
 10
33.5742
 20
27.4721
 30
0.0
 10
33.5742
 20
27.4721
 30
0.0
  0
SPLINE
  5
ED
330
1F
100
AcDbEntity
  8
DATUMS
 62
   250
100
AcDbSpline
210
0.0
220
0.0
230
1.0
 70
     8
 71
     3
 72
     8
 73
     4
 74
     0
 42
0.0000000001
 43
0.0000000001
 40
0.0
 40
0.0
 40
0.0
 40
0.0
 40
1.0
 40
1.0
 40
1.0
 40
1.0
 10
33.7991
 20
33.7402
 30
0.0
 10
33.7676
 20
34.0592
 30
0.0
 10
33.2095
 20
33.9425
 30
0.0
 10
33.0685
 20
33.9425
 30
0.0
  0
SPLINE
  5
EE
330
1F
100
AcDbEntity
  8
DATUMS
 62
   250
100
AcDbSpline
210
0.0
220
0.0
230
1.0
 70
    24
 71
     3
 72
    12
 73
     8
 74
     0
 42
0.0000000001
 43
0.0000000001
 40
0.0
 40
0.0
 40
0.0
 40
0.0
 40
0.3333333333333333
 40
0.3333333333333333
 40
0.3333333333333333
 40
0.3333333333333333
 40
1.0
 40
1.0
 40
1.0
 40
1.0
 10
33.0685
 20
33.9425
 30
0.0
 10
33.0685
 20
33.9425
 30
0.0
 10
32.6787
 20
33.9425
 30
0.0
 10
32.6787
 20
33.9425
 30
0.0
 10
32.6787
 20
33.9425
 30
0.0
 10
32.6787
 20
33.9425
 30
0.0
 10
32.1731
 20
33.9425
 30
0.0
 10
32.1731
 20
33.9425
 30
0.0
  0
SPLINE
  5
EF
330
1F
100
AcDbEntity
  8
DATUMS
 62
   250
100
AcDbSpline
210
0.0
220
0.0
230
1.0
 70
    24
 71
     3
 72
     8
 73
     4
 74
     0
 42
0.0000000001
 43
0.0000000001
 40
0.0
 40
0.0
 40
0.0
 40
0.0
 40
1.0
 40
1.0
 40
1.0
 40
1.0
 10
33.8016
 20
27.4469
 30
0.0
 10
33.8016
 20
27.4469
 30
0.0
 10
33.5742
 20
27.4469
 30
0.0
 10
33.5742
 20
27.4469
 30
0.0
  0
SPLINE
  5
F0
330
1F
100
AcDbEntity
  8
DATUMS
 62
   250
100
AcDbSpline
210
0.0
220
0.0
230
1.0
 70
    24
 71
     3
 72
     8
 73
     4
 74
     0
 42
0.0000000001
 43
0.0000000001
 40
0.0
 40
0.0
 40
0.0
 40
0.0
 40
1.0
 40
1.0
 40
1.0
 40
1.0
 10
33.8268
 20
27.4469
 30
0.0
 10
33.8268
 20
27.4469
 30
0.0
 10
33.8268
 20
28.5083
 30
0.0
 10
33.8268
 20
28.5083
 30
0.0
  0
SPLINE
  5
F1
330
1F
100
AcDbEntity
  8
DATUMS
 62
   250
100
AcDbSpline
210
0.0
220
0.0
230
1.0
 70
    24
 71
     3
 72
     8
 73
     4
 74
     0
 42
0.0000000001
 43
0.0000000001
 40
0.0
 40
0.0
 40
0.0
 40
0.0
 40
1.0
 40
1.0
 40
1.0
 40
1.0
 10
33.5742
 20
28.5083
 30
0.0
 10
33.5742
 20
28.5083
 30
0.0
 10
33.5742
 20
28.4831
 30
0.0
 10
33.5742
 20
28.4831
 30
0.0
  0
SPLINE
  5
F2
330
1F
100
AcDbEntity
  8
DATUMS
 62
   250
100
AcDbSpline
210
0.0
220
0.0
230
1.0
 70
    24
 71
     3
 72
     8
 73
     4
 74
     0
 42
0.0000000001
 43
0.0000000001
 40
0.0
 40
0.0
 40
0.0
 40
0.0
 40
1.0
 40
1.0
 40
1.0
 40
1.0
 10
33.5742
 20
28.5083
 30
0.0
 10
33.5742
 20
28.5083
 30
0.0
 10
33.8268
 20
28.5083
 30
0.0
 10
33.8268
 20
28.5083
 30
0.0
  0
SPLINE
  5
F3
330
1F
100
AcDbEntity
  8
DATUMS
 62
   250
100
AcDbSpline
210
0.0
220
0.0
230
1.0
 70
    24
 71
     3
 72
     8
 73
     4
 74
     0
 42
0.0000000001
 43
0.0000000001
 40
0.0
 40
0.0
 40
0.0
 40
0.0
 40
1.0
 40
1.0
 40
1.0
 40
1.0
 10
33.5742
 20
27.4469
 30
0.0
 10
33.5742
 20
27.4469
 30
0.0
 10
33.8268
 20
27.4469
 30
0.0
 10
33.8268
 20
27.4469
 30
0.0
  0
SPLINE
  5
F4
330
1F
100
AcDbEntity
  8
DATUMS
 62
   250
100
AcDbSpline
210
0.0
220
0.0
230
1.0
 70
    24
 71
     3
 72
     8
 73
     4
 74
     0
 42
0.0000000001
 43
0.0000000001
 40
0.0
 40
0.0
 40
0.0
 40
0.0
 40
1.0
 40
1.0
 40
1.0
 40
1.0
 10
33.5742
 20
27.4469
 30
0.0
 10
33.5742
 20
27.4469
 30
0.0
 10
33.5742
 20
27.4721
 30
0.0
 10
33.5742
 20
27.4721
 30
0.0
  0
SPLINE
  5
F5
330
1F
100
AcDbEntity
  8
DATUMS
 62
   250
100
AcDbSpline
210
0.0
220
0.0
230
1.0
 70
    24
 71
     3
 72
     8
 73
     4
 74
     0
 42
0.0000000001
 43
0.0000000001
 40
0.0
 40
0.0
 40
0.0
 40
0.0
 40
1.0
 40
1.0
 40
1.0
 40
1.0
 10
14.7445
 20
33.7402
 30
0.0
 10
14.7445
 20
33.7402
 30
0.0
 10
14.7445
 20
-1.6444
 30
0.0
 10
14.7445
 20
-1.6444
 30
0.0
  0
SPLINE
  5
F6
330
1F
100
AcDbEntity
  8
DATUMS
 62
   250
100
AcDbSpline
210
0.0
220
0.0
230
1.0
 70
    24
 71
     3
 72
     8
 73
     4
 74
     0
 42
0.0000000001
 43
0.0000000001
 40
0.0
 40
0.0
 40
0.0
 40
0.0
 40
1.0
 40
1.0
 40
1.0
 40
1.0
 10
33.5742
 20
0.0744
 30
0.0
 10
33.5742
 20
0.0744
 30
0.0
 10
33.5742
 20
0.0491
 30
0.0
 10
33.5742
 20
0.0491
 30
0.0
  0
SPLINE
  5
F7
330
1F
100
AcDbEntity
  8
DATUMS
 62
   250
100
AcDbSpline
210
0.0
220
0.0
230
1.0
 70
    24
 71
     3
 72
     8
 73
     4
 74
     0
 42
0.0000000001
 43
0.0000000001
 40
0.0
 40
0.0
 40
0.0
 40
0.0
 40
1.0
 40
1.0
 40
1.0
 40
1.0
 10
33.8268
 20
0.0491
 30
0.0
 10
33.8268
 20
0.0491
 30
0.0
 10
33.5742
 20
0.0491
 30
0.0
 10
33.5742
 20
0.0491
 30
0.0
  0
SPLINE
  5
F8
330
1F
100
AcDbEntity
  8
DATUMS
 62
   250
100
AcDbSpline
210
0.0
220
0.0
230
1.0
 70
    24
 71
     3
 72
     8
 73
     4
 74
     0
 42
0.0000000001
 43
0.0000000001
 40
0.0
 40
0.0
 40
0.0
 40
0.0
 40
1.0
 40
1.0
 40
1.0
 40
1.0
 10
33.8268
 20
0.0491
 30
0.0
 10
33.8268
 20
0.0491
 30
0.0
 10
33.8268
 20
1.1107
 30
0.0
 10
33.8268
 20
1.1107
 30
0.0
  0
SPLINE
  5
F9
330
1F
100
AcDbEntity
  8
DATUMS
 62
   250
100
AcDbSpline
210
0.0
220
0.0
230
1.0
 70
    24
 71
     3
 72
     8
 73
     4
 74
     0
 42
0.0000000001
 43
0.0000000001
 40
0.0
 40
0.0
 40
0.0
 40
0.0
 40
1.0
 40
1.0
 40
1.0
 40
1.0
 10
33.5742
 20
1.0854
 30
0.0
 10
33.5742
 20
1.0854
 30
0.0
 10
33.5742
 20
1.1107
 30
0.0
 10
33.5742
 20
1.1107
 30
0.0
  0
SPLINE
  5
FA
330
1F
100
AcDbEntity
  8
DATUMS
 62
   250
100
AcDbSpline
210
0.0
220
0.0
230
1.0
 70
    24
 71
     3
 72
     8
 73
     4
 74
     0
 42
0.0000000001
 43
0.0000000001
 40
0.0
 40
0.0
 40
0.0
 40
0.0
 40
1.0
 40
1.0
 40
1.0
 40
1.0
 10
33.8268
 20
1.1107
 30
0.0
 10
33.8268
 20
1.1107
 30
0.0
 10
33.5742
 20
1.1107
 30
0.0
 10
33.5742
 20
1.1107
 30
0.0
  0
SPLINE
  5
FB
330
1F
100
AcDbEntity
  8
DATUMS
 62
   250
100
AcDbSpline
210
0.0
220
0.0
230
1.0
 70
    24
 71
     3
 72
     8
 73
     4
 74
     0
 42
0.0000000001
 43
0.0000000001
 40
0.0
 40
0.0
 40
0.0
 40
0.0
 40
1.0
 40
1.0
 40
1.0
 40
1.0
 10
33.8268
 20
3.5876
 30
0.0
 10
33.8268
 20
3.5876
 30
0.0
 10
33.5742
 20
3.5876
 30
0.0
 10
33.5742
 20
3.5876
 30
0.0
  0
SPLINE
  5
FC
330
1F
100
AcDbEntity
  8
DATUMS
 62
   250
100
AcDbSpline
210
0.0
220
0.0
230
1.0
 70
    24
 71
     3
 72
     8
 73
     4
 74
     0
 42
0.0000000001
 43
0.0000000001
 40
0.0
 40
0.0
 40
0.0
 40
0.0
 40
1.0
 40
1.0
 40
1.0
 40
1.0
 10
33.5742
 20
3.6128
 30
0.0
 10
33.5742
 20
3.6128
 30
0.0
 10
33.5742
 20
3.5876
 30
0.0
 10
33.5742
 20
3.5876
 30
0.0
  0
SPLINE
  5
FD
330
1F
100
AcDbEntity
  8
DATUMS
 62
   250
100
AcDbSpline
210
0.0
220
0.0
230
1.0
 70
    24
 71
     3
 72
     8
 73
     4
 74
     0
 42
0.0000000001
 43
0.0000000001
 40
0.0
 40
0.0
 40
0.0
 40
0.0
 40
1.0
 40
1.0
 40
1.0
 40
1.0
 10
33.8268
 20
3.5876
 30
0.0
 10
33.8268
 20
3.5876
 30
0.0
 10
33.8268
 20
4.6491
 30
0.0
 10
33.8268
 20
4.6491
 30
0.0
  0
SPLINE
  5
FE
330
1F
100
AcDbEntity
  8
DATUMS
 62
   250
100
AcDbSpline
210
0.0
220
0.0
230
1.0
 70
    24
 71
     3
 72
     8
 73
     4
 74
     0
 42
0.0000000001
 43
0.0000000001
 40
0.0
 40
0.0
 40
0.0
 40
0.0
 40
1.0
 40
1.0
 40
1.0
 40
1.0
 10
33.5742
 20
4.6238
 30
0.0
 10
33.5742
 20
4.6238
 30
0.0
 10
33.5742
 20
4.6491
 30
0.0
 10
33.5742
 20
4.6491
 30
0.0
  0
SPLINE
  5
FF
330
1F
100
AcDbEntity
  8
DATUMS
 62
   250
100
AcDbSpline
210
0.0
220
0.0
230
1.0
 70
    24
 71
     3
 72
     8
 73
     4
 74
     0
 42
0.0000000001
 43
0.0000000001
 40
0.0
 40
0.0
 40
0.0
 40
0.0
 40
1.0
 40
1.0
 40
1.0
 40
1.0
 10
33.8268
 20
4.6491
 30
0.0
 10
33.8268
 20
4.6491
 30
0.0
 10
33.5742
 20
4.6491
 30
0.0
 10
33.5742
 20
4.6491
 30
0.0
  0
SPLINE
  5
100
330
1F
100
AcDbEntity
  8
DATUMS
 62
   250
100
AcDbSpline
210
0.0
220
0.0
230
1.0
 70
    24
 71
     3
 72
     8
 73
     4
 74
     0
 42
0.0000000001
 43
0.0000000001
 40
0.0
 40
0.0
 40
0.0
 40
0.0
 40
1.0
 40
1.0
 40
1.0
 40
1.0
 10
33.8268
 20
30.9853
 30
0.0
 10
33.8268
 20
30.9853
 30
0.0
 10
33.5742
 20
30.9853
 30
0.0
 10
33.5742
 20
30.9853
 30
0.0
  0
SPLINE
  5
101
330
1F
100
AcDbEntity
  8
DATUMS
 62
   250
100
AcDbSpline
210
0.0
220
0.0
230
1.0
 70
    24
 71
     3
 72
     8
 73
     4
 74
     0
 42
0.0000000001
 43
0.0000000001
 40
0.0
 40
0.0
 40
0.0
 40
0.0
 40
1.0
 40
1.0
 40
1.0
 40
1.0
 10
33.5742
 20
31.0105
 30
0.0
 10
33.5742
 20
31.0105
 30
0.0
 10
33.5742
 20
30.9853
 30
0.0
 10
33.5742
 20
30.9853
 30
0.0
  0
SPLINE
  5
102
330
1F
100
AcDbEntity
  8
DATUMS
 62
   250
100
AcDbSpline
210
0.0
220
0.0
230
1.0
 70
    24
 71
     3
 72
     8
 73
     4
 74
     0
 42
0.0000000001
 43
0.0000000001
 40
0.0
 40
0.0
 40
0.0
 40
0.0
 40
1.0
 40
1.0
 40
1.0
 40
1.0
 10
33.8268
 20
30.9853
 30
0.0
 10
33.8268
 20
30.9853
 30
0.0
 10
33.8268
 20
32.0468
 30
0.0
 10
33.8268
 20
32.0468
 30
0.0
  0
SPLINE
  5
103
330
1F
100
AcDbEntity
  8
DATUMS
 62
   250
100
AcDbSpline
210
0.0
220
0.0
230
1.0
 70
    24
 71
     3
 72
     8
 73
     4
 74
     0
 42
0.0000000001
 43
0.0000000001
 40
0.0
 40
0.0
 40
0.0
 40
0.0
 40
1.0
 40
1.0
 40
1.0
 40
1.0
 10
33.5742
 20
32.0216
 30
0.0
 10
33.5742
 20
32.0216
 30
0.0
 10
33.5742
 20
32.0468
 30
0.0
 10
33.5742
 20
32.0468
 30
0.0
  0
SPLINE
  5
104
330
1F
100
AcDbEntity
  8
DATUMS
 62
   250
100
AcDbSpline
210
0.0
220
0.0
230
1.0
 70
    24
 71
     3
 72
     8
 73
     4
 74
     0
 42
0.0000000001
 43
0.0000000001
 40
0.0
 40
0.0
 40
0.0
 40
0.0
 40
1.0
 40
1.0
 40
1.0
 40
1.0
 10
33.8268
 20
32.0468
 30
0.0
 10
33.8268
 20
32.0468
 30
0.0
 10
33.5742
 20
32.0468
 30
0.0
 10
33.5742
 20
32.0468
 30
0.0
  0
SPLINE
  5
105
330
1F
100
AcDbEntity
  8
DATUMS
 62
   250
100
AcDbSpline
210
0.0
220
0.0
230
1.0
 70
    24
 71
     3
 72
    12
 73
     8
 74
     0
 42
0.0000000001
 43
0.0000000001
 40
0.0
 40
0.0
 40
0.0
 40
0.0
 40
0.3333333333333333
 40
0.3333333333333333
 40
0.3333333333333333
 40
0.3333333333333333
 40
1.0
 40
1.0
 40
1.0
 40
1.0
 10
34.5598
 20
-1.6444
 30
0.0
 10
34.5598
 20
-1.6444
 30
0.0
 10
34.0543
 20
-1.6444
 30
0.0
 10
34.0543
 20
-1.6444
 30
0.0
 10
34.0543
 20
-1.6444
 30
0.0
 10
34.0543
 20
-1.6444
 30
0.0
 10
15.2499
 20
-1.6444
 30
0.0
 10
15.2499
 20
-1.6444
 30
0.0
  0
SPLINE
  5
106
330
1F
100
AcDbEntity
  8
DATUMS
 62
   250
100
AcDbSpline
210
0.0
220
0.0
230
1.0
 70
     8
 71
     3
 72
    12
 73
     8
 74
     0
 42
0.0000000001
 43
0.0000000001
 40
0.0
 40
0.0
 40
0.0
 40
0.0
 40
0.3333333333333333
 40
0.3333333333333333
 40
0.3333333333333333
 40
0.3333333333333333
 40
1.0
 40
1.0
 40
1.0
 40
1.0
 10
15.2499
 20
-1.6444
 30
0.0
 10
14.9832
 20
-1.6444
 30
0.0
 10
14.5635
 20
-1.7355
 30
0.0
 10
14.3942
 20
-1.4422
 30
0.0
 10
14.3942
 20
-1.4422
 30
0.0
 10
14.2836
 20
-1.2508
 30
0.0
 10
14.3401
 20
-0.8892
 30
0.0
 10
14.3401
 20
-0.7344
 30
0.0
  0
SPLINE
  5
107
330
1F
100
AcDbEntity
  8
DATUMS
 62
   250
100
AcDbSpline
210
0.0
220
0.0
230
1.0
 70
    24
 71
     3
 72
     8
 73
     4
 74
     0
 42
0.0000000001
 43
0.0000000001
 40
0.0
 40
0.0
 40
0.0
 40
0.0
 40
1.0
 40
1.0
 40
1.0
 40
1.0
 10
14.3401
 20
-0.7344
 30
0.0
 10
14.3401
 20
-0.7344
 30
0.0
 10
14.3401
 20
32.8303
 30
0.0
 10
14.3401
 20
32.8303
 30
0.0
  0
SPLINE
  5
108
330
1F
100
AcDbEntity
  8
DATUMS
 62
   250
100
AcDbSpline
210
0.0
220
0.0
230
1.0
 70
     8
 71
     3
 72
    12
 73
     8
 74
     0
 42
0.0000000001
 43
0.0000000001
 40
0.0
 40
0.0
 40
0.0
 40
0.0
 40
0.3333333333333333
 40
0.3333333333333333
 40
0.3333333333333333
 40
0.3333333333333333
 40
1.0
 40
1.0
 40
1.0
 40
1.0
 10
14.3401
 20
32.8303
 30
0.0
 10
14.3401
 20
33.0969
 30
0.0
 10
14.2489
 20
33.5166
 30
0.0
 10
14.5421
 20
33.6861
 30
0.0
 10
14.5421
 20
33.6861
 30
0.0
 10
14.7337
 20
33.7965
 30
0.0
 10
15.0951
 20
33.7402
 30
0.0
 10
15.2499
 20
33.7402
 30
0.0
  0
SPLINE
  5
109
330
1F
100
AcDbEntity
  8
DATUMS
 62
   250
100
AcDbSpline
210
0.0
220
0.0
230
1.0
 70
    24
 71
     3
 72
    12
 73
     8
 74
     0
 42
0.0000000001
 43
0.0000000001
 40
0.0
 40
0.0
 40
0.0
 40
0.0
 40
0.3333333333333333
 40
0.3333333333333333
 40
0.3333333333333333
 40
0.3333333333333333
 40
1.0
 40
1.0
 40
1.0
 40
1.0
 10
15.2499
 20
33.7402
 30
0.0
 10
15.2499
 20
33.7402
 30
0.0
 10
34.0543
 20
33.7402
 30
0.0
 10
34.0543
 20
33.7402
 30
0.0
 10
34.0543
 20
33.7402
 30
0.0
 10
34.0543
 20
33.7402
 30
0.0
 10
34.5598
 20
33.7402
 30
0.0
 10
34.5598
 20
33.7402
 30
0.0
  0
SPLINE
  5
10A
330
1F
100
AcDbEntity
  8
DATUMS
 62
   250
100
AcDbSpline
210
0.0
220
0.0
230
1.0
 70
     8
 71
     3
 72
     8
 73
     4
 74
     0
 42
0.0000000001
 43
0.0000000001
 40
0.0
 40
0.0
 40
0.0
 40
0.0
 40
1.0
 40
1.0
 40
1.0
 40
1.0
 10
14.3401
 20
33.3359
 30
0.0
 10
14.362
 20
33.5314
 30
0.0
 10
14.597
 20
33.646
 30
0.0
 10
14.7445
 20
33.7402
 30
0.0
  0
SPLINE
  5
10B
330
1F
100
AcDbEntity
  8
DATUMS
 62
   250
100
AcDbSpline
210
0.0
220
0.0
230
1.0
 70
     8
 71
     3
 72
     8
 73
     4
 74
     0
 42
0.0000000001
 43
0.0000000001
 40
0.0
 40
0.0
 40
0.0
 40
0.0
 40
1.0
 40
1.0
 40
1.0
 40
1.0
 10
14.7445
 20
-1.6444
 30
0.0
 10
14.597
 20
-1.55
 30
0.0
 10
14.362
 20
-1.4355
 30
0.0
 10
14.3401
 20
-1.2399
 30
0.0
  0
SPLINE
  5
10C
330
1F
100
AcDbEntity
  8
DATUMS
 62
   250
100
AcDbSpline
210
0.0
220
0.0
230
1.0
 70
    24
 71
     3
 72
     8
 73
     4
 74
     0
 42
0.0000000001
 43
0.0000000001
 40
0.0
 40
0.0
 40
0.0
 40
0.0
 40
1.0
 40
1.0
 40
1.0
 40
1.0
 10
37.7221
 20
16.0451
 30
0.0
 10
37.7221
 20
16.0451
 30
0.0
 10
37.7221
 20
16.254
 30
0.0
 10
37.7221
 20
16.254
 30
0.0
  0
SPLINE
  5
10D
330
1F
100
AcDbEntity
  8
DATUMS
 62
   250
100
AcDbSpline
210
0.0
220
0.0
230
1.0
 70
    24
 71
     3
 72
     8
 73
     4
 74
     0
 42
0.0000000001
 43
0.0000000001
 40
0.0
 40
0.0
 40
0.0
 40
0.0
 40
1.0
 40
1.0
 40
1.0
 40
1.0
 10
38.0121
 20
15.9405
 30
0.0
 10
38.0121
 20
15.9405
 30
0.0
 10
38.0121
 20
16.3583
 30
0.0
 10
38.0121
 20
16.3583
 30
0.0
  0
SPLINE
  5
10E
330
1F
100
AcDbEntity
  8
DATUMS
 62
   250
100
AcDbSpline
210
0.0
220
0.0
230
1.0
 70
    24
 71
     3
 72
     8
 73
     4
 74
     0
 42
0.0000000001
 43
0.0000000001
 40
0.0
 40
0.0
 40
0.0
 40
0.0
 40
1.0
 40
1.0
 40
1.0
 40
1.0
 10
37.6409
 20
16.7297
 30
0.0
 10
37.6409
 20
16.7297
 30
0.0
 10
37.2231
 20
16.7297
 30
0.0
 10
37.2231
 20
16.7297
 30
0.0
  0
SPLINE
  5
10F
330
1F
100
AcDbEntity
  8
DATUMS
 62
   250
100
AcDbSpline
210
0.0
220
0.0
230
1.0
 70
    24
 71
     3
 72
     8
 73
     4
 74
     0
 42
0.0000000001
 43
0.0000000001
 40
0.0
 40
0.0
 40
0.0
 40
0.0
 40
1.0
 40
1.0
 40
1.0
 40
1.0
 10
36.8517
 20
15.9405
 30
0.0
 10
36.8517
 20
15.9405
 30
0.0
 10
36.8517
 20
16.3583
 30
0.0
 10
36.8517
 20
16.3583
 30
0.0
  0
SPLINE
  5
110
330
1F
100
AcDbEntity
  8
DATUMS
 62
   250
100
AcDbSpline
210
0.0
220
0.0
230
1.0
 70
    24
 71
     3
 72
     8
 73
     4
 74
     0
 42
0.0000000001
 43
0.0000000001
 40
0.0
 40
0.0
 40
0.0
 40
0.0
 40
1.0
 40
1.0
 40
1.0
 40
1.0
 10
37.5363
 20
16.4396
 30
0.0
 10
37.5363
 20
16.4396
 30
0.0
 10
37.3275
 20
16.4396
 30
0.0
 10
37.3275
 20
16.4396
 30
0.0
  0
SPLINE
  5
111
330
1F
100
AcDbEntity
  8
DATUMS
 62
   250
100
AcDbSpline
210
0.0
220
0.0
230
1.0
 70
    24
 71
     3
 72
     8
 73
     4
 74
     0
 42
0.0000000001
 43
0.0000000001
 40
0.0
 40
0.0
 40
0.0
 40
0.0
 40
1.0
 40
1.0
 40
1.0
 40
1.0
 10
37.2231
 20
15.5693
 30
0.0
 10
37.2231
 20
15.5693
 30
0.0
 10
37.6409
 20
15.5693
 30
0.0
 10
37.6409
 20
15.5693
 30
0.0
  0
SPLINE
  5
112
330
1F
100
AcDbEntity
  8
DATUMS
 62
   250
100
AcDbSpline
210
0.0
220
0.0
230
1.0
 70
    24
 71
     3
 72
     8
 73
     4
 74
     0
 42
0.0000000001
 43
0.0000000001
 40
0.0
 40
0.0
 40
0.0
 40
0.0
 40
1.0
 40
1.0
 40
1.0
 40
1.0
 10
37.5363
 20
15.8595
 30
0.0
 10
37.5363
 20
15.8595
 30
0.0
 10
37.3275
 20
15.8595
 30
0.0
 10
37.3275
 20
15.8595
 30
0.0
  0
SPLINE
  5
113
330
1F
100
AcDbEntity
  8
DATUMS
 62
   250
100
AcDbSpline
210
0.0
220
0.0
230
1.0
 70
    24
 71
     3
 72
     8
 73
     4
 74
     0
 42
0.0000000001
 43
0.0000000001
 40
0.0
 40
0.0
 40
0.0
 40
0.0
 40
1.0
 40
1.0
 40
1.0
 40
1.0
 10
37.1418
 20
16.254
 30
0.0
 10
37.1418
 20
16.254
 30
0.0
 10
37.1418
 20
16.0451
 30
0.0
 10
37.1418
 20
16.0451
 30
0.0
  0
SPLINE
  5
114
330
1F
100
AcDbEntity
  8
DATUMS
 62
   250
100
AcDbSpline
210
0.0
220
0.0
230
1.0
 70
     8
 71
     3
 72
     8
 73
     4
 74
     0
 42
0.0000000001
 43
0.0000000001
 40
0.0
 40
0.0
 40
0.0
 40
0.0
 40
1.0
 40
1.0
 40
1.0
 40
1.0
 10
37.2231
 20
15.5693
 30
0.0
 10
37.2676
 20
15.693
 30
0.0
 10
37.4019
 20
15.8617
 30
0.0
 10
37.2731
 20
15.9905
 30
0.0
  0
SPLINE
  5
115
330
1F
100
AcDbEntity
  8
DATUMS
 62
   250
100
AcDbSpline
210
0.0
220
0.0
230
1.0
 70
     8
 71
     3
 72
    12
 73
     8
 74
     0
 42
0.0000000001
 43
0.0000000001
 40
0.0
 40
0.0
 40
0.0
 40
0.0
 40
0.3333333333333333
 40
0.3333333333333333
 40
0.3333333333333333
 40
0.3333333333333333
 40
1.0
 40
1.0
 40
1.0
 40
1.0
 10
37.2731
 20
15.9905
 30
0.0
 10
37.2731
 20
15.9905
 30
0.0
 10
37.1418
 20
16.0451
 30
0.0
 10
37.1418
 20
16.0451
 30
0.0
 10
37.1418
 20
16.0451
 30
0.0
 10
37.1418
 20
16.0451
 30
0.0
 10
36.8517
 20
15.9405
 30
0.0
 10
36.8517
 20
15.9405
 30
0.0
  0
SPLINE
  5
116
330
1F
100
AcDbEntity
  8
DATUMS
 62
   250
100
AcDbSpline
210
0.0
220
0.0
230
1.0
 70
     8
 71
     3
 72
    12
 73
     8
 74
     0
 42
0.0000000001
 43
0.0000000001
 40
0.0
 40
0.0
 40
0.0
 40
0.0
 40
0.3333333333333333
 40
0.3333333333333333
 40
0.3333333333333333
 40
0.3333333333333333
 40
1.0
 40
1.0
 40
1.0
 40
1.0
 10
36.8517
 20
16.3583
 30
0.0
 10
36.8517
 20
16.3583
 30
0.0
 10
37.1418
 20
16.254
 30
0.0
 10
37.1418
 20
16.254
 30
0.0
 10
37.1418
 20
16.254
 30
0.0
 10
37.1418
 20
16.254
 30
0.0
 10
37.2731
 20
16.3083
 30
0.0
 10
37.2731
 20
16.3083
 30
0.0
  0
SPLINE
  5
117
330
1F
100
AcDbEntity
  8
DATUMS
 62
   250
100
AcDbSpline
210
0.0
220
0.0
230
1.0
 70
     8
 71
     3
 72
     8
 73
     4
 74
     0
 42
0.0000000001
 43
0.0000000001
 40
0.0
 40
0.0
 40
0.0
 40
0.0
 40
1.0
 40
1.0
 40
1.0
 40
1.0
 10
37.2731
 20
16.3083
 30
0.0
 10
37.4019
 20
16.4374
 30
0.0
 10
37.2676
 20
16.6058
 30
0.0
 10
37.2231
 20
16.7297
 30
0.0
  0
SPLINE
  5
118
330
1F
100
AcDbEntity
  8
DATUMS
 62
   250
100
AcDbSpline
210
0.0
220
0.0
230
1.0
 70
     8
 71
     3
 72
    12
 73
     8
 74
     0
 42
0.0000000001
 43
0.0000000001
 40
0.0
 40
0.0
 40
0.0
 40
0.0
 40
0.3333333333333333
 40
0.3333333333333333
 40
0.3333333333333333
 40
0.3333333333333333
 40
1.0
 40
1.0
 40
1.0
 40
1.0
 10
38.0121
 20
16.3583
 30
0.0
 10
38.0121
 20
16.3583
 30
0.0
 10
37.7221
 20
16.254
 30
0.0
 10
37.7221
 20
16.254
 30
0.0
 10
37.7221
 20
16.254
 30
0.0
 10
37.7221
 20
16.254
 30
0.0
 10
37.591
 20
16.3083
 30
0.0
 10
37.591
 20
16.3083
 30
0.0
  0
SPLINE
  5
119
330
1F
100
AcDbEntity
  8
DATUMS
 62
   250
100
AcDbSpline
210
0.0
220
0.0
230
1.0
 70
     8
 71
     3
 72
     8
 73
     4
 74
     0
 42
0.0000000001
 43
0.0000000001
 40
0.0
 40
0.0
 40
0.0
 40
0.0
 40
1.0
 40
1.0
 40
1.0
 40
1.0
 10
37.591
 20
16.3083
 30
0.0
 10
37.462
 20
16.4374
 30
0.0
 10
37.5962
 20
16.6058
 30
0.0
 10
37.6409
 20
16.7297
 30
0.0
  0
SPLINE
  5
11A
330
1F
100
AcDbEntity
  8
DATUMS
 62
   250
100
AcDbSpline
210
0.0
220
0.0
230
1.0
 70
     8
 71
     3
 72
     8
 73
     4
 74
     0
 42
0.0000000001
 43
0.0000000001
 40
0.0
 40
0.0
 40
0.0
 40
0.0
 40
1.0
 40
1.0
 40
1.0
 40
1.0
 10
37.6409
 20
15.5693
 30
0.0
 10
37.5962
 20
15.693
 30
0.0
 10
37.462
 20
15.8617
 30
0.0
 10
37.591
 20
15.9905
 30
0.0
  0
SPLINE
  5
11B
330
1F
100
AcDbEntity
  8
DATUMS
 62
   250
100
AcDbSpline
210
0.0
220
0.0
230
1.0
 70
     8
 71
     3
 72
    12
 73
     8
 74
     0
 42
0.0000000001
 43
0.0000000001
 40
0.0
 40
0.0
 40
0.0
 40
0.0
 40
0.3333333333333333
 40
0.3333333333333333
 40
0.3333333333333333
 40
0.3333333333333333
 40
1.0
 40
1.0
 40
1.0
 40
1.0
 10
37.591
 20
15.9905
 30
0.0
 10
37.591
 20
15.9905
 30
0.0
 10
37.7221
 20
16.0451
 30
0.0
 10
37.7221
 20
16.0451
 30
0.0
 10
37.7221
 20
16.0451
 30
0.0
 10
37.7221
 20
16.0451
 30
0.0
 10
38.0121
 20
15.9405
 30
0.0
 10
38.0121
 20
15.9405
 30
0.0
  0
SPLINE
  5
11C
330
1F
100
AcDbEntity
  8
DATUMS
 62
   250
100
AcDbSpline
210
0.0
220
0.0
230
1.0
 70
     8
 71
     3
 72
     8
 73
     4
 74
     0
 42
0.0000000001
 43
0.0000000001
 40
0.0
 40
0.0
 40
0.0
 40
0.0
 40
1.0
 40
1.0
 40
1.0
 40
1.0
 10
37.6409
 20
16.7297
 30
0.0
 10
37.7861
 20
16.3799
 30
0.0
 10
37.6624
 20
16.5038
 30
0.0
 10
38.0121
 20
16.3583
 30
0.0
  0
SPLINE
  5
11D
330
1F
100
AcDbEntity
  8
DATUMS
 62
   250
100
AcDbSpline
210
0.0
220
0.0
230
1.0
 70
     8
 71
     3
 72
     8
 73
     4
 74
     0
 42
0.0000000001
 43
0.0000000001
 40
0.0
 40
0.0
 40
0.0
 40
0.0
 40
1.0
 40
1.0
 40
1.0
 40
1.0
 10
37.6409
 20
15.5693
 30
0.0
 10
37.7861
 20
15.919
 30
0.0
 10
37.6624
 20
15.7953
 30
0.0
 10
38.0121
 20
15.9405
 30
0.0
  0
SPLINE
  5
11E
330
1F
100
AcDbEntity
  8
DATUMS
 62
   250
100
AcDbSpline
210
0.0
220
0.0
230
1.0
 70
     8
 71
     3
 72
     8
 73
     4
 74
     0
 42
0.0000000001
 43
0.0000000001
 40
0.0
 40
0.0
 40
0.0
 40
0.0
 40
1.0
 40
1.0
 40
1.0
 40
1.0
 10
37.2231
 20
15.5693
 30
0.0
 10
37.0777
 20
15.919
 30
0.0
 10
37.2015
 20
15.7953
 30
0.0
 10
36.8517
 20
15.9405
 30
0.0
  0
SPLINE
  5
11F
330
1F
100
AcDbEntity
  8
DATUMS
 62
   250
100
AcDbSpline
210
0.0
220
0.0
230
1.0
 70
     8
 71
     3
 72
     8
 73
     4
 74
     0
 42
0.0000000001
 43
0.0000000001
 40
0.0
 40
0.0
 40
0.0
 40
0.0
 40
1.0
 40
1.0
 40
1.0
 40
1.0
 10
36.8517
 20
16.3583
 30
0.0
 10
37.2015
 20
16.5038
 30
0.0
 10
37.0777
 20
16.3799
 30
0.0
 10
37.2231
 20
16.7297
 30
0.0
  0
SPLINE
  5
120
330
1F
100
AcDbEntity
  8
DATUMS
 62
   250
100
AcDbSpline
210
0.0
220
0.0
230
1.0
 70
    11
 71
     3
 72
    44
 73
    40
 74
     0
 42
0.0000000001
 43
0.0000000001
 40
0.0
 40
0.0
 40
0.0
 40
0.0
 40
0.0909090909090909
 40
0.0909090909090909
 40
0.0909090909090909
 40
0.0909090909090909
 40
0.1818181818181818
 40
0.1818181818181818
 40
0.1818181818181818
 40
0.1818181818181818
 40
0.2727272727272727
 40
0.2727272727272727
 40
0.2727272727272727
 40
0.2727272727272727
 40
0.3636363636363636
 40
0.3636363636363636
 40
0.3636363636363636
 40
0.3636363636363636
 40
0.4545454545454545
 40
0.4545454545454545
 40
0.4545454545454545
 40
0.4545454545454545
 40
0.5454545454545454
 40
0.5454545454545454
 40
0.5454545454545454
 40
0.5454545454545454
 40
0.6363636363636364
 40
0.6363636363636364
 40
0.6363636363636364
 40
0.6363636363636364
 40
0.7272727272727273
 40
0.7272727272727273
 40
0.7272727272727273
 40
0.7272727272727273
 40
0.8181818181818182
 40
0.8181818181818182
 40
0.8181818181818182
 40
0.8181818181818182
 40
1.0
 40
1.0
 40
1.0
 40
1.0
 10
36.2715
 20
16.1495
 30
0.0
 10
36.2878
 20
15.9221
 30
0.0
 10
36.3304
 20
15.7174
 30
0.0
 10
36.4558
 20
15.5222
 30
0.0
 10
36.4558
 20
15.5222
 30
0.0
 10
36.5454
 20
15.3827
 30
0.0
 10
36.6651
 20
15.2631
 30
0.0
 10
36.8046
 20
15.1733
 30
0.0
 10
36.8046
 20
15.1733
 30
0.0
 10
36.9441
 20
15.0837
 30
0.0
 10
37.1027
 20
15.0246
 30
0.0
 10
37.2667
 20
15.0009
 30
0.0
 10
37.2667
 20
15.0009
 30
0.0
 10
38.021
 20
14.8924
 30
0.0
 10
38.6889
 20
15.5605
 30
0.0
 10
38.5805
 20
16.3148
 30
0.0
 10
38.5805
 20
16.3148
 30
0.0
 10
38.557
 20
16.4789
 30
0.0
 10
38.4977
 20
16.6373
 30
0.0
 10
38.4081
 20
16.7768
 30
0.0
 10
38.4081
 20
16.7768
 30
0.0
 10
38.3184
 20
16.9163
 30
0.0
 10
38.1989
 20
17.036
 30
0.0
 10
38.0591
 20
17.1256
 30
0.0
 10
38.0591
 20
17.1256
 30
0.0
 10
37.864
 20
17.251
 30
0.0
 10
37.6593
 20
17.2936
 30
0.0
 10
37.4319
 20
17.3099
 30
0.0
 10
37.4319
 20
17.3099
 30
0.0
 10
37.2855
 20
17.2993
 30
0.0
 10
37.2469
 20
17.3044
 30
0.0
 10
37.1049
 20
17.2628
 30
0.0
 10
37.1049
 20
17.2628
 30
0.0
 10
36.7294
 20
17.1525
 30
0.0
 10
36.4289
 20
16.852
 30
0.0
 10
36.3186
 20
16.4764
 30
0.0
 10
36.3186
 20
16.4764
 30
0.0
 10
36.277
 20
16.3347
 30
0.0
 10
36.2821
 20
16.2959
 30
0.0
 10
36.2715
 20
16.1495
 30
0.0
  0
SPLINE
  5
121
330
1F
100
AcDbEntity
  8
DATUMS
 62
   250
100
AcDbSpline
210
0.0
220
0.0
230
1.0
 70
    24
 71
     3
 72
     8
 73
     4
 74
     0
 42
0.0000000001
 43
0.0000000001
 40
0.0
 40
0.0
 40
0.0
 40
0.0
 40
1.0
 40
1.0
 40
1.0
 40
1.0
 10
39.1726
 20
36.1784
 30
0.0
 10
39.1726
 20
36.1784
 30
0.0
 10
39.1726
 20
16.1495
 30
0.0
 10
39.1726
 20
16.1495
 30
0.0
  0
SPLINE
  5
122
330
1F
100
AcDbEntity
  8
DATUMS
 62
   250
100
AcDbSpline
210
0.0
220
0.0
230
1.0
 70
    24
 71
     3
 72
     8
 73
     4
 74
     0
 42
0.0000000001
 43
0.0000000001
 40
0.0
 40
0.0
 40
0.0
 40
0.0
 40
1.0
 40
1.0
 40
1.0
 40
1.0
 10
37.4319
 20
15.0319
 30
0.0
 10
37.4319
 20
15.0319
 30
0.0
 10
37.4319
 20
14.8723
 30
0.0
 10
37.4319
 20
14.8723
 30
0.0
  0
SPLINE
  5
123
330
1F
100
AcDbEntity
  8
DATUMS
 62
   250
100
AcDbSpline
210
0.0
220
0.0
230
1.0
 70
    24
 71
     3
 72
     8
 73
     4
 74
     0
 42
0.0000000001
 43
0.0000000001
 40
0.0
 40
0.0
 40
0.0
 40
0.0
 40
1.0
 40
1.0
 40
1.0
 40
1.0
 10
37.4319
 20
17.2671
 30
0.0
 10
37.4319
 20
17.2671
 30
0.0
 10
37.4319
 20
17.4267
 30
0.0
 10
37.4319
 20
17.4267
 30
0.0
  0
SPLINE
  5
124
330
1F
100
AcDbEntity
  8
DATUMS
 62
   250
100
AcDbSpline
210
0.0
220
0.0
230
1.0
 70
    24
 71
     3
 72
     8
 73
     4
 74
     0
 42
0.0000000001
 43
0.0000000001
 40
0.0
 40
0.0
 40
0.0
 40
0.0
 40
1.0
 40
1.0
 40
1.0
 40
1.0
 10
39.1726
 20
-4.0812
 30
0.0
 10
39.1726
 20
-4.0812
 30
0.0
 10
39.1726
 20
36.1784
 30
0.0
 10
39.1726
 20
36.1784
 30
0.0
  0
SPLINE
  5
125
330
1F
100
AcDbEntity
  8
DATUMS
 62
   250
100
AcDbSpline
210
0.0
220
0.0
230
1.0
 70
    24
 71
     3
 72
     8
 73
     4
 74
     0
 42
0.0000000001
 43
0.0000000001
 40
0.0
 40
0.0
 40
0.0
 40
0.0
 40
1.0
 40
1.0
 40
1.0
 40
1.0
 10
35.7923
 20
36.1784
 30
0.0
 10
35.7923
 20
36.1784
 30
0.0
 10
39.1726
 20
36.1784
 30
0.0
 10
39.1726
 20
36.1784
 30
0.0
  0
SPLINE
  5
126
330
1F
100
AcDbEntity
  8
DATUMS
 62
   250
100
AcDbSpline
210
0.0
220
0.0
230
1.0
 70
    24
 71
     3
 72
     8
 73
     4
 74
     0
 42
0.0000000001
 43
0.0000000001
 40
0.0
 40
0.0
 40
0.0
 40
0.0
 40
1.0
 40
1.0
 40
1.0
 40
1.0
 10
39.1726
 20
36.2456
 30
0.0
 10
39.1726
 20
36.2456
 30
0.0
 10
39.1726
 20
36.3802
 30
0.0
 10
39.1726
 20
36.3802
 30
0.0
  0
SPLINE
  5
127
330
1F
100
AcDbEntity
  8
DATUMS
 62
   250
100
AcDbSpline
210
0.0
220
0.0
230
1.0
 70
    24
 71
     3
 72
     8
 73
     4
 74
     0
 42
0.0000000001
 43
0.0000000001
 40
0.0
 40
0.0
 40
0.0
 40
0.0
 40
1.0
 40
1.0
 40
1.0
 40
1.0
 10
39.1726
 20
-3.8795
 30
0.0
 10
39.1726
 20
-3.8795
 30
0.0
 10
35.7923
 20
-3.8795
 30
0.0
 10
35.7923
 20
-3.8795
 30
0.0
  0
SPLINE
  5
128
330
1F
100
AcDbEntity
  8
DATUMS
 62
   250
100
AcDbSpline
210
0.0
220
0.0
230
1.0
 70
    24
 71
     3
 72
     8
 73
     4
 74
     0
 42
0.0000000001
 43
0.0000000001
 40
0.0
 40
0.0
 40
0.0
 40
0.0
 40
1.0
 40
1.0
 40
1.0
 40
1.0
 10
35.7923
 20
-4.0812
 30
0.0
 10
35.7923
 20
-4.0812
 30
0.0
 10
35.7923
 20
36.3802
 30
0.0
 10
35.7923
 20
36.3802
 30
0.0
  0
SPLINE
  5
129
330
1F
100
AcDbEntity
  8
DATUMS
 62
   250
100
AcDbSpline
210
0.0
220
0.0
230
1.0
 70
    11
 71
     3
 72
    44
 73
    40
 74
     0
 42
0.0000000001
 43
0.0000000001
 40
0.0
 40
0.0
 40
0.0
 40
0.0
 40
0.0909090909090909
 40
0.0909090909090909
 40
0.0909090909090909
 40
0.0909090909090909
 40
0.1818181818181818
 40
0.1818181818181818
 40
0.1818181818181818
 40
0.1818181818181818
 40
0.2727272727272727
 40
0.2727272727272727
 40
0.2727272727272727
 40
0.2727272727272727
 40
0.3636363636363636
 40
0.3636363636363636
 40
0.3636363636363636
 40
0.3636363636363636
 40
0.4545454545454545
 40
0.4545454545454545
 40
0.4545454545454545
 40
0.4545454545454545
 40
0.5454545454545454
 40
0.5454545454545454
 40
0.5454545454545454
 40
0.5454545454545454
 40
0.6363636363636364
 40
0.6363636363636364
 40
0.6363636363636364
 40
0.6363636363636364
 40
0.7272727272727273
 40
0.7272727272727273
 40
0.7272727272727273
 40
0.7272727272727273
 40
0.8181818181818182
 40
0.8181818181818182
 40
0.8181818181818182
 40
0.8181818181818182
 40
1.0
 40
1.0
 40
1.0
 40
1.0
 10
38.7076
 20
16.0888
 30
0.0
 10
38.692
 20
15.9245
 30
0.0
 10
38.6627
 20
15.7701
 30
0.0
 10
38.5937
 20
15.619
 30
0.0
 10
38.5937
 20
15.619
 30
0.0
 10
38.3808
 20
15.1527
 30
0.0
 10
37.9316
 20
14.8963
 30
0.0
 10
37.4319
 20
14.8723
 30
0.0
 10
37.4319
 20
14.8723
 30
0.0
 10
37.1839
 20
14.8842
 30
0.0
 10
36.9529
 20
14.9392
 30
0.0
 10
36.7416
 20
15.0751
 30
0.0
 10
36.7416
 20
15.0751
 30
0.0
 10
36.605
 20
15.1628
 30
0.0
 10
36.4858
 20
15.2766
 30
0.0
 10
36.3917
 20
15.4087
 30
0.0
 10
36.3917
 20
15.4087
 30
0.0
 10
36.2976
 20
15.5408
 30
0.0
 10
36.2291
 20
15.6908
 30
0.0
 10
36.1908
 20
15.8484
 30
0.0
 10
36.1908
 20
15.8484
 30
0.0
 10
36.0213
 20
16.547
 30
0.0
 10
36.4843
 20
17.2675
 30
0.0
 10
37.1903
 20
17.4035
 30
0.0
 10
37.1903
 20
17.4035
 30
0.0
 10
37.3495
 20
17.4342
 30
0.0
 10
37.5143
 20
17.4342
 30
0.0
 10
37.6736
 20
17.4035
 30
0.0
 10
37.6736
 20
17.4035
 30
0.0
 10
37.8328
 20
17.3727
 30
0.0
 10
37.9859
 20
17.3116
 30
0.0
 10
38.1224
 20
17.2239
 30
0.0
 10
38.1224
 20
17.2239
 30
0.0
 10
38.2931
 20
17.1142
 30
0.0
 10
38.4364
 20
16.9638
 30
0.0
 10
38.5379
 20
16.788
 30
0.0
 10
38.5379
 20
16.788
 30
0.0
 10
38.6636
 20
16.5705
 30
0.0
 10
38.7076
 20
16.337
 30
0.0
 10
38.7076
 20
16.0888
 30
0.0
  0
SPLINE
  5
12A
330
1F
100
AcDbEntity
  8
DATUMS
 62
   250
100
AcDbSpline
210
0.0
220
0.0
230
1.0
 70
    24
 71
     3
 72
    12
 73
     8
 74
     0
 42
0.0000000001
 43
0.0000000001
 40
0.0
 40
0.0
 40
0.0
 40
0.0
 40
0.3333333333333333
 40
0.3333333333333333
 40
0.3333333333333333
 40
0.3333333333333333
 40
1.0
 40
1.0
 40
1.0
 40
1.0
 10
35.7923
 20
-4.0812
 30
0.0
 10
35.7923
 20
-4.0812
 30
0.0
 10
36.2968
 20
-4.0812
 30
0.0
 10
36.2968
 20
-4.0812
 30
0.0
 10
36.2968
 20
-4.0812
 30
0.0
 10
36.2968
 20
-4.0812
 30
0.0
 10
38.6679
 20
-4.0812
 30
0.0
 10
38.6679
 20
-4.0812
 30
0.0
  0
SPLINE
  5
12B
330
1F
100
AcDbEntity
  8
DATUMS
 62
   250
100
AcDbSpline
210
0.0
220
0.0
230
1.0
 70
     8
 71
     3
 72
    12
 73
     8
 74
     0
 42
0.0000000001
 43
0.0000000001
 40
0.0
 40
0.0
 40
0.0
 40
0.0
 40
0.3333333333333333
 40
0.3333333333333333
 40
0.3333333333333333
 40
0.3333333333333333
 40
1.0
 40
1.0
 40
1.0
 40
1.0
 10
38.6679
 20
-4.0812
 30
0.0
 10
38.7782
 20
-4.0812
 30
0.0
 10
39.1449
 20
-4.1259
 30
0.0
 10
39.3271
 20
-4.0506
 30
0.0
 10
39.3271
 20
-4.0506
 30
0.0
 10
39.6709
 20
-3.9081
 30
0.0
 10
39.5761
 20
-3.4557
 30
0.0
 10
39.5761
 20
-3.1731
 30
0.0
  0
SPLINE
  5
12C
330
1F
100
AcDbEntity
  8
DATUMS
 62
   250
100
AcDbSpline
210
0.0
220
0.0
230
1.0
 70
    24
 71
     3
 72
     8
 73
     4
 74
     0
 42
0.0000000001
 43
0.0000000001
 40
0.0
 40
0.0
 40
0.0
 40
0.0
 40
1.0
 40
1.0
 40
1.0
 40
1.0
 10
39.5761
 20
-3.1731
 30
0.0
 10
39.5761
 20
-3.1731
 30
0.0
 10
39.5761
 20
35.4722
 30
0.0
 10
39.5761
 20
35.4722
 30
0.0
  0
SPLINE
  5
12D
330
1F
100
AcDbEntity
  8
DATUMS
 62
   250
100
AcDbSpline
210
0.0
220
0.0
230
1.0
 70
     8
 71
     3
 72
    12
 73
     8
 74
     0
 42
0.0000000001
 43
0.0000000001
 40
0.0
 40
0.0
 40
0.0
 40
0.0
 40
0.3333333333333333
 40
0.3333333333333333
 40
0.3333333333333333
 40
0.3333333333333333
 40
1.0
 40
1.0
 40
1.0
 40
1.0
 10
39.5761
 20
35.4722
 30
0.0
 10
39.5761
 20
35.7547
 30
0.0
 10
39.6709
 20
36.207
 30
0.0
 10
39.3271
 20
36.3495
 30
0.0
 10
39.3271
 20
36.3495
 30
0.0
 10
39.2779
 20
36.3699
 30
0.0
 10
39.2256
 20
36.3799
 30
0.0
 10
39.1726
 20
36.3802
 30
0.0
  0
SPLINE
  5
12E
330
1F
100
AcDbEntity
  8
DATUMS
 62
   250
100
AcDbSpline
210
0.0
220
0.0
230
1.0
 70
    24
 71
     3
 72
    16
 73
    12
 74
     0
 42
0.0000000001
 43
0.0000000001
 40
0.0
 40
0.0
 40
0.0
 40
0.0
 40
0.25
 40
0.25
 40
0.25
 40
0.25
 40
0.5
 40
0.5
 40
0.5
 40
0.5
 40
1.0
 40
1.0
 40
1.0
 40
1.0
 10
39.1726
 20
36.3802
 30
0.0
 10
39.1726
 20
36.3802
 30
0.0
 10
38.6679
 20
36.3802
 30
0.0
 10
38.6679
 20
36.3802
 30
0.0
 10
38.6679
 20
36.3802
 30
0.0
 10
38.6679
 20
36.3802
 30
0.0
 10
36.2968
 20
36.3802
 30
0.0
 10
36.2968
 20
36.3802
 30
0.0
 10
36.2968
 20
36.3802
 30
0.0
 10
36.2968
 20
36.3802
 30
0.0
 10
35.7923
 20
36.3802
 30
0.0
 10
35.7923
 20
36.3802
 30
0.0
  0
SPLINE
  5
12F
330
1F
100
AcDbEntity
  8
DATUMS
 62
   250
100
AcDbSpline
210
0.0
220
0.0
230
1.0
 70
     8
 71
     3
 72
    12
 73
     8
 74
     0
 42
0.0000000001
 43
0.0000000001
 40
0.0
 40
0.0
 40
0.0
 40
0.0
 40
0.3333333333333333
 40
0.3333333333333333
 40
0.3333333333333333
 40
0.3333333333333333
 40
1.0
 40
1.0
 40
1.0
 40
1.0
 10
39.1726
 20
36.1784
 30
0.0
 10
39.28
 20
36.1441
 30
0.0
 10
39.3923
 20
36.1134
 30
0.0
 10
39.4927
 20
36.0608
 30
0.0
 10
39.4927
 20
36.0608
 30
0.0
 10
39.5294
 20
36.0414
 30
0.0
 10
39.5673
 20
36.0195
 30
0.0
 10
39.5761
 20
35.9767
 30
0.0
  0
SPLINE
  5
130
330
1F
100
AcDbEntity
  8
DATUMS
 62
   250
100
AcDbSpline
210
0.0
220
0.0
230
1.0
 70
     8
 71
     3
 72
    12
 73
     8
 74
     0
 42
0.0000000001
 43
0.0000000001
 40
0.0
 40
0.0
 40
0.0
 40
0.0
 40
0.3333333333333333
 40
0.3333333333333333
 40
0.3333333333333333
 40
0.3333333333333333
 40
1.0
 40
1.0
 40
1.0
 40
1.0
 10
39.1726
 20
-3.8795
 30
0.0
 10
39.28
 20
-3.8452
 30
0.0
 10
39.3923
 20
-3.8144
 30
0.0
 10
39.4927
 20
-3.7618
 30
0.0
 10
39.4927
 20
-3.7618
 30
0.0
 10
39.5294
 20
-3.7425
 30
0.0
 10
39.5673
 20
-3.7205
 30
0.0
 10
39.5761
 20
-3.6778
 30
0.0
  0
SPLINE
  5
131
330
1F
100
AcDbEntity
  8
DATUMS
 62
   250
100
AcDbSpline
210
0.0
220
0.0
230
1.0
 70
     8
 71
     3
 72
     8
 73
     4
 74
     0
 42
0.0000000001
 43
0.0000000001
 40
0.0
 40
0.0
 40
0.0
 40
0.0
 40
1.0
 40
1.0
 40
1.0
 40
1.0
 10
39.5761
 20
23.8936
 30
0.0
 10
39.7324
 20
23.7522
 30
0.0
 10
39.6518
 20
23.2841
 30
0.0
 10
39.6518
 20
23.2094
 30
0.0
  0
SPLINE
  5
132
330
1F
100
AcDbEntity
  8
DATUMS
 62
   250
100
AcDbSpline
210
0.0
220
0.0
230
1.0
 70
    24
 71
     3
 72
     8
 73
     4
 74
     0
 42
0.0000000001
 43
0.0000000001
 40
0.0
 40
0.0
 40
0.0
 40
0.0
 40
1.0
 40
1.0
 40
1.0
 40
1.0
 10
39.6518
 20
23.2094
 30
0.0
 10
39.6518
 20
23.2094
 30
0.0
 10
39.6518
 20
19.6767
 30
0.0
 10
39.6518
 20
19.6767
 30
0.0
  0
SPLINE
  5
133
330
1F
100
AcDbEntity
  8
DATUMS
 62
   250
100
AcDbSpline
210
0.0
220
0.0
230
1.0
 70
     8
 71
     3
 72
     8
 73
     4
 74
     0
 42
0.0000000001
 43
0.0000000001
 40
0.0
 40
0.0
 40
0.0
 40
0.0
 40
1.0
 40
1.0
 40
1.0
 40
1.0
 10
39.6518
 20
19.6767
 30
0.0
 10
39.6518
 20
19.6019
 30
0.0
 10
39.7324
 20
19.134
 30
0.0
 10
39.5761
 20
18.9925
 30
0.0
  0
SPLINE
  5
134
330
1F
100
AcDbEntity
  8
DATUMS
 62
   250
100
AcDbSpline
210
0.0
220
0.0
230
1.0
 70
     8
 71
     3
 72
     8
 73
     4
 74
     0
 42
0.0000000001
 43
0.0000000001
 40
0.0
 40
0.0
 40
0.0
 40
0.0
 40
1.0
 40
1.0
 40
1.0
 40
1.0
 10
39.6518
 20
23.714
 30
0.0
 10
39.6458
 20
23.7665
 30
0.0
 10
39.6224
 20
23.8103
 30
0.0
 10
39.5761
 20
23.8396
 30
0.0
  0
SPLINE
  5
135
330
1F
100
AcDbEntity
  8
DATUMS
 62
   250
100
AcDbSpline
210
0.0
220
0.0
230
1.0
 70
     8
 71
     3
 72
     8
 73
     4
 74
     0
 42
0.0000000001
 43
0.0000000001
 40
0.0
 40
0.0
 40
0.0
 40
0.0
 40
1.0
 40
1.0
 40
1.0
 40
1.0
 10
39.6518
 20
19.1722
 30
0.0
 10
39.6458
 20
19.1195
 30
0.0
 10
39.6222
 20
19.0756
 30
0.0
 10
39.5761
 20
19.0465
 30
0.0
  0
SPLINE
  5
136
330
1F
100
AcDbEntity
  8
DATUMS
 62
   250
100
AcDbSpline
210
0.0
220
0.0
230
1.0
 70
    24
 71
     3
 72
     8
 73
     4
 74
     0
 42
0.0000000001
 43
0.0000000001
 40
0.0
 40
0.0
 40
0.0
 40
0.0
 40
1.0
 40
1.0
 40
1.0
 40
1.0
 10
35.6473
 20
33.3281
 30
0.0
 10
35.6473
 20
33.3281
 30
0.0
 10
35.7902
 20
33.3281
 30
0.0
 10
35.7902
 20
33.3281
 30
0.0
  0
SPLINE
  5
137
330
1F
100
AcDbEntity
  8
DATUMS
 62
   250
100
AcDbSpline
210
0.0
220
0.0
230
1.0
 70
    24
 71
     3
 72
     8
 73
     4
 74
     0
 42
0.0000000001
 43
0.0000000001
 40
0.0
 40
0.0
 40
0.0
 40
0.0
 40
1.0
 40
1.0
 40
1.0
 40
1.0
 10
35.5905
 20
33.5298
 30
0.0
 10
35.5905
 20
33.5298
 30
0.0
 10
35.5905
 20
-1.2308
 30
0.0
 10
35.5905
 20
-1.2308
 30
0.0
  0
SPLINE
  5
138
330
1F
100
AcDbEntity
  8
DATUMS
 62
   250
100
AcDbSpline
210
0.0
220
0.0
230
1.0
 70
    24
 71
     3
 72
     8
 73
     4
 74
     0
 42
0.0000000001
 43
0.0000000001
 40
0.0
 40
0.0
 40
0.0
 40
0.0
 40
1.0
 40
1.0
 40
1.0
 40
1.0
 10
34.531
 20
-1.0291
 30
0.0
 10
34.531
 20
-1.0291
 30
0.0
 10
35.6473
 20
-1.0291
 30
0.0
 10
35.6473
 20
-1.0291
 30
0.0
  0
SPLINE
  5
139
330
1F
100
AcDbEntity
  8
DATUMS
 62
   250
100
AcDbSpline
210
0.0
220
0.0
230
1.0
 70
    24
 71
     3
 72
     8
 73
     4
 74
     0
 42
0.0000000001
 43
0.0000000001
 40
0.0
 40
0.0
 40
0.0
 40
0.0
 40
1.0
 40
1.0
 40
1.0
 40
1.0
 10
34.531
 20
33.3281
 30
0.0
 10
34.531
 20
33.3281
 30
0.0
 10
35.6473
 20
33.3281
 30
0.0
 10
35.6473
 20
33.3281
 30
0.0
  0
SPLINE
  5
13A
330
1F
100
AcDbEntity
  8
DATUMS
 62
   250
100
AcDbSpline
210
0.0
220
0.0
230
1.0
 70
    24
 71
     3
 72
     8
 73
     4
 74
     0
 42
0.0000000001
 43
0.0000000001
 40
0.0
 40
0.0
 40
0.0
 40
0.0
 40
1.0
 40
1.0
 40
1.0
 40
1.0
 10
35.6473
 20
-1.0291
 30
0.0
 10
35.6473
 20
-1.0291
 30
0.0
 10
35.7902
 20
-1.0291
 30
0.0
 10
35.7902
 20
-1.0291
 30
0.0
  0
SPLINE
  5
13B
330
1F
100
AcDbEntity
  8
DATUMS
 62
   250
100
AcDbSpline
210
0.0
220
0.0
230
1.0
 70
     8
 71
     3
 72
     8
 73
     4
 74
     0
 42
0.0000000001
 43
0.0000000001
 40
0.0
 40
0.0
 40
0.0
 40
0.0
 40
1.0
 40
1.0
 40
1.0
 40
1.0
 10
35.7923
 20
33.7315
 30
0.0
 10
35.7841
 20
33.6158
 30
0.0
 10
35.7063
 20
33.5381
 30
0.0
 10
35.5905
 20
33.5298
 30
0.0
  0
SPLINE
  5
13C
330
1F
100
AcDbEntity
  8
DATUMS
 62
   250
100
AcDbSpline
210
0.0
220
0.0
230
1.0
 70
    24
 71
     3
 72
     8
 73
     4
 74
     0
 42
0.0000000001
 43
0.0000000001
 40
0.0
 40
0.0
 40
0.0
 40
0.0
 40
1.0
 40
1.0
 40
1.0
 40
1.0
 10
35.5905
 20
33.5298
 30
0.0
 10
35.5905
 20
33.5298
 30
0.0
 10
34.531
 20
33.5298
 30
0.0
 10
34.531
 20
33.5298
 30
0.0
  0
SPLINE
  5
13D
330
1F
100
AcDbEntity
  8
DATUMS
 62
   250
100
AcDbSpline
210
0.0
220
0.0
230
1.0
 70
     8
 71
     3
 72
     8
 73
     4
 74
     0
 42
0.0000000001
 43
0.0000000001
 40
0.0
 40
0.0
 40
0.0
 40
0.0
 40
1.0
 40
1.0
 40
1.0
 40
1.0
 10
35.7923
 20
33.3828
 30
0.0
 10
35.7443
 20
33.3538
 30
0.0
 10
35.6938
 20
33.3409
 30
0.0
 10
35.6392
 20
33.331
 30
0.0
  0
SPLINE
  5
13E
330
1F
100
AcDbEntity
  8
DATUMS
 62
   250
100
AcDbSpline
210
0.0
220
0.0
230
1.0
 70
     8
 71
     3
 72
     8
 73
     4
 74
     0
 42
0.0000000001
 43
0.0000000001
 40
0.0
 40
0.0
 40
0.0
 40
0.0
 40
1.0
 40
1.0
 40
1.0
 40
1.0
 10
35.7923
 20
-1.4325
 30
0.0
 10
35.7693
 20
-1.11
 30
0.0
 10
35.248
 20
-1.2308
 30
0.0
 10
35.086
 20
-1.2308
 30
0.0
  0
SPLINE
  5
13F
330
1F
100
AcDbEntity
  8
DATUMS
 62
   250
100
AcDbSpline
210
0.0
220
0.0
230
1.0
 70
    24
 71
     3
 72
    12
 73
     8
 74
     0
 42
0.0000000001
 43
0.0000000001
 40
0.0
 40
0.0
 40
0.0
 40
0.0
 40
0.3333333333333333
 40
0.3333333333333333
 40
0.3333333333333333
 40
0.3333333333333333
 40
1.0
 40
1.0
 40
1.0
 40
1.0
 10
35.086
 20
-1.2308
 30
0.0
 10
35.086
 20
-1.2308
 30
0.0
 10
35.0355
 20
-1.2308
 30
0.0
 10
35.0355
 20
-1.2308
 30
0.0
 10
35.0355
 20
-1.2308
 30
0.0
 10
35.0355
 20
-1.2308
 30
0.0
 10
34.531
 20
-1.2308
 30
0.0
 10
34.531
 20
-1.2308
 30
0.0
  0
SPLINE
  5
140
330
1F
100
AcDbEntity
  8
DATUMS
 62
   250
100
AcDbSpline
210
0.0
220
0.0
230
1.0
 70
     8
 71
     3
 72
     8
 73
     4
 74
     0
 42
0.0000000001
 43
0.0000000001
 40
0.0
 40
0.0
 40
0.0
 40
0.0
 40
1.0
 40
1.0
 40
1.0
 40
1.0
 10
35.7923
 20
-1.0838
 30
0.0
 10
35.7443
 20
-1.0549
 30
0.0
 10
35.6938
 20
-1.0419
 30
0.0
 10
35.6392
 20
-1.032
 30
0.0
  0
SPLINE
  5
141
330
1F
100
AcDbEntity
  8
DATUMS
 62
   250
100
AcDbSpline
210
0.0
220
0.0
230
1.0
 70
    24
 71
     3
 72
     8
 73
     4
 74
     0
 42
0.0000000001
 43
0.0000000001
 40
0.0
 40
0.0
 40
0.0
 40
0.0
 40
1.0
 40
1.0
 40
1.0
 40
1.0
 10
34.531
 20
-1.5083
 30
0.0
 10
34.531
 20
-1.5083
 30
0.0
 10
34.531
 20
33.8073
 30
0.0
 10
34.531
 20
33.8073
 30
0.0
  0
SPLINE
  5
142
330
1F
100
AcDbEntity
  8
DATUMS
 62
   250
100
AcDbSpline
210
0.0
220
0.0
230
1.0
 70
     8
 71
     3
 72
    12
 73
     8
 74
     0
 42
0.0000000001
 43
0.0000000001
 40
0.0
 40
0.0
 40
0.0
 40
0.0
 40
0.3333333333333333
 40
0.3333333333333333
 40
0.3333333333333333
 40
0.3333333333333333
 40
1.0
 40
1.0
 40
1.0
 40
1.0
 10
-29.9408
 20
-26.3408
 30
0.0
 10
-30.0526
 20
-26.2448
 30
0.0
 10
-30.0863
 20
-26.2254
 30
0.0
 10
-30.1775
 20
-26.1084
 30
0.0
 10
-30.1775
 20
-26.1084
 30
0.0
 10
-30.4755
 20
-25.7265
 30
0.0
 10
-30.4428
 20
-25.2964
 30
0.0
 10
-30.4428
 20
-24.8346
 30
0.0
  0
SPLINE
  5
143
330
1F
100
AcDbEntity
  8
DATUMS
 62
   250
100
AcDbSpline
210
0.0
220
0.0
230
1.0
 70
    24
 71
     3
 72
     8
 73
     4
 74
     0
 42
0.0000000001
 43
0.0000000001
 40
0.0
 40
0.0
 40
0.0
 40
0.0
 40
1.0
 40
1.0
 40
1.0
 40
1.0
 10
-30.4428
 20
-24.8346
 30
0.0
 10
-30.4428
 20
-24.8346
 30
0.0
 10
-30.4428
 20
-23.2029
 30
0.0
 10
-30.4428
 20
-23.2029
 30
0.0
  0
SPLINE
  5
144
330
1F
100
AcDbEntity
  8
DATUMS
 62
   250
100
AcDbSpline
210
0.0
220
0.0
230
1.0
 70
     8
 71
     3
 72
    12
 73
     8
 74
     0
 42
0.0000000001
 43
0.0000000001
 40
0.0
 40
0.0
 40
0.0
 40
0.0
 40
0.3333333333333333
 40
0.3333333333333333
 40
0.3333333333333333
 40
0.3333333333333333
 40
1.0
 40
1.0
 40
1.0
 40
1.0
 10
-30.4428
 20
-23.2029
 30
0.0
 10
-30.4428
 20
-22.7409
 30
0.0
 10
-30.4755
 20
-22.311
 30
0.0
 10
-30.1775
 20
-21.9289
 30
0.0
 10
-30.1775
 20
-21.9289
 30
0.0
 10
-30.0863
 20
-21.8119
 30
0.0
 10
-30.0526
 20
-21.7925
 30
0.0
 10
-29.9408
 20
-21.6965
 30
0.0
  0
SPLINE
  5
145
330
1F
100
AcDbEntity
  8
DATUMS
 62
   250
100
AcDbSpline
210
0.0
220
0.0
230
1.0
 70
    24
 71
     3
 72
     8
 73
     4
 74
     0
 42
0.0000000001
 43
0.0000000001
 40
0.0
 40
0.0
 40
0.0
 40
0.0
 40
1.0
 40
1.0
 40
1.0
 40
1.0
 10
5.7076
 20
-39.0814
 30
0.0
 10
5.7076
 20
-39.0814
 30
0.0
 10
-32.9534
 20
-39.0814
 30
0.0
 10
-32.9534
 20
-39.0814
 30
0.0
  0
SPLINE
  5
146
330
1F
100
AcDbEntity
  8
DATUMS
 62
   250
100
AcDbSpline
210
0.0
220
0.0
230
1.0
 70
    24
 71
     3
 72
     8
 73
     4
 74
     0
 42
0.0000000001
 43
0.0000000001
 40
0.0
 40
0.0
 40
0.0
 40
0.0
 40
1.0
 40
1.0
 40
1.0
 40
1.0
 10
5.7076
 20
-42.4454
 30
0.0
 10
5.7076
 20
-42.4454
 30
0.0
 10
-32.9534
 20
-42.4454
 30
0.0
 10
-32.9534
 20
-42.4454
 30
0.0
  0
SPLINE
  5
147
330
1F
100
AcDbEntity
  8
DATUMS
 62
   250
100
AcDbSpline
210
0.0
220
0.0
230
1.0
 70
    24
 71
     3
 72
    12
 73
     8
 74
     0
 42
0.0000000001
 43
0.0000000001
 40
0.0
 40
0.0
 40
0.0
 40
0.0
 40
0.3333333333333333
 40
0.3333333333333333
 40
0.3333333333333333
 40
0.3333333333333333
 40
1.0
 40
1.0
 40
1.0
 40
1.0
 10
5.7076
 20
-39.0814
 30
0.0
 10
5.7076
 20
-39.0814
 30
0.0
 10
5.7076
 20
-39.5835
 30
0.0
 10
5.7076
 20
-39.5835
 30
0.0
 10
5.7076
 20
-39.5835
 30
0.0
 10
5.7076
 20
-39.5835
 30
0.0
 10
5.7076
 20
-41.9431
 30
0.0
 10
5.7076
 20
-41.9431
 30
0.0
  0
SPLINE
  5
148
330
1F
100
AcDbEntity
  8
DATUMS
 62
   250
100
AcDbSpline
210
0.0
220
0.0
230
1.0
 70
     8
 71
     3
 72
    12
 73
     8
 74
     0
 42
0.0000000001
 43
0.0000000001
 40
0.0
 40
0.0
 40
0.0
 40
0.0
 40
0.3333333333333333
 40
0.3333333333333333
 40
0.3333333333333333
 40
0.3333333333333333
 40
1.0
 40
1.0
 40
1.0
 40
1.0
 10
5.7076
 20
-41.9431
 30
0.0
 10
5.7076
 20
-42.2244
 30
0.0
 10
5.8018
 20
-42.6747
 30
0.0
 10
5.4596
 20
-42.8164
 30
0.0
 10
5.4596
 20
-42.8164
 30
0.0
 10
5.4091
 20
-42.8373
 30
0.0
 10
5.3599
 20
-42.8434
 30
0.0
 10
5.3058
 20
-42.847
 30
0.0
  0
SPLINE
  5
149
330
1F
100
AcDbEntity
  8
DATUMS
 62
   250
100
AcDbSpline
210
0.0
220
0.0
230
1.0
 70
    24
 71
     3
 72
    16
 73
    12
 74
     0
 42
0.0000000001
 43
0.0000000001
 40
0.0
 40
0.0
 40
0.0
 40
0.0
 40
0.25
 40
0.25
 40
0.25
 40
0.25
 40
0.5
 40
0.5
 40
0.5
 40
0.5
 40
1.0
 40
1.0
 40
1.0
 40
1.0
 10
5.3058
 20
-42.847
 30
0.0
 10
5.3058
 20
-42.847
 30
0.0
 10
4.8038
 20
-42.847
 30
0.0
 10
4.8038
 20
-42.847
 30
0.0
 10
4.8038
 20
-42.847
 30
0.0
 10
4.8038
 20
-42.847
 30
0.0
 10
-32.0496
 20
-42.847
 30
0.0
 10
-32.0496
 20
-42.847
 30
0.0
 10
-32.0496
 20
-42.847
 30
0.0
 10
-32.0496
 20
-42.847
 30
0.0
 10
-32.5516
 20
-42.847
 30
0.0
 10
-32.5516
 20
-42.847
 30
0.0
  0
SPLINE
  5
14A
330
1F
100
AcDbEntity
  8
DATUMS
 62
   250
100
AcDbSpline
210
0.0
220
0.0
230
1.0
 70
     8
 71
     3
 72
    12
 73
     8
 74
     0
 42
0.0000000001
 43
0.0000000001
 40
0.0
 40
0.0
 40
0.0
 40
0.0
 40
0.3333333333333333
 40
0.3333333333333333
 40
0.3333333333333333
 40
0.3333333333333333
 40
1.0
 40
1.0
 40
1.0
 40
1.0
 10
-32.5516
 20
-42.847
 30
0.0
 10
-32.6869
 20
-42.8461
 30
0.0
 10
-32.7853
 20
-42.6969
 30
0.0
 10
-32.8529
 20
-42.599
 30
0.0
 10
-32.8529
 20
-42.599
 30
0.0
 10
-32.8746
 20
-42.5674
 30
0.0
 10
-32.9511
 20
-42.4829
 30
0.0
 10
-32.9534
 20
-42.4454
 30
0.0
  0
SPLINE
  5
14B
330
1F
100
AcDbEntity
  8
DATUMS
 62
   250
100
AcDbSpline
210
0.0
220
0.0
230
1.0
 70
    24
 71
     3
 72
    16
 73
    12
 74
     0
 42
0.0000000001
 43
0.0000000001
 40
0.0
 40
0.0
 40
0.0
 40
0.0
 40
0.25
 40
0.25
 40
0.25
 40
0.25
 40
0.5
 40
0.5
 40
0.5
 40
0.5
 40
1.0
 40
1.0
 40
1.0
 40
1.0
 10
-32.9534
 20
-42.4454
 30
0.0
 10
-32.9534
 20
-42.4454
 30
0.0
 10
-32.9534
 20
-41.9431
 30
0.0
 10
-32.9534
 20
-41.9431
 30
0.0
 10
-32.9534
 20
-41.9431
 30
0.0
 10
-32.9534
 20
-41.9431
 30
0.0
 10
-32.9534
 20
-39.5835
 30
0.0
 10
-32.9534
 20
-39.5835
 30
0.0
 10
-32.9534
 20
-39.5835
 30
0.0
 10
-32.9534
 20
-39.5835
 30
0.0
 10
-32.9534
 20
-39.0814
 30
0.0
 10
-32.9534
 20
-39.0814
 30
0.0
  0
SPLINE
  5
14C
330
1F
100
AcDbEntity
  8
DATUMS
 62
   250
100
AcDbSpline
210
0.0
220
0.0
230
1.0
 70
     8
 71
     3
 72
     8
 73
     4
 74
     0
 42
0.0000000001
 43
0.0000000001
 40
0.0
 40
0.0
 40
0.0
 40
0.0
 40
1.0
 40
1.0
 40
1.0
 40
1.0
 10
-32.9534
 20
-42.4454
 30
0.0
 10
-32.9383
 20
-42.6748
 30
0.0
 10
-32.781
 20
-42.8319
 30
0.0
 10
-32.5516
 20
-42.847
 30
0.0
  0
SPLINE
  5
14D
330
1F
100
AcDbEntity
  8
DATUMS
 62
   250
100
AcDbSpline
210
0.0
220
0.0
230
1.0
 70
     8
 71
     3
 72
     8
 73
     4
 74
     0
 42
0.0000000001
 43
0.0000000001
 40
0.0
 40
0.0
 40
0.0
 40
0.0
 40
1.0
 40
1.0
 40
1.0
 40
1.0
 10
5.3058
 20
-42.847
 30
0.0
 10
5.4996
 20
-42.8272
 30
0.0
 10
5.6148
 20
-42.5906
 30
0.0
 10
5.7076
 20
-42.4454
 30
0.0
  0
SPLINE
  5
14E
330
1F
100
AcDbEntity
  8
DATUMS
 62
   250
100
AcDbSpline
210
0.0
220
0.0
230
1.0
 70
     8
 71
     3
 72
     8
 73
     4
 74
     0
 42
0.0000000001
 43
0.0000000001
 40
0.0
 40
0.0
 40
0.0
 40
0.0
 40
1.0
 40
1.0
 40
1.0
 40
1.0
 10
-9.9327
 20
-42.847
 30
0.0
 10
-9.9796
 20
-42.899
 30
0.0
 10
-10.0445
 20
-42.917
 30
0.0
 10
-10.1113
 20
-42.9224
 30
0.0
  0
SPLINE
  5
14F
330
1F
100
AcDbEntity
  8
DATUMS
 62
   250
100
AcDbSpline
210
0.0
220
0.0
230
1.0
 70
    24
 71
     3
 72
    12
 73
     8
 74
     0
 42
0.0000000001
 43
0.0000000001
 40
0.0
 40
0.0
 40
0.0
 40
0.0
 40
0.3333333333333333
 40
0.3333333333333333
 40
0.3333333333333333
 40
0.3333333333333333
 40
1.0
 40
1.0
 40
1.0
 40
1.0
 10
-10.1113
 20
-42.9224
 30
0.0
 10
-10.1113
 20
-42.9224
 30
0.0
 10
-10.6134
 20
-42.9224
 30
0.0
 10
-10.6134
 20
-42.9224
 30
0.0
 10
-10.6134
 20
-42.9224
 30
0.0
 10
-10.6134
 20
-42.9224
 30
0.0
 10
-16.6324
 20
-42.9224
 30
0.0
 10
-16.6324
 20
-42.9224
 30
0.0
  0
SPLINE
  5
150
330
1F
100
AcDbEntity
  8
DATUMS
 62
   250
100
AcDbSpline
210
0.0
220
0.0
230
1.0
 70
     8
 71
     3
 72
     8
 73
     4
 74
     0
 42
0.0000000001
 43
0.0000000001
 40
0.0
 40
0.0
 40
0.0
 40
0.0
 40
1.0
 40
1.0
 40
1.0
 40
1.0
 10
-16.6324
 20
-42.9224
 30
0.0
 10
-16.705
 20
-42.9224
 30
0.0
 10
-17.1715
 20
-43.0036
 30
0.0
 10
-17.3131
 20
-42.847
 30
0.0
  0
SPLINE
  5
151
330
1F
100
AcDbEntity
  8
DATUMS
 62
   250
100
AcDbSpline
210
0.0
220
0.0
230
1.0
 70
     8
 71
     3
 72
     8
 73
     4
 74
     0
 42
0.0000000001
 43
0.0000000001
 40
0.0
 40
0.0
 40
0.0
 40
0.0
 40
1.0
 40
1.0
 40
1.0
 40
1.0
 10
-9.9862
 20
-42.847
 30
0.0
 10
-10.0153
 20
-42.8929
 30
0.0
 10
-10.0587
 20
-42.9163
 30
0.0
 10
-10.1113
 20
-42.9224
 30
0.0
  0
SPLINE
  5
152
330
1F
100
AcDbEntity
  8
DATUMS
 62
   250
100
AcDbSpline
210
0.0
220
0.0
230
1.0
 70
     8
 71
     3
 72
     8
 73
     4
 74
     0
 42
0.0000000001
 43
0.0000000001
 40
0.0
 40
0.0
 40
0.0
 40
0.0
 40
1.0
 40
1.0
 40
1.0
 40
1.0
 10
-17.1344
 20
-42.9224
 30
0.0
 10
-17.187
 20
-42.9163
 30
0.0
 10
-17.2304
 20
-42.8929
 30
0.0
 10
-17.2594
 20
-42.847
 30
0.0
  0
SPLINE
  5
153
330
1F
100
AcDbEntity
  8
DATUMS
 62
   250
100
AcDbSpline
210
0.0
220
0.0
230
1.0
 70
    24
 71
     3
 72
     8
 73
     4
 74
     0
 42
0.0000000001
 43
0.0000000001
 40
0.0
 40
0.0
 40
0.0
 40
0.0
 40
1.0
 40
1.0
 40
1.0
 40
1.0
 10
-29.6646
 20
-39.0814
 30
0.0
 10
-29.6646
 20
-39.0814
 30
0.0
 10
-29.6646
 20
-37.8262
 30
0.0
 10
-29.6646
 20
-37.8262
 30
0.0
  0
SPLINE
  5
154
330
1F
100
AcDbEntity
  8
DATUMS
 62
   250
100
AcDbSpline
210
0.0
220
0.0
230
1.0
 70
    24
 71
     3
 72
     8
 73
     4
 74
     0
 42
0.0000000001
 43
0.0000000001
 40
0.0
 40
0.0
 40
0.0
 40
0.0
 40
1.0
 40
1.0
 40
1.0
 40
1.0
 10
2.4188
 20
-39.0814
 30
0.0
 10
2.4188
 20
-39.0814
 30
0.0
 10
2.4188
 20
-37.8262
 30
0.0
 10
2.4188
 20
-37.8262
 30
0.0
  0
SPLINE
  5
155
330
1F
100
AcDbEntity
  8
DATUMS
 62
   250
100
AcDbSpline
210
0.0
220
0.0
230
1.0
 70
    24
 71
     3
 72
     8
 73
     4
 74
     0
 42
0.0000000001
 43
0.0000000001
 40
0.0
 40
0.0
 40
0.0
 40
0.0
 40
1.0
 40
1.0
 40
1.0
 40
1.0
 10
2.4188
 20
-38.8806
 30
0.0
 10
2.4188
 20
-38.8806
 30
0.0
 10
-29.6646
 20
-38.8806
 30
0.0
 10
-29.6646
 20
-38.8806
 30
0.0
  0
SPLINE
  5
156
330
1F
100
AcDbEntity
  8
DATUMS
 62
   250
100
AcDbSpline
210
0.0
220
0.0
230
1.0
 70
     8
 71
     3
 72
     8
 73
     4
 74
     0
 42
0.0000000001
 43
0.0000000001
 40
0.0
 40
0.0
 40
0.0
 40
0.0
 40
1.0
 40
1.0
 40
1.0
 40
1.0
 10
-29.6728
 20
-38.9372
 30
0.0
 10
-29.7057
 20
-39.0252
 30
0.0
 10
-29.7716
 20
-39.0747
 30
0.0
 10
-29.8654
 20
-39.0814
 30
0.0
  0
SPLINE
  5
157
330
1F
100
AcDbEntity
  8
DATUMS
 62
   250
100
AcDbSpline
210
0.0
220
0.0
230
1.0
 70
     8
 71
     3
 72
     8
 73
     4
 74
     0
 42
0.0000000001
 43
0.0000000001
 40
0.0
 40
0.0
 40
0.0
 40
0.0
 40
1.0
 40
1.0
 40
1.0
 40
1.0
 10
2.6198
 20
-39.0814
 30
0.0
 10
2.5259
 20
-39.0747
 30
0.0
 10
2.4599
 20
-39.0252
 30
0.0
 10
2.4271
 20
-38.9372
 30
0.0
  0
SPLINE
  5
158
330
1F
100
AcDbEntity
  8
DATUMS
 62
   250
100
AcDbSpline
210
0.0
220
0.0
230
1.0
 70
    24
 71
     3
 72
     8
 73
     4
 74
     0
 42
0.0000000001
 43
0.0000000001
 40
0.0
 40
0.0
 40
0.0
 40
0.0
 40
1.0
 40
1.0
 40
1.0
 40
1.0
 10
-15.1665
 20
-21.5962
 30
0.0
 10
-15.1665
 20
-21.5962
 30
0.0
 10
-16.7101
 20
-24.2697
 30
0.0
 10
-16.7101
 20
-24.2697
 30
0.0
  0
SPLINE
  5
159
330
1F
100
AcDbEntity
  8
DATUMS
 62
   250
100
AcDbSpline
210
0.0
220
0.0
230
1.0
 70
    24
 71
     3
 72
     8
 73
     4
 74
     0
 42
0.0000000001
 43
0.0000000001
 40
0.0
 40
0.0
 40
0.0
 40
0.0
 40
1.0
 40
1.0
 40
1.0
 40
1.0
 10
-16.7101
 20
-24.2697
 30
0.0
 10
-16.7101
 20
-24.2697
 30
0.0
 10
-15.1665
 20
-26.9433
 30
0.0
 10
-15.1665
 20
-26.9433
 30
0.0
  0
SPLINE
  5
15A
330
1F
100
AcDbEntity
  8
DATUMS
 62
   250
100
AcDbSpline
210
0.0
220
0.0
230
1.0
 70
    24
 71
     3
 72
     8
 73
     4
 74
     0
 42
0.0000000001
 43
0.0000000001
 40
0.0
 40
0.0
 40
0.0
 40
0.0
 40
1.0
 40
1.0
 40
1.0
 40
1.0
 10
-12.0793
 20
-26.9433
 30
0.0
 10
-12.0793
 20
-26.9433
 30
0.0
 10
-15.1665
 20
-26.9433
 30
0.0
 10
-15.1665
 20
-26.9433
 30
0.0
  0
SPLINE
  5
15B
330
1F
100
AcDbEntity
  8
DATUMS
 62
   250
100
AcDbSpline
210
0.0
220
0.0
230
1.0
 70
    24
 71
     3
 72
     8
 73
     4
 74
     0
 42
0.0000000001
 43
0.0000000001
 40
0.0
 40
0.0
 40
0.0
 40
0.0
 40
1.0
 40
1.0
 40
1.0
 40
1.0
 10
-12.0793
 20
-26.9433
 30
0.0
 10
-12.0793
 20
-26.9433
 30
0.0
 10
-10.5356
 20
-24.2697
 30
0.0
 10
-10.5356
 20
-24.2697
 30
0.0
  0
SPLINE
  5
15C
330
1F
100
AcDbEntity
  8
DATUMS
 62
   250
100
AcDbSpline
210
0.0
220
0.0
230
1.0
 70
    24
 71
     3
 72
     8
 73
     4
 74
     0
 42
0.0000000001
 43
0.0000000001
 40
0.0
 40
0.0
 40
0.0
 40
0.0
 40
1.0
 40
1.0
 40
1.0
 40
1.0
 10
-10.5356
 20
-24.2697
 30
0.0
 10
-10.5356
 20
-24.2697
 30
0.0
 10
-12.0793
 20
-21.5962
 30
0.0
 10
-12.0793
 20
-21.5962
 30
0.0
  0
SPLINE
  5
15D
330
1F
100
AcDbEntity
  8
DATUMS
 62
   250
100
AcDbSpline
210
0.0
220
0.0
230
1.0
 70
    24
 71
     3
 72
     8
 73
     4
 74
     0
 42
0.0000000001
 43
0.0000000001
 40
0.0
 40
0.0
 40
0.0
 40
0.0
 40
1.0
 40
1.0
 40
1.0
 40
1.0
 10
-15.1665
 20
-21.5962
 30
0.0
 10
-15.1665
 20
-21.5962
 30
0.0
 10
-12.0793
 20
-21.5962
 30
0.0
 10
-12.0793
 20
-21.5962
 30
0.0
  0
SPLINE
  5
15E
330
1F
100
AcDbEntity
  8
DATUMS
 62
   250
100
AcDbSpline
210
0.0
220
0.0
230
1.0
 70
    24
 71
     3
 72
     8
 73
     4
 74
     0
 42
0.0000000001
 43
0.0000000001
 40
0.0
 40
0.0
 40
0.0
 40
0.0
 40
1.0
 40
1.0
 40
1.0
 40
1.0
 10
-15.9952
 20
-24.2697
 30
0.0
 10
-15.9952
 20
-24.2697
 30
0.0
 10
-16.2462
 20
-24.2697
 30
0.0
 10
-16.2462
 20
-24.2697
 30
0.0
  0
SPLINE
  5
15F
330
1F
100
AcDbEntity
  8
DATUMS
 62
   250
100
AcDbSpline
210
0.0
220
0.0
230
1.0
 70
    24
 71
     3
 72
     8
 73
     4
 74
     0
 42
0.0000000001
 43
0.0000000001
 40
0.0
 40
0.0
 40
0.0
 40
0.0
 40
1.0
 40
1.0
 40
1.0
 40
1.0
 10
-10.9995
 20
-24.2697
 30
0.0
 10
-10.9995
 20
-24.2697
 30
0.0
 10
-11.2505
 20
-24.2697
 30
0.0
 10
-11.2505
 20
-24.2697
 30
0.0
  0
SPLINE
  5
160
330
1F
100
AcDbEntity
  8
DATUMS
 62
   250
100
AcDbSpline
210
0.0
220
0.0
230
1.0
 70
    11
 71
     3
 72
    48
 73
    44
 74
     0
 42
0.0000000001
 43
0.0000000001
 40
0.0
 40
0.0
 40
0.0
 40
0.0
 40
0.0833333333333333
 40
0.0833333333333333
 40
0.0833333333333333
 40
0.0833333333333333
 40
0.1666666666666667
 40
0.1666666666666667
 40
0.1666666666666667
 40
0.1666666666666667
 40
0.25
 40
0.25
 40
0.25
 40
0.25
 40
0.3333333333333333
 40
0.3333333333333333
 40
0.3333333333333333
 40
0.3333333333333333
 40
0.4166666666666667
 40
0.4166666666666667
 40
0.4166666666666667
 40
0.4166666666666667
 40
0.5
 40
0.5
 40
0.5
 40
0.5
 40
0.5833333333333334
 40
0.5833333333333334
 40
0.5833333333333334
 40
0.5833333333333334
 40
0.6666666666666666
 40
0.6666666666666666
 40
0.6666666666666666
 40
0.6666666666666666
 40
0.75
 40
0.75
 40
0.75
 40
0.75
 40
0.8333333333333334
 40
0.8333333333333334
 40
0.8333333333333334
 40
0.8333333333333334
 40
1.0
 40
1.0
 40
1.0
 40
1.0
 10
-16.0583
 20
-25.2448
 30
0.0
 10
-15.8465
 20
-25.7088
 30
0.0
 10
-15.565
 20
-26.1073
 30
0.0
 10
-15.1445
 20
-26.4067
 30
0.0
 10
-15.1445
 20
-26.4067
 30
0.0
 10
-14.8051
 20
-26.6485
 30
0.0
 10
-14.4087
 20
-26.8072
 30
0.0
 10
-13.9962
 20
-26.8665
 30
0.0
 10
-13.9962
 20
-26.8665
 30
0.0
 10
-13.6664
 20
-26.9138
 30
0.0
 10
-13.3281
 20
-26.8978
 30
0.0
 10
-13.0043
 20
-26.8192
 30
0.0
 10
-13.0043
 20
-26.8192
 30
0.0
 10
-12.6805
 20
-26.7407
 30
0.0
 10
-12.3725
 20
-26.6001
 30
0.0
 10
-12.101
 20
-26.4067
 30
0.0
 10
-12.101
 20
-26.4067
 30
0.0
 10
-11.8298
 20
-26.2135
 30
0.0
 10
-11.5961
 20
-25.9684
 30
0.0
 10
-11.4159
 20
-25.6881
 30
0.0
 10
-11.4159
 20
-25.6881
 30
0.0
 10
-10.7691
 20
-24.6818
 30
0.0
 10
-10.8986
 20
-23.3253
 30
0.0
 10
-11.7242
 20
-22.4594
 30
0.0
 10
-11.7242
 20
-22.4594
 30
0.0
 10
-11.9541
 20
-22.2183
 30
0.0
 10
-12.23
 20
-22.0218
 30
0.0
 10
-12.5331
 20
-21.8835
 30
0.0
 10
-12.5331
 20
-21.8835
 30
0.0
 10
-12.9228
 20
-21.7054
 30
0.0
 10
-13.3234
 20
-21.6494
 30
0.0
 10
-13.7477
 20
-21.6494
 30
0.0
 10
-13.7477
 20
-21.6494
 30
0.0
 10
-14.0849
 20
-21.6816
 30
0.0
 10
-14.402
 20
-21.7416
 30
0.0
 10
-14.7126
 20
-21.8835
 30
0.0
 10
-14.7126
 20
-21.8835
 30
0.0
 10
-15.6374
 20
-22.3057
 30
0.0
 10
-16.2462
 20
-23.2533
 30
0.0
 10
-16.2462
 20
-24.2697
 30
0.0
 10
-16.2462
 20
-24.2697
 30
0.0
 10
-16.2462
 20
-24.6113
 30
0.0
 10
-16.1692
 20
-24.9246
 30
0.0
 10
-16.0583
 20
-25.2448
 30
0.0
  0
SPLINE
  5
161
330
1F
100
AcDbEntity
  8
DATUMS
 62
   250
100
AcDbSpline
210
0.0
220
0.0
230
1.0
 70
     8
 71
     3
 72
    44
 73
    40
 74
     0
 42
0.0000000001
 43
0.0000000001
 40
0.0
 40
0.0
 40
0.0
 40
0.0
 40
0.0909090909090909
 40
0.0909090909090909
 40
0.0909090909090909
 40
0.0909090909090909
 40
0.1818181818181818
 40
0.1818181818181818
 40
0.1818181818181818
 40
0.1818181818181818
 40
0.2727272727272727
 40
0.2727272727272727
 40
0.2727272727272727
 40
0.2727272727272727
 40
0.3636363636363636
 40
0.3636363636363636
 40
0.3636363636363636
 40
0.3636363636363636
 40
0.4545454545454545
 40
0.4545454545454545
 40
0.4545454545454545
 40
0.4545454545454545
 40
0.5454545454545454
 40
0.5454545454545454
 40
0.5454545454545454
 40
0.5454545454545454
 40
0.6363636363636364
 40
0.6363636363636364
 40
0.6363636363636364
 40
0.6363636363636364
 40
0.7272727272727273
 40
0.7272727272727273
 40
0.7272727272727273
 40
0.7272727272727273
 40
0.8181818181818182
 40
0.8181818181818182
 40
0.8181818181818182
 40
0.8181818181818182
 40
1.0
 40
1.0
 40
1.0
 40
1.0
 10
-13.8408
 20
-22.3364
 30
0.0
 10
-14.2824
 20
-22.4114
 30
0.0
 10
-14.6766
 20
-22.572
 30
0.0
 10
-14.9986
 20
-22.8941
 30
0.0
 10
-14.9986
 20
-22.8941
 30
0.0
 10
-15.153
 20
-23.0485
 30
0.0
 10
-15.281
 20
-23.2289
 30
0.0
 10
-15.3757
 20
-23.4256
 30
0.0
 10
-15.3757
 20
-23.4256
 30
0.0
 10
-15.8
 20
-24.3064
 30
0.0
 10
-15.4856
 20
-25.3971
 30
0.0
 10
-14.658
 20
-25.9171
 30
0.0
 10
-14.658
 20
-25.9171
 30
0.0
 10
-14.473
 20
-26.0333
 30
0.0
 10
-14.2687
 20
-26.1179
 30
0.0
 10
-14.0558
 20
-26.1666
 30
0.0
 10
-14.0558
 20
-26.1666
 30
0.0
 10
-13.8429
 20
-26.2153
 30
0.0
 10
-13.6221
 20
-26.2276
 30
0.0
 10
-13.405
 20
-26.2031
 30
0.0
 10
-13.405
 20
-26.2031
 30
0.0
 10
-12.5138
 20
-26.1028
 30
0.0
 10
-11.7899
 20
-25.3788
 30
0.0
 10
-11.6895
 20
-24.4877
 30
0.0
 10
-11.6895
 20
-24.4877
 30
0.0
 10
-11.665
 20
-24.2706
 30
0.0
 10
-11.6775
 20
-24.0497
 30
0.0
 10
-11.7261
 20
-23.8368
 30
0.0
 10
-11.7261
 20
-23.8368
 30
0.0
 10
-11.7747
 20
-23.6239
 30
0.0
 10
-11.8594
 20
-23.4197
 30
0.0
 10
-11.9754
 20
-23.2347
 30
0.0
 10
-11.9754
 20
-23.2347
 30
0.0
 10
-12.2481
 20
-22.8008
 30
0.0
 10
-12.6903
 20
-22.487
 30
0.0
 10
-13.1899
 20
-22.3729
 30
0.0
 10
-13.1899
 20
-22.3729
 30
0.0
 10
-13.3796
 20
-22.3296
 30
0.0
 10
-13.4295
 20
-22.335
 30
0.0
 10
-13.6228
 20
-22.3242
 30
0.0
  0
SPLINE
  5
162
330
1F
100
AcDbEntity
  8
DATUMS
 62
   250
100
AcDbSpline
210
0.0
220
0.0
230
1.0
 70
    24
 71
     3
 72
     8
 73
     4
 74
     0
 42
0.0000000001
 43
0.0000000001
 40
0.0
 40
0.0
 40
0.0
 40
0.0
 40
1.0
 40
1.0
 40
1.0
 40
1.0
 10
-13.6228
 20
-22.3242
 30
0.0
 10
-13.6228
 20
-22.3242
 30
0.0
 10
-13.8408
 20
-22.3364
 30
0.0
 10
-13.8408
 20
-22.3364
 30
0.0
  0
SPLINE
  5
163
330
1F
100
AcDbEntity
  8
DATUMS
 62
   250
100
AcDbSpline
210
0.0
220
0.0
230
1.0
 70
    11
 71
     3
 72
    40
 73
    36
 74
     0
 42
0.0000000001
 43
0.0000000001
 40
0.0
 40
0.0
 40
0.0
 40
0.0
 40
0.1
 40
0.1
 40
0.1
 40
0.1
 40
0.2
 40
0.2
 40
0.2
 40
0.2
 40
0.3
 40
0.3
 40
0.3
 40
0.3
 40
0.4
 40
0.4
 40
0.4
 40
0.4
 40
0.5
 40
0.5
 40
0.5
 40
0.5
 40
0.6
 40
0.6
 40
0.6
 40
0.6
 40
0.7
 40
0.7
 40
0.7
 40
0.7
 40
0.8
 40
0.8
 40
0.8
 40
0.8
 40
1.0
 40
1.0
 40
1.0
 40
1.0
 10
-13.329
 20
-22.7286
 30
0.0
 10
-13.5895
 20
-22.6956
 30
0.0
 10
-13.4586
 20
-22.7038
 30
0.0
 10
-13.7213
 20
-22.7038
 30
0.0
 10
-13.7213
 20
-22.7038
 30
0.0
 10
-13.8948
 20
-22.7258
 30
0.0
 10
-13.9406
 20
-22.7233
 30
0.0
 10
-14.1077
 20
-22.7776
 30
0.0
 10
-14.1077
 20
-22.7776
 30
0.0
 10
-14.4848
 20
-22.9
 30
0.0
 10
-14.8069
 20
-23.1666
 30
0.0
 10
-14.9978
 20
-23.514
 30
0.0
 10
-14.9978
 20
-23.514
 30
0.0
 10
-15.0928
 20
-23.6869
 30
0.0
 10
-15.1548
 20
-23.8774
 30
0.0
 10
-15.1795
 20
-24.0731
 30
0.0
 10
-15.1795
 20
-24.0731
 30
0.0
 10
-15.2914
 20
-24.9585
 30
0.0
 10
-14.6121
 20
-25.7797
 30
0.0
 10
-13.7213
 20
-25.8357
 30
0.0
 10
-13.7213
 20
-25.8357
 30
0.0
 10
-13.5244
 20
-25.8481
 30
0.0
 10
-13.3256
 20
-25.823
 30
0.0
 10
-13.138
 20
-25.762
 30
0.0
 10
-13.138
 20
-25.762
 30
0.0
 10
-12.2894
 20
-25.4862
 30
0.0
 10
-11.8355
 20
-24.522
 30
0.0
 10
-12.164
 20
-23.6923
 30
0.0
 10
-12.164
 20
-23.6923
 30
0.0
 10
-12.3099
 20
-23.3237
 30
0.0
 10
-12.596
 20
-23.0189
 30
0.0
 10
-12.9549
 20
-22.85
 30
0.0
 10
-12.9549
 20
-22.85
 30
0.0
 10
-13.1139
 20
-22.7752
 30
0.0
 10
-13.1597
 20
-22.7719
 30
0.0
 10
-13.329
 20
-22.7286
 30
0.0
  0
SPLINE
  5
164
330
1F
100
AcDbEntity
  8
DATUMS
 62
   250
100
AcDbSpline
210
0.0
220
0.0
230
1.0
 70
     8
 71
     3
 72
    12
 73
     8
 74
     0
 42
0.0000000001
 43
0.0000000001
 40
0.0
 40
0.0
 40
0.0
 40
0.0
 40
0.3333333333333333
 40
0.3333333333333333
 40
0.3333333333333333
 40
0.3333333333333333
 40
1.0
 40
1.0
 40
1.0
 40
1.0
 10
-15.9952
 20
-24.2697
 30
0.0
 10
-15.9843
 20
-24.4829
 30
0.0
 10
-15.9898
 20
-24.5377
 30
0.0
 10
-15.9467
 20
-24.7473
 30
0.0
 10
-15.9467
 20
-24.7473
 30
0.0
 10
-15.8409
 20
-25.2625
 30
0.0
 10
-15.5641
 20
-25.7259
 30
0.0
 10
-15.1662
 20
-26.0676
 30
0.0
  0
SPLINE
  5
165
330
1F
100
AcDbEntity
  8
DATUMS
 62
   250
100
AcDbSpline
210
0.0
220
0.0
230
1.0
 70
    11
 71
     3
 72
    48
 73
    44
 74
     0
 42
0.0000000001
 43
0.0000000001
 40
0.0
 40
0.0
 40
0.0
 40
0.0
 40
0.0833333333333333
 40
0.0833333333333333
 40
0.0833333333333333
 40
0.0833333333333333
 40
0.1666666666666667
 40
0.1666666666666667
 40
0.1666666666666667
 40
0.1666666666666667
 40
0.25
 40
0.25
 40
0.25
 40
0.25
 40
0.3333333333333333
 40
0.3333333333333333
 40
0.3333333333333333
 40
0.3333333333333333
 40
0.4166666666666667
 40
0.4166666666666667
 40
0.4166666666666667
 40
0.4166666666666667
 40
0.5
 40
0.5
 40
0.5
 40
0.5
 40
0.5833333333333334
 40
0.5833333333333334
 40
0.5833333333333334
 40
0.5833333333333334
 40
0.6666666666666666
 40
0.6666666666666666
 40
0.6666666666666666
 40
0.6666666666666666
 40
0.75
 40
0.75
 40
0.75
 40
0.75
 40
0.8333333333333334
 40
0.8333333333333334
 40
0.8333333333333334
 40
0.8333333333333334
 40
1.0
 40
1.0
 40
1.0
 40
1.0
 10
-14.3762
 20
-26.8351
 30
0.0
 10
-14.1247
 20
-26.896
 30
0.0
 10
-13.8833
 20
-26.9433
 30
0.0
 10
-13.6228
 20
-26.9433
 30
0.0
 10
-13.6228
 20
-26.9433
 30
0.0
 10
-13.0269
 20
-26.9433
 30
0.0
 10
-12.4386
 20
-26.7398
 30
0.0
 10
-11.9701
 20
-26.3713
 30
0.0
 10
-11.9701
 20
-26.3713
 30
0.0
 10
-11.0118
 20
-25.6176
 30
0.0
 10
-10.6844
 20
-24.268
 30
0.0
 10
-11.1909
 20
-23.1591
 30
0.0
 10
-11.1909
 20
-23.1591
 30
0.0
 10
-11.2965
 20
-22.9275
 30
0.0
 10
-11.4355
 20
-22.7112
 30
0.0
 10
-11.6023
 20
-22.5189
 30
0.0
 10
-11.6023
 20
-22.5189
 30
0.0
 10
-11.8246
 20
-22.2623
 30
0.0
 10
-12.0959
 20
-22.049
 30
0.0
 10
-12.3977
 20
-21.8935
 30
0.0
 10
-12.3977
 20
-21.8935
 30
0.0
 10
-12.7859
 20
-21.6933
 30
0.0
 10
-13.1908
 20
-21.6168
 30
0.0
 10
-13.6228
 20
-21.5962
 30
0.0
 10
-13.6228
 20
-21.5962
 30
0.0
 10
-14.0549
 20
-21.6168
 30
0.0
 10
-14.4598
 20
-21.6932
 30
0.0
 10
-14.848
 20
-21.8935
 30
0.0
 10
-14.848
 20
-21.8935
 30
0.0
 10
-15.9317
 20
-22.452
 30
0.0
 10
-16.5085
 20
-23.7154
 30
0.0
 10
-16.2211
 20
-24.9001
 30
0.0
 10
-16.2211
 20
-24.9001
 30
0.0
 10
-16.141
 20
-25.2301
 30
0.0
 10
-15.9977
 20
-25.5441
 30
0.0
 10
-15.8007
 20
-25.8206
 30
0.0
 10
-15.8007
 20
-25.8206
 30
0.0
 10
-15.5544
 20
-26.1666
 30
0.0
 10
-15.2255
 20
-26.4515
 30
0.0
 10
-14.848
 20
-26.6461
 30
0.0
 10
-14.848
 20
-26.6461
 30
0.0
 10
-14.6466
 20
-26.7499
 30
0.0
 10
-14.5895
 20
-26.7612
 30
0.0
 10
-14.3762
 20
-26.8351
 30
0.0
  0
SPLINE
  5
166
330
1F
100
AcDbEntity
  8
DATUMS
 62
   250
100
AcDbSpline
210
0.0
220
0.0
230
1.0
 70
     8
 71
     3
 72
    12
 73
     8
 74
     0
 42
0.0000000001
 43
0.0000000001
 40
0.0
 40
0.0
 40
0.0
 40
0.0
 40
0.3333333333333333
 40
0.3333333333333333
 40
0.3333333333333333
 40
0.3333333333333333
 40
1.0
 40
1.0
 40
1.0
 40
1.0
 10
-13.7431
 20
-26.6391
 30
0.0
 10
-13.5297
 20
-26.6391
 30
0.0
 10
-13.4753
 20
-26.6472
 30
0.0
 10
-13.2636
 20
-26.6148
 30
0.0
 10
-13.2636
 20
-26.6148
 30
0.0
 10
-12.7439
 20
-26.5352
 30
0.0
 10
-12.2671
 20
-26.2823
 30
0.0
 10
-11.9056
 20
-25.9022
 30
0.0
  0
SPLINE
  5
167
330
1F
100
AcDbEntity
  8
DATUMS
 62
   250
100
AcDbSpline
210
0.0
220
0.0
230
1.0
 70
     8
 71
     3
 72
    12
 73
     8
 74
     0
 42
0.0000000001
 43
0.0000000001
 40
0.0
 40
0.0
 40
0.0
 40
0.0
 40
0.3333333333333333
 40
0.3333333333333333
 40
0.3333333333333333
 40
0.3333333333333333
 40
1.0
 40
1.0
 40
1.0
 40
1.0
 10
-12.0795
 20
-22.472
 30
0.0
 10
-11.6816
 20
-22.8136
 30
0.0
 10
-11.4048
 20
-23.2772
 30
0.0
 10
-11.299
 20
-23.7923
 30
0.0
 10
-11.299
 20
-23.7923
 30
0.0
 10
-11.2559
 20
-24.0019
 30
0.0
 10
-11.2614
 20
-24.0569
 30
0.0
 10
-11.2505
 20
-24.2697
 30
0.0
  0
SPLINE
  5
168
330
1F
100
AcDbEntity
  8
DATUMS
 62
   250
100
AcDbSpline
210
0.0
220
0.0
230
1.0
 70
    24
 71
     3
 72
     8
 73
     4
 74
     0
 42
0.0000000001
 43
0.0000000001
 40
0.0
 40
0.0
 40
0.0
 40
0.0
 40
1.0
 40
1.0
 40
1.0
 40
1.0
 10
-13.5027
 20
-21.9005
 30
0.0
 10
-13.5027
 20
-21.9005
 30
0.0
 10
-13.7431
 20
-21.9005
 30
0.0
 10
-13.7431
 20
-21.9005
 30
0.0
  0
SPLINE
  5
169
330
1F
100
AcDbEntity
  8
DATUMS
 62
   250
100
AcDbSpline
210
0.0
220
0.0
230
1.0
 70
     8
 71
     3
 72
    12
 73
     8
 74
     0
 42
0.0000000001
 43
0.0000000001
 40
0.0
 40
0.0
 40
0.0
 40
0.0
 40
0.3333333333333333
 40
0.3333333333333333
 40
0.3333333333333333
 40
0.3333333333333333
 40
1.0
 40
1.0
 40
1.0
 40
1.0
 10
-13.7431
 20
-21.9005
 30
0.0
 10
-13.9551
 20
-21.9221
 30
0.0
 10
-14.0103
 20
-21.9194
 30
0.0
 10
-14.2174
 20
-21.9732
 30
0.0
 10
-14.2174
 20
-21.9732
 30
0.0
 10
-14.6479
 20
-22.0845
 30
0.0
 10
-15.0346
 20
-22.3159
 30
0.0
 10
-15.3401
 20
-22.6374
 30
0.0
  0
SPLINE
  5
16A
330
1F
100
AcDbEntity
  8
DATUMS
 62
   250
100
AcDbSpline
210
0.0
220
0.0
230
1.0
 70
    11
 71
     3
 72
    44
 73
    40
 74
     0
 42
0.0000000001
 43
0.0000000001
 40
0.0
 40
0.0
 40
0.0
 40
0.0
 40
0.0909090909090909
 40
0.0909090909090909
 40
0.0909090909090909
 40
0.0909090909090909
 40
0.1818181818181818
 40
0.1818181818181818
 40
0.1818181818181818
 40
0.1818181818181818
 40
0.2727272727272727
 40
0.2727272727272727
 40
0.2727272727272727
 40
0.2727272727272727
 40
0.3636363636363636
 40
0.3636363636363636
 40
0.3636363636363636
 40
0.3636363636363636
 40
0.4545454545454545
 40
0.4545454545454545
 40
0.4545454545454545
 40
0.4545454545454545
 40
0.5454545454545454
 40
0.5454545454545454
 40
0.5454545454545454
 40
0.5454545454545454
 40
0.6363636363636364
 40
0.6363636363636364
 40
0.6363636363636364
 40
0.6363636363636364
 40
0.7272727272727273
 40
0.7272727272727273
 40
0.7272727272727273
 40
0.7272727272727273
 40
0.8181818181818182
 40
0.8181818181818182
 40
0.8181818181818182
 40
0.8181818181818182
 40
1.0
 40
1.0
 40
1.0
 40
1.0
 10
-14.6897
 20
-24.2697
 30
0.0
 10
-14.6734
 20
-24.0503
 30
0.0
 10
-14.6308
 20
-23.8541
 30
0.0
 10
-14.5044
 20
-23.6686
 30
0.0
 10
-14.5044
 20
-23.6686
 30
0.0
 10
-14.1245
 20
-23.1115
 30
0.0
 10
-13.2996
 20
-23.0497
 30
0.0
 10
-12.8408
 20
-23.5441
 30
0.0
 10
-12.8408
 20
-23.5441
 30
0.0
 10
-12.7682
 20
-23.6221
 30
0.0
 10
-12.708
 20
-23.7107
 30
0.0
 10
-12.6616
 20
-23.8068
 30
0.0
 10
-12.6616
 20
-23.8068
 30
0.0
 10
-12.5922
 20
-23.9508
 30
0.0
 10
-12.556
 20
-24.1099
 30
0.0
 10
-12.556
 20
-24.2697
 30
0.0
 10
-12.556
 20
-24.2697
 30
0.0
 10
-12.556
 20
-24.4296
 30
0.0
 10
-12.5922
 20
-24.5888
 30
0.0
 10
-12.6616
 20
-24.7328
 30
0.0
 10
-12.6616
 20
-24.7328
 30
0.0
 10
-12.731
 20
-24.8768
 30
0.0
 10
-12.8328
 20
-25.0043
 30
0.0
 10
-12.9577
 20
-25.104
 30
0.0
 10
-12.9577
 20
-25.104
 30
0.0
 10
-13.1331
 20
-25.2437
 30
0.0
 10
-13.3256
 20
-25.301
 30
0.0
 10
-13.5431
 20
-25.3338
 30
0.0
 10
-13.5431
 20
-25.3338
 30
0.0
 10
-13.6843
 20
-25.3338
 30
0.0
 10
-13.7214
 20
-25.3417
 30
0.0
 10
-13.8602
 20
-25.31
 30
0.0
 10
-13.8602
 20
-25.31
 30
0.0
 10
-14.2284
 20
-25.2259
 30
0.0
 10
-14.5311
 20
-24.9452
 30
0.0
 10
-14.6424
 20
-24.5843
 30
0.0
 10
-14.6424
 20
-24.5843
 30
0.0
 10
-14.6844
 20
-24.4482
 30
0.0
 10
-14.6793
 20
-24.4107
 30
0.0
 10
-14.6897
 20
-24.2697
 30
0.0
  0
SPLINE
  5
16B
330
1F
100
AcDbEntity
  8
DATUMS
 62
   250
100
AcDbSpline
210
0.0
220
0.0
230
1.0
 70
    24
 71
     3
 72
     8
 73
     4
 74
     0
 42
0.0000000001
 43
0.0000000001
 40
0.0
 40
0.0
 40
0.0
 40
0.0
 40
1.0
 40
1.0
 40
1.0
 40
1.0
 10
-2.5015
 20
-37.073
 30
0.0
 10
-2.5015
 20
-37.073
 30
0.0
 10
-3.556
 20
-37.073
 30
0.0
 10
-3.556
 20
-37.073
 30
0.0
  0
SPLINE
  5
16C
330
1F
100
AcDbEntity
  8
DATUMS
 62
   250
100
AcDbSpline
210
0.0
220
0.0
230
1.0
 70
    24
 71
     3
 72
     8
 73
     4
 74
     0
 42
0.0000000001
 43
0.0000000001
 40
0.0
 40
0.0
 40
0.0
 40
0.0
 40
1.0
 40
1.0
 40
1.0
 40
1.0
 10
-3.5308
 20
-36.8723
 30
0.0
 10
-3.5308
 20
-36.8723
 30
0.0
 10
-3.556
 20
-36.8723
 30
0.0
 10
-3.556
 20
-36.8723
 30
0.0
  0
SPLINE
  5
16D
330
1F
100
AcDbEntity
  8
DATUMS
 62
   250
100
AcDbSpline
210
0.0
220
0.0
230
1.0
 70
    24
 71
     3
 72
     8
 73
     4
 74
     0
 42
0.0000000001
 43
0.0000000001
 40
0.0
 40
0.0
 40
0.0
 40
0.0
 40
1.0
 40
1.0
 40
1.0
 40
1.0
 10
-3.5308
 20
-37.073
 30
0.0
 10
-3.5308
 20
-37.073
 30
0.0
 10
-3.5308
 20
-35.4556
 30
0.0
 10
-3.5308
 20
-35.4556
 30
0.0
  0
SPLINE
  5
16E
330
1F
100
AcDbEntity
  8
DATUMS
 62
   250
100
AcDbSpline
210
0.0
220
0.0
230
1.0
 70
    24
 71
     3
 72
     8
 73
     4
 74
     0
 42
0.0000000001
 43
0.0000000001
 40
0.0
 40
0.0
 40
0.0
 40
0.0
 40
1.0
 40
1.0
 40
1.0
 40
1.0
 10
-2.5267
 20
-35.4556
 30
0.0
 10
-2.5267
 20
-35.4556
 30
0.0
 10
-3.5308
 20
-35.4556
 30
0.0
 10
-3.5308
 20
-35.4556
 30
0.0
  0
SPLINE
  5
16F
330
1F
100
AcDbEntity
  8
DATUMS
 62
   250
100
AcDbSpline
210
0.0
220
0.0
230
1.0
 70
    24
 71
     3
 72
     8
 73
     4
 74
     0
 42
0.0000000001
 43
0.0000000001
 40
0.0
 40
0.0
 40
0.0
 40
0.0
 40
1.0
 40
1.0
 40
1.0
 40
1.0
 10
-2.5267
 20
-37.073
 30
0.0
 10
-2.5267
 20
-37.073
 30
0.0
 10
-2.5267
 20
-35.4556
 30
0.0
 10
-2.5267
 20
-35.4556
 30
0.0
  0
SPLINE
  5
170
330
1F
100
AcDbEntity
  8
DATUMS
 62
   250
100
AcDbSpline
210
0.0
220
0.0
230
1.0
 70
    24
 71
     3
 72
     8
 73
     4
 74
     0
 42
0.0000000001
 43
0.0000000001
 40
0.0
 40
0.0
 40
0.0
 40
0.0
 40
1.0
 40
1.0
 40
1.0
 40
1.0
 10
-2.5267
 20
-36.8723
 30
0.0
 10
-2.5267
 20
-36.8723
 30
0.0
 10
-2.5015
 20
-36.8723
 30
0.0
 10
-2.5015
 20
-36.8723
 30
0.0
  0
SPLINE
  5
171
330
1F
100
AcDbEntity
  8
DATUMS
 62
   250
100
AcDbSpline
210
0.0
220
0.0
230
1.0
 70
    24
 71
     3
 72
     8
 73
     4
 74
     0
 42
0.0000000001
 43
0.0000000001
 40
0.0
 40
0.0
 40
0.0
 40
0.0
 40
1.0
 40
1.0
 40
1.0
 40
1.0
 10
-0.0162
 20
-36.8723
 30
0.0
 10
-0.0162
 20
-36.8723
 30
0.0
 10
-0.0413
 20
-36.8723
 30
0.0
 10
-0.0413
 20
-36.8723
 30
0.0
  0
SPLINE
  5
172
330
1F
100
AcDbEntity
  8
DATUMS
 62
   250
100
AcDbSpline
210
0.0
220
0.0
230
1.0
 70
    24
 71
     3
 72
     8
 73
     4
 74
     0
 42
0.0000000001
 43
0.0000000001
 40
0.0
 40
0.0
 40
0.0
 40
0.0
 40
1.0
 40
1.0
 40
1.0
 40
1.0
 10
1.0131
 20
-37.073
 30
0.0
 10
1.0131
 20
-37.073
 30
0.0
 10
-0.0413
 20
-37.073
 30
0.0
 10
-0.0413
 20
-37.073
 30
0.0
  0
SPLINE
  5
173
330
1F
100
AcDbEntity
  8
DATUMS
 62
   250
100
AcDbSpline
210
0.0
220
0.0
230
1.0
 70
    24
 71
     3
 72
     8
 73
     4
 74
     0
 42
0.0000000001
 43
0.0000000001
 40
0.0
 40
0.0
 40
0.0
 40
0.0
 40
1.0
 40
1.0
 40
1.0
 40
1.0
 10
-0.0162
 20
-37.073
 30
0.0
 10
-0.0162
 20
-37.073
 30
0.0
 10
-0.0162
 20
-35.4556
 30
0.0
 10
-0.0162
 20
-35.4556
 30
0.0
  0
SPLINE
  5
174
330
1F
100
AcDbEntity
  8
DATUMS
 62
   250
100
AcDbSpline
210
0.0
220
0.0
230
1.0
 70
    24
 71
     3
 72
     8
 73
     4
 74
     0
 42
0.0000000001
 43
0.0000000001
 40
0.0
 40
0.0
 40
0.0
 40
0.0
 40
1.0
 40
1.0
 40
1.0
 40
1.0
 10
0.9879
 20
-35.4556
 30
0.0
 10
0.9879
 20
-35.4556
 30
0.0
 10
-0.0162
 20
-35.4556
 30
0.0
 10
-0.0162
 20
-35.4556
 30
0.0
  0
SPLINE
  5
175
330
1F
100
AcDbEntity
  8
DATUMS
 62
   250
100
AcDbSpline
210
0.0
220
0.0
230
1.0
 70
    24
 71
     3
 72
     8
 73
     4
 74
     0
 42
0.0000000001
 43
0.0000000001
 40
0.0
 40
0.0
 40
0.0
 40
0.0
 40
1.0
 40
1.0
 40
1.0
 40
1.0
 10
0.9879
 20
-37.073
 30
0.0
 10
0.9879
 20
-37.073
 30
0.0
 10
0.9879
 20
-35.4556
 30
0.0
 10
0.9879
 20
-35.4556
 30
0.0
  0
SPLINE
  5
176
330
1F
100
AcDbEntity
  8
DATUMS
 62
   250
100
AcDbSpline
210
0.0
220
0.0
230
1.0
 70
    24
 71
     3
 72
     8
 73
     4
 74
     0
 42
0.0000000001
 43
0.0000000001
 40
0.0
 40
0.0
 40
0.0
 40
0.0
 40
1.0
 40
1.0
 40
1.0
 40
1.0
 10
0.9879
 20
-36.8723
 30
0.0
 10
0.9879
 20
-36.8723
 30
0.0
 10
1.0131
 20
-36.8723
 30
0.0
 10
1.0131
 20
-36.8723
 30
0.0
  0
SPLINE
  5
177
330
1F
100
AcDbEntity
  8
DATUMS
 62
   250
100
AcDbSpline
210
0.0
220
0.0
230
1.0
 70
    24
 71
     3
 72
     8
 73
     4
 74
     0
 42
0.0000000001
 43
0.0000000001
 40
0.0
 40
0.0
 40
0.0
 40
0.0
 40
1.0
 40
1.0
 40
1.0
 40
1.0
 10
2.695
 20
-35.4556
 30
0.0
 10
2.695
 20
-35.4556
 30
0.0
 10
2.8959
 20
-35.4556
 30
0.0
 10
2.8959
 20
-35.4556
 30
0.0
  0
SPLINE
  5
178
330
1F
100
AcDbEntity
  8
DATUMS
 62
   250
100
AcDbSpline
210
0.0
220
0.0
230
1.0
 70
    24
 71
     3
 72
     8
 73
     4
 74
     0
 42
0.0000000001
 43
0.0000000001
 40
0.0
 40
0.0
 40
0.0
 40
0.0
 40
1.0
 40
1.0
 40
1.0
 40
1.0
 10
-2.5267
 20
-36.8471
 30
0.0
 10
-2.5267
 20
-36.8471
 30
0.0
 10
-3.5308
 20
-36.8471
 30
0.0
 10
-3.5308
 20
-36.8471
 30
0.0
  0
SPLINE
  5
179
330
1F
100
AcDbEntity
  8
DATUMS
 62
   250
100
AcDbSpline
210
0.0
220
0.0
230
1.0
 70
    24
 71
     3
 72
     8
 73
     4
 74
     0
 42
0.0000000001
 43
0.0000000001
 40
0.0
 40
0.0
 40
0.0
 40
0.0
 40
1.0
 40
1.0
 40
1.0
 40
1.0
 10
0.9879
 20
-36.8471
 30
0.0
 10
0.9879
 20
-36.8471
 30
0.0
 10
-0.0162
 20
-36.8471
 30
0.0
 10
-0.0162
 20
-36.8471
 30
0.0
  0
SPLINE
  5
17A
330
1F
100
AcDbEntity
  8
DATUMS
 62
   250
100
AcDbSpline
210
0.0
220
0.0
230
1.0
 70
    24
 71
     3
 72
    12
 73
     8
 74
     0
 42
0.0000000001
 43
0.0000000001
 40
0.0
 40
0.0
 40
0.0
 40
0.0
 40
0.3333333333333333
 40
0.3333333333333333
 40
0.3333333333333333
 40
0.3333333333333333
 40
1.0
 40
1.0
 40
1.0
 40
1.0
 10
2.8959
 20
-35.4556
 30
0.0
 10
2.8959
 20
-35.4556
 30
0.0
 10
2.8959
 20
-35.9576
 30
0.0
 10
2.8959
 20
-35.9576
 30
0.0
 10
2.8959
 20
-35.9576
 30
0.0
 10
2.8959
 20
-35.9576
 30
0.0
 10
2.8959
 20
-36.345
 30
0.0
 10
2.8959
 20
-36.345
 30
0.0
  0
SPLINE
  5
17B
330
1F
100
AcDbEntity
  8
DATUMS
 62
   250
100
AcDbSpline
210
0.0
220
0.0
230
1.0
 70
     8
 71
     3
 72
     8
 73
     4
 74
     0
 42
0.0000000001
 43
0.0000000001
 40
0.0
 40
0.0
 40
0.0
 40
0.0
 40
1.0
 40
1.0
 40
1.0
 40
1.0
 10
2.8959
 20
-36.345
 30
0.0
 10
2.8959
 20
-36.4849
 30
0.0
 10
3.0117
 20
-37.0394
 30
0.0
 10
2.695
 20
-37.0706
 30
0.0
  0
SPLINE
  5
17C
330
1F
100
AcDbEntity
  8
DATUMS
 62
   250
100
AcDbSpline
210
0.0
220
0.0
230
1.0
 70
    24
 71
     3
 72
     8
 73
     4
 74
     0
 42
0.0000000001
 43
0.0000000001
 40
0.0
 40
0.0
 40
0.0
 40
0.0
 40
1.0
 40
1.0
 40
1.0
 40
1.0
 10
-23.6898
 20
-37.073
 30
0.0
 10
-23.6898
 20
-37.073
 30
0.0
 10
-24.7441
 20
-37.073
 30
0.0
 10
-24.7441
 20
-37.073
 30
0.0
  0
SPLINE
  5
17D
330
1F
100
AcDbEntity
  8
DATUMS
 62
   250
100
AcDbSpline
210
0.0
220
0.0
230
1.0
 70
    24
 71
     3
 72
     8
 73
     4
 74
     0
 42
0.0000000001
 43
0.0000000001
 40
0.0
 40
0.0
 40
0.0
 40
0.0
 40
1.0
 40
1.0
 40
1.0
 40
1.0
 10
-24.719
 20
-36.8723
 30
0.0
 10
-24.719
 20
-36.8723
 30
0.0
 10
-24.7441
 20
-36.8723
 30
0.0
 10
-24.7441
 20
-36.8723
 30
0.0
  0
SPLINE
  5
17E
330
1F
100
AcDbEntity
  8
DATUMS
 62
   250
100
AcDbSpline
210
0.0
220
0.0
230
1.0
 70
    24
 71
     3
 72
     8
 73
     4
 74
     0
 42
0.0000000001
 43
0.0000000001
 40
0.0
 40
0.0
 40
0.0
 40
0.0
 40
1.0
 40
1.0
 40
1.0
 40
1.0
 10
-24.719
 20
-37.073
 30
0.0
 10
-24.719
 20
-37.073
 30
0.0
 10
-24.719
 20
-35.4556
 30
0.0
 10
-24.719
 20
-35.4556
 30
0.0
  0
SPLINE
  5
17F
330
1F
100
AcDbEntity
  8
DATUMS
 62
   250
100
AcDbSpline
210
0.0
220
0.0
230
1.0
 70
    24
 71
     3
 72
     8
 73
     4
 74
     0
 42
0.0000000001
 43
0.0000000001
 40
0.0
 40
0.0
 40
0.0
 40
0.0
 40
1.0
 40
1.0
 40
1.0
 40
1.0
 10
-23.7149
 20
-35.4556
 30
0.0
 10
-23.7149
 20
-35.4556
 30
0.0
 10
-24.719
 20
-35.4556
 30
0.0
 10
-24.719
 20
-35.4556
 30
0.0
  0
SPLINE
  5
180
330
1F
100
AcDbEntity
  8
DATUMS
 62
   250
100
AcDbSpline
210
0.0
220
0.0
230
1.0
 70
    24
 71
     3
 72
     8
 73
     4
 74
     0
 42
0.0000000001
 43
0.0000000001
 40
0.0
 40
0.0
 40
0.0
 40
0.0
 40
1.0
 40
1.0
 40
1.0
 40
1.0
 10
-23.7149
 20
-37.073
 30
0.0
 10
-23.7149
 20
-37.073
 30
0.0
 10
-23.7149
 20
-35.4556
 30
0.0
 10
-23.7149
 20
-35.4556
 30
0.0
  0
SPLINE
  5
181
330
1F
100
AcDbEntity
  8
DATUMS
 62
   250
100
AcDbSpline
210
0.0
220
0.0
230
1.0
 70
    24
 71
     3
 72
     8
 73
     4
 74
     0
 42
0.0000000001
 43
0.0000000001
 40
0.0
 40
0.0
 40
0.0
 40
0.0
 40
1.0
 40
1.0
 40
1.0
 40
1.0
 10
-23.7149
 20
-36.8723
 30
0.0
 10
-23.7149
 20
-36.8723
 30
0.0
 10
-23.6898
 20
-36.8723
 30
0.0
 10
-23.6898
 20
-36.8723
 30
0.0
  0
SPLINE
  5
182
330
1F
100
AcDbEntity
  8
DATUMS
 62
   250
100
AcDbSpline
210
0.0
220
0.0
230
1.0
 70
    24
 71
     3
 72
     8
 73
     4
 74
     0
 42
0.0000000001
 43
0.0000000001
 40
0.0
 40
0.0
 40
0.0
 40
0.0
 40
1.0
 40
1.0
 40
1.0
 40
1.0
 10
-27.2043
 20
-37.073
 30
0.0
 10
-27.2043
 20
-37.073
 30
0.0
 10
-28.2587
 20
-37.073
 30
0.0
 10
-28.2587
 20
-37.073
 30
0.0
  0
SPLINE
  5
183
330
1F
100
AcDbEntity
  8
DATUMS
 62
   250
100
AcDbSpline
210
0.0
220
0.0
230
1.0
 70
    24
 71
     3
 72
     8
 73
     4
 74
     0
 42
0.0000000001
 43
0.0000000001
 40
0.0
 40
0.0
 40
0.0
 40
0.0
 40
1.0
 40
1.0
 40
1.0
 40
1.0
 10
-28.2337
 20
-36.8723
 30
0.0
 10
-28.2337
 20
-36.8723
 30
0.0
 10
-28.2587
 20
-36.8723
 30
0.0
 10
-28.2587
 20
-36.8723
 30
0.0
  0
SPLINE
  5
184
330
1F
100
AcDbEntity
  8
DATUMS
 62
   250
100
AcDbSpline
210
0.0
220
0.0
230
1.0
 70
    24
 71
     3
 72
     8
 73
     4
 74
     0
 42
0.0000000001
 43
0.0000000001
 40
0.0
 40
0.0
 40
0.0
 40
0.0
 40
1.0
 40
1.0
 40
1.0
 40
1.0
 10
-28.2337
 20
-37.073
 30
0.0
 10
-28.2337
 20
-37.073
 30
0.0
 10
-28.2337
 20
-35.4556
 30
0.0
 10
-28.2337
 20
-35.4556
 30
0.0
  0
SPLINE
  5
185
330
1F
100
AcDbEntity
  8
DATUMS
 62
   250
100
AcDbSpline
210
0.0
220
0.0
230
1.0
 70
    24
 71
     3
 72
     8
 73
     4
 74
     0
 42
0.0000000001
 43
0.0000000001
 40
0.0
 40
0.0
 40
0.0
 40
0.0
 40
1.0
 40
1.0
 40
1.0
 40
1.0
 10
-27.2295
 20
-35.4556
 30
0.0
 10
-27.2295
 20
-35.4556
 30
0.0
 10
-28.2337
 20
-35.4556
 30
0.0
 10
-28.2337
 20
-35.4556
 30
0.0
  0
SPLINE
  5
186
330
1F
100
AcDbEntity
  8
DATUMS
 62
   250
100
AcDbSpline
210
0.0
220
0.0
230
1.0
 70
    24
 71
     3
 72
     8
 73
     4
 74
     0
 42
0.0000000001
 43
0.0000000001
 40
0.0
 40
0.0
 40
0.0
 40
0.0
 40
1.0
 40
1.0
 40
1.0
 40
1.0
 10
-27.2295
 20
-37.073
 30
0.0
 10
-27.2295
 20
-37.073
 30
0.0
 10
-27.2295
 20
-35.4556
 30
0.0
 10
-27.2295
 20
-35.4556
 30
0.0
  0
SPLINE
  5
187
330
1F
100
AcDbEntity
  8
DATUMS
 62
   250
100
AcDbSpline
210
0.0
220
0.0
230
1.0
 70
    24
 71
     3
 72
     8
 73
     4
 74
     0
 42
0.0000000001
 43
0.0000000001
 40
0.0
 40
0.0
 40
0.0
 40
0.0
 40
1.0
 40
1.0
 40
1.0
 40
1.0
 10
-27.2295
 20
-36.8723
 30
0.0
 10
-27.2295
 20
-36.8723
 30
0.0
 10
-27.2043
 20
-36.8723
 30
0.0
 10
-27.2043
 20
-36.8723
 30
0.0
  0
SPLINE
  5
188
330
1F
100
AcDbEntity
  8
DATUMS
 62
   250
100
AcDbSpline
210
0.0
220
0.0
230
1.0
 70
    24
 71
     3
 72
     8
 73
     4
 74
     0
 42
0.0000000001
 43
0.0000000001
 40
0.0
 40
0.0
 40
0.0
 40
0.0
 40
1.0
 40
1.0
 40
1.0
 40
1.0
 10
-27.2295
 20
-36.8471
 30
0.0
 10
-27.2295
 20
-36.8471
 30
0.0
 10
-28.2337
 20
-36.8471
 30
0.0
 10
-28.2337
 20
-36.8471
 30
0.0
  0
SPLINE
  5
189
330
1F
100
AcDbEntity
  8
DATUMS
 62
   250
100
AcDbSpline
210
0.0
220
0.0
230
1.0
 70
    24
 71
     3
 72
     8
 73
     4
 74
     0
 42
0.0000000001
 43
0.0000000001
 40
0.0
 40
0.0
 40
0.0
 40
0.0
 40
1.0
 40
1.0
 40
1.0
 40
1.0
 10
-23.7149
 20
-36.8471
 30
0.0
 10
-23.7149
 20
-36.8471
 30
0.0
 10
-24.719
 20
-36.8471
 30
0.0
 10
-24.719
 20
-36.8471
 30
0.0
  0
SPLINE
  5
18A
330
1F
100
AcDbEntity
  8
DATUMS
 62
   250
100
AcDbSpline
210
0.0
220
0.0
230
1.0
 70
    24
 71
     3
 72
     8
 73
     4
 74
     0
 42
0.0000000001
 43
0.0000000001
 40
0.0
 40
0.0
 40
0.0
 40
0.0
 40
1.0
 40
1.0
 40
1.0
 40
1.0
 10
-29.9408
 20
-35.4556
 30
0.0
 10
-29.9408
 20
-35.4556
 30
0.0
 10
-30.1417
 20
-35.4556
 30
0.0
 10
-30.1417
 20
-35.4556
 30
0.0
  0
SPLINE
  5
18B
330
1F
100
AcDbEntity
  8
DATUMS
 62
   250
100
AcDbSpline
210
0.0
220
0.0
230
1.0
 70
     8
 71
     3
 72
     8
 73
     4
 74
     0
 42
0.0000000001
 43
0.0000000001
 40
0.0
 40
0.0
 40
0.0
 40
0.0
 40
1.0
 40
1.0
 40
1.0
 40
1.0
 10
-29.9408
 20
-37.0706
 30
0.0
 10
-30.2576
 20
-37.0394
 30
0.0
 10
-30.1417
 20
-36.4849
 30
0.0
 10
-30.1417
 20
-36.345
 30
0.0
  0
SPLINE
  5
18C
330
1F
100
AcDbEntity
  8
DATUMS
 62
   250
100
AcDbSpline
210
0.0
220
0.0
230
1.0
 70
    24
 71
     3
 72
    12
 73
     8
 74
     0
 42
0.0000000001
 43
0.0000000001
 40
0.0
 40
0.0
 40
0.0
 40
0.0
 40
0.3333333333333333
 40
0.3333333333333333
 40
0.3333333333333333
 40
0.3333333333333333
 40
1.0
 40
1.0
 40
1.0
 40
1.0
 10
-30.1417
 20
-36.345
 30
0.0
 10
-30.1417
 20
-36.345
 30
0.0
 10
-30.1417
 20
-35.9576
 30
0.0
 10
-30.1417
 20
-35.9576
 30
0.0
 10
-30.1417
 20
-35.9576
 30
0.0
 10
-30.1417
 20
-35.9576
 30
0.0
 10
-30.1417
 20
-35.4556
 30
0.0
 10
-30.1417
 20
-35.4556
 30
0.0
  0
SPLINE
  5
18D
330
1F
100
AcDbEntity
  8
DATUMS
 62
   250
100
AcDbSpline
210
0.0
220
0.0
230
1.0
 70
    24
 71
     3
 72
     8
 73
     4
 74
     0
 42
0.0000000001
 43
0.0000000001
 40
0.0
 40
0.0
 40
0.0
 40
0.0
 40
1.0
 40
1.0
 40
1.0
 40
1.0
 10
2.695
 20
-18.1443
 30
0.0
 10
2.695
 20
-18.1443
 30
0.0
 10
-29.74
 20
-18.1443
 30
0.0
 10
-29.74
 20
-18.1443
 30
0.0
  0
SPLINE
  5
18E
330
1F
100
AcDbEntity
  8
DATUMS
 62
   250
100
AcDbSpline
210
0.0
220
0.0
230
1.0
 70
    24
 71
     3
 72
     8
 73
     4
 74
     0
 42
0.0000000001
 43
0.0000000001
 40
0.0
 40
0.0
 40
0.0
 40
0.0
 40
1.0
 40
1.0
 40
1.0
 40
1.0
 10
-29.74
 20
-37.8262
 30
0.0
 10
-29.74
 20
-37.8262
 30
0.0
 10
-29.74
 20
-18.1443
 30
0.0
 10
-29.74
 20
-18.1443
 30
0.0
  0
SPLINE
  5
18F
330
1F
100
AcDbEntity
  8
DATUMS
 62
   250
100
AcDbSpline
210
0.0
220
0.0
230
1.0
 70
    24
 71
     3
 72
     8
 73
     4
 74
     0
 42
0.0000000001
 43
0.0000000001
 40
0.0
 40
0.0
 40
0.0
 40
0.0
 40
1.0
 40
1.0
 40
1.0
 40
1.0
 10
-29.8068
 20
-18.1443
 30
0.0
 10
-29.8068
 20
-18.1443
 30
0.0
 10
-29.9408
 20
-18.1443
 30
0.0
 10
-29.9408
 20
-18.1443
 30
0.0
  0
SPLINE
  5
190
330
1F
100
AcDbEntity
  8
DATUMS
 62
   250
100
AcDbSpline
210
0.0
220
0.0
230
1.0
 70
    24
 71
     3
 72
     8
 73
     4
 74
     0
 42
0.0000000001
 43
0.0000000001
 40
0.0
 40
0.0
 40
0.0
 40
0.0
 40
1.0
 40
1.0
 40
1.0
 40
1.0
 10
2.4942
 20
-37.8262
 30
0.0
 10
2.4942
 20
-37.8262
 30
0.0
 10
2.4942
 20
-18.1443
 30
0.0
 10
2.4942
 20
-18.1443
 30
0.0
  0
SPLINE
  5
191
330
1F
100
AcDbEntity
  8
DATUMS
 62
   250
100
AcDbSpline
210
0.0
220
0.0
230
1.0
 70
    24
 71
     3
 72
     8
 73
     4
 74
     0
 42
0.0000000001
 43
0.0000000001
 40
0.0
 40
0.0
 40
0.0
 40
0.0
 40
1.0
 40
1.0
 40
1.0
 40
1.0
 10
2.695
 20
-37.8262
 30
0.0
 10
2.695
 20
-37.8262
 30
0.0
 10
-29.9408
 20
-37.8262
 30
0.0
 10
-29.9408
 20
-37.8262
 30
0.0
  0
SPLINE
  5
192
330
1F
100
AcDbEntity
  8
DATUMS
 62
   250
100
AcDbSpline
210
0.0
220
0.0
230
1.0
 70
    24
 71
     3
 72
     8
 73
     4
 74
     0
 42
0.0000000001
 43
0.0000000001
 40
0.0
 40
0.0
 40
0.0
 40
0.0
 40
1.0
 40
1.0
 40
1.0
 40
1.0
 10
-27.2043
 20
-37.0981
 30
0.0
 10
-27.2043
 20
-37.0981
 30
0.0
 10
-28.2587
 20
-37.0981
 30
0.0
 10
-28.2587
 20
-37.0981
 30
0.0
  0
SPLINE
  5
193
330
1F
100
AcDbEntity
  8
DATUMS
 62
   250
100
AcDbSpline
210
0.0
220
0.0
230
1.0
 70
    24
 71
     3
 72
     8
 73
     4
 74
     0
 42
0.0000000001
 43
0.0000000001
 40
0.0
 40
0.0
 40
0.0
 40
0.0
 40
1.0
 40
1.0
 40
1.0
 40
1.0
 10
-28.2587
 20
-36.8471
 30
0.0
 10
-28.2587
 20
-36.8471
 30
0.0
 10
-28.2587
 20
-37.0981
 30
0.0
 10
-28.2587
 20
-37.0981
 30
0.0
  0
SPLINE
  5
194
330
1F
100
AcDbEntity
  8
DATUMS
 62
   250
100
AcDbSpline
210
0.0
220
0.0
230
1.0
 70
    24
 71
     3
 72
     8
 73
     4
 74
     0
 42
0.0000000001
 43
0.0000000001
 40
0.0
 40
0.0
 40
0.0
 40
0.0
 40
1.0
 40
1.0
 40
1.0
 40
1.0
 10
-28.2587
 20
-36.8471
 30
0.0
 10
-28.2587
 20
-36.8471
 30
0.0
 10
-28.2337
 20
-36.8471
 30
0.0
 10
-28.2337
 20
-36.8471
 30
0.0
  0
SPLINE
  5
195
330
1F
100
AcDbEntity
  8
DATUMS
 62
   250
100
AcDbSpline
210
0.0
220
0.0
230
1.0
 70
    24
 71
     3
 72
     8
 73
     4
 74
     0
 42
0.0000000001
 43
0.0000000001
 40
0.0
 40
0.0
 40
0.0
 40
0.0
 40
1.0
 40
1.0
 40
1.0
 40
1.0
 10
-27.2043
 20
-36.8471
 30
0.0
 10
-27.2043
 20
-36.8471
 30
0.0
 10
-27.2043
 20
-37.0981
 30
0.0
 10
-27.2043
 20
-37.0981
 30
0.0
  0
SPLINE
  5
196
330
1F
100
AcDbEntity
  8
DATUMS
 62
   250
100
AcDbSpline
210
0.0
220
0.0
230
1.0
 70
    24
 71
     3
 72
     8
 73
     4
 74
     0
 42
0.0000000001
 43
0.0000000001
 40
0.0
 40
0.0
 40
0.0
 40
0.0
 40
1.0
 40
1.0
 40
1.0
 40
1.0
 10
-27.2043
 20
-36.8471
 30
0.0
 10
-27.2043
 20
-36.8471
 30
0.0
 10
-27.2295
 20
-36.8471
 30
0.0
 10
-27.2295
 20
-36.8471
 30
0.0
  0
SPLINE
  5
197
330
1F
100
AcDbEntity
  8
DATUMS
 62
   250
100
AcDbSpline
210
0.0
220
0.0
230
1.0
 70
    24
 71
     3
 72
     8
 73
     4
 74
     0
 42
0.0000000001
 43
0.0000000001
 40
0.0
 40
0.0
 40
0.0
 40
0.0
 40
1.0
 40
1.0
 40
1.0
 40
1.0
 10
-24.719
 20
-36.8471
 30
0.0
 10
-24.719
 20
-36.8471
 30
0.0
 10
-24.7441
 20
-36.8471
 30
0.0
 10
-24.7441
 20
-36.8471
 30
0.0
  0
SPLINE
  5
198
330
1F
100
AcDbEntity
  8
DATUMS
 62
   250
100
AcDbSpline
210
0.0
220
0.0
230
1.0
 70
    24
 71
     3
 72
     8
 73
     4
 74
     0
 42
0.0000000001
 43
0.0000000001
 40
0.0
 40
0.0
 40
0.0
 40
0.0
 40
1.0
 40
1.0
 40
1.0
 40
1.0
 10
-23.6898
 20
-37.0981
 30
0.0
 10
-23.6898
 20
-37.0981
 30
0.0
 10
-24.7441
 20
-37.0981
 30
0.0
 10
-24.7441
 20
-37.0981
 30
0.0
  0
SPLINE
  5
199
330
1F
100
AcDbEntity
  8
DATUMS
 62
   250
100
AcDbSpline
210
0.0
220
0.0
230
1.0
 70
    24
 71
     3
 72
     8
 73
     4
 74
     0
 42
0.0000000001
 43
0.0000000001
 40
0.0
 40
0.0
 40
0.0
 40
0.0
 40
1.0
 40
1.0
 40
1.0
 40
1.0
 10
-24.7441
 20
-36.8471
 30
0.0
 10
-24.7441
 20
-36.8471
 30
0.0
 10
-24.7441
 20
-37.0981
 30
0.0
 10
-24.7441
 20
-37.0981
 30
0.0
  0
SPLINE
  5
19A
330
1F
100
AcDbEntity
  8
DATUMS
 62
   250
100
AcDbSpline
210
0.0
220
0.0
230
1.0
 70
    24
 71
     3
 72
     8
 73
     4
 74
     0
 42
0.0000000001
 43
0.0000000001
 40
0.0
 40
0.0
 40
0.0
 40
0.0
 40
1.0
 40
1.0
 40
1.0
 40
1.0
 10
-23.6898
 20
-36.8471
 30
0.0
 10
-23.6898
 20
-36.8471
 30
0.0
 10
-23.6898
 20
-37.0981
 30
0.0
 10
-23.6898
 20
-37.0981
 30
0.0
  0
SPLINE
  5
19B
330
1F
100
AcDbEntity
  8
DATUMS
 62
   250
100
AcDbSpline
210
0.0
220
0.0
230
1.0
 70
    24
 71
     3
 72
     8
 73
     4
 74
     0
 42
0.0000000001
 43
0.0000000001
 40
0.0
 40
0.0
 40
0.0
 40
0.0
 40
1.0
 40
1.0
 40
1.0
 40
1.0
 10
-23.6898
 20
-36.8471
 30
0.0
 10
-23.6898
 20
-36.8471
 30
0.0
 10
-23.7149
 20
-36.8471
 30
0.0
 10
-23.7149
 20
-36.8471
 30
0.0
  0
SPLINE
  5
19C
330
1F
100
AcDbEntity
  8
DATUMS
 62
   250
100
AcDbSpline
210
0.0
220
0.0
230
1.0
 70
    24
 71
     3
 72
     8
 73
     4
 74
     0
 42
0.0000000001
 43
0.0000000001
 40
0.0
 40
0.0
 40
0.0
 40
0.0
 40
1.0
 40
1.0
 40
1.0
 40
1.0
 10
-3.556
 20
-36.8471
 30
0.0
 10
-3.556
 20
-36.8471
 30
0.0
 10
-3.556
 20
-37.0981
 30
0.0
 10
-3.556
 20
-37.0981
 30
0.0
  0
SPLINE
  5
19D
330
1F
100
AcDbEntity
  8
DATUMS
 62
   250
100
AcDbSpline
210
0.0
220
0.0
230
1.0
 70
    24
 71
     3
 72
     8
 73
     4
 74
     0
 42
0.0000000001
 43
0.0000000001
 40
0.0
 40
0.0
 40
0.0
 40
0.0
 40
1.0
 40
1.0
 40
1.0
 40
1.0
 10
-2.5015
 20
-37.0981
 30
0.0
 10
-2.5015
 20
-37.0981
 30
0.0
 10
-3.556
 20
-37.0981
 30
0.0
 10
-3.556
 20
-37.0981
 30
0.0
  0
SPLINE
  5
19E
330
1F
100
AcDbEntity
  8
DATUMS
 62
   250
100
AcDbSpline
210
0.0
220
0.0
230
1.0
 70
    24
 71
     3
 72
     8
 73
     4
 74
     0
 42
0.0000000001
 43
0.0000000001
 40
0.0
 40
0.0
 40
0.0
 40
0.0
 40
1.0
 40
1.0
 40
1.0
 40
1.0
 10
-3.5308
 20
-36.8471
 30
0.0
 10
-3.5308
 20
-36.8471
 30
0.0
 10
-3.556
 20
-36.8471
 30
0.0
 10
-3.556
 20
-36.8471
 30
0.0
  0
SPLINE
  5
19F
330
1F
100
AcDbEntity
  8
DATUMS
 62
   250
100
AcDbSpline
210
0.0
220
0.0
230
1.0
 70
    24
 71
     3
 72
     8
 73
     4
 74
     0
 42
0.0000000001
 43
0.0000000001
 40
0.0
 40
0.0
 40
0.0
 40
0.0
 40
1.0
 40
1.0
 40
1.0
 40
1.0
 10
-2.5015
 20
-36.8471
 30
0.0
 10
-2.5015
 20
-36.8471
 30
0.0
 10
-2.5015
 20
-37.0981
 30
0.0
 10
-2.5015
 20
-37.0981
 30
0.0
  0
SPLINE
  5
1A0
330
1F
100
AcDbEntity
  8
DATUMS
 62
   250
100
AcDbSpline
210
0.0
220
0.0
230
1.0
 70
    24
 71
     3
 72
     8
 73
     4
 74
     0
 42
0.0000000001
 43
0.0000000001
 40
0.0
 40
0.0
 40
0.0
 40
0.0
 40
1.0
 40
1.0
 40
1.0
 40
1.0
 10
-2.5015
 20
-36.8471
 30
0.0
 10
-2.5015
 20
-36.8471
 30
0.0
 10
-2.5267
 20
-36.8471
 30
0.0
 10
-2.5267
 20
-36.8471
 30
0.0
  0
SPLINE
  5
1A1
330
1F
100
AcDbEntity
  8
DATUMS
 62
   250
100
AcDbSpline
210
0.0
220
0.0
230
1.0
 70
    24
 71
     3
 72
     8
 73
     4
 74
     0
 42
0.0000000001
 43
0.0000000001
 40
0.0
 40
0.0
 40
0.0
 40
0.0
 40
1.0
 40
1.0
 40
1.0
 40
1.0
 10
1.0131
 20
-37.0981
 30
0.0
 10
1.0131
 20
-37.0981
 30
0.0
 10
-0.0413
 20
-37.0981
 30
0.0
 10
-0.0413
 20
-37.0981
 30
0.0
  0
SPLINE
  5
1A2
330
1F
100
AcDbEntity
  8
DATUMS
 62
   250
100
AcDbSpline
210
0.0
220
0.0
230
1.0
 70
    24
 71
     3
 72
     8
 73
     4
 74
     0
 42
0.0000000001
 43
0.0000000001
 40
0.0
 40
0.0
 40
0.0
 40
0.0
 40
1.0
 40
1.0
 40
1.0
 40
1.0
 10
-0.0413
 20
-36.8471
 30
0.0
 10
-0.0413
 20
-36.8471
 30
0.0
 10
-0.0162
 20
-36.8471
 30
0.0
 10
-0.0162
 20
-36.8471
 30
0.0
  0
SPLINE
  5
1A3
330
1F
100
AcDbEntity
  8
DATUMS
 62
   250
100
AcDbSpline
210
0.0
220
0.0
230
1.0
 70
    24
 71
     3
 72
     8
 73
     4
 74
     0
 42
0.0000000001
 43
0.0000000001
 40
0.0
 40
0.0
 40
0.0
 40
0.0
 40
1.0
 40
1.0
 40
1.0
 40
1.0
 10
-0.0413
 20
-36.8471
 30
0.0
 10
-0.0413
 20
-36.8471
 30
0.0
 10
-0.0413
 20
-37.0981
 30
0.0
 10
-0.0413
 20
-37.0981
 30
0.0
  0
SPLINE
  5
1A4
330
1F
100
AcDbEntity
  8
DATUMS
 62
   250
100
AcDbSpline
210
0.0
220
0.0
230
1.0
 70
    24
 71
     3
 72
     8
 73
     4
 74
     0
 42
0.0000000001
 43
0.0000000001
 40
0.0
 40
0.0
 40
0.0
 40
0.0
 40
1.0
 40
1.0
 40
1.0
 40
1.0
 10
1.0131
 20
-36.8471
 30
0.0
 10
1.0131
 20
-36.8471
 30
0.0
 10
1.0131
 20
-37.0981
 30
0.0
 10
1.0131
 20
-37.0981
 30
0.0
  0
SPLINE
  5
1A5
330
1F
100
AcDbEntity
  8
DATUMS
 62
   250
100
AcDbSpline
210
0.0
220
0.0
230
1.0
 70
    24
 71
     3
 72
     8
 73
     4
 74
     0
 42
0.0000000001
 43
0.0000000001
 40
0.0
 40
0.0
 40
0.0
 40
0.0
 40
1.0
 40
1.0
 40
1.0
 40
1.0
 10
1.0131
 20
-36.8471
 30
0.0
 10
1.0131
 20
-36.8471
 30
0.0
 10
0.9879
 20
-36.8471
 30
0.0
 10
0.9879
 20
-36.8471
 30
0.0
  0
SPLINE
  5
1A6
330
1F
100
AcDbEntity
  8
DATUMS
 62
   250
100
AcDbSpline
210
0.0
220
0.0
230
1.0
 70
    24
 71
     3
 72
    12
 73
     8
 74
     0
 42
0.0000000001
 43
0.0000000001
 40
0.0
 40
0.0
 40
0.0
 40
0.0
 40
0.3333333333333333
 40
0.3333333333333333
 40
0.3333333333333333
 40
0.3333333333333333
 40
1.0
 40
1.0
 40
1.0
 40
1.0
 10
2.695
 20
-37.8262
 30
0.0
 10
2.695
 20
-37.8262
 30
0.0
 10
2.695
 20
-37.324
 30
0.0
 10
2.695
 20
-37.324
 30
0.0
 10
2.695
 20
-37.324
 30
0.0
 10
2.695
 20
-37.324
 30
0.0
 10
2.695
 20
-18.6463
 30
0.0
 10
2.695
 20
-18.6463
 30
0.0
  0
SPLINE
  5
1A7
330
1F
100
AcDbEntity
  8
DATUMS
 62
   250
100
AcDbSpline
210
0.0
220
0.0
230
1.0
 70
     8
 71
     3
 72
    12
 73
     8
 74
     0
 42
0.0000000001
 43
0.0000000001
 40
0.0
 40
0.0
 40
0.0
 40
0.0
 40
0.3333333333333333
 40
0.3333333333333333
 40
0.3333333333333333
 40
0.3333333333333333
 40
1.0
 40
1.0
 40
1.0
 40
1.0
 10
2.695
 20
-18.6463
 30
0.0
 10
2.695
 20
-18.3548
 30
0.0
 10
2.7903
 20
-17.8716
 30
0.0
 10
2.4065
 20
-17.7589
 30
0.0
 10
2.4065
 20
-17.7589
 30
0.0
 10
2.3688
 20
-17.7478
 30
0.0
 10
2.3326
 20
-17.7429
 30
0.0
 10
2.2934
 20
-17.7427
 30
0.0
  0
SPLINE
  5
1A8
330
1F
100
AcDbEntity
  8
DATUMS
 62
   250
100
AcDbSpline
210
0.0
220
0.0
230
1.0
 70
    24
 71
     3
 72
    16
 73
    12
 74
     0
 42
0.0000000001
 43
0.0000000001
 40
0.0
 40
0.0
 40
0.0
 40
0.0
 40
0.25
 40
0.25
 40
0.25
 40
0.25
 40
0.5
 40
0.5
 40
0.5
 40
0.5
 40
1.0
 40
1.0
 40
1.0
 40
1.0
 10
2.2934
 20
-17.7427
 30
0.0
 10
2.2934
 20
-17.7427
 30
0.0
 10
1.7912
 20
-17.7427
 30
0.0
 10
1.7912
 20
-17.7427
 30
0.0
 10
1.7912
 20
-17.7427
 30
0.0
 10
1.7912
 20
-17.7427
 30
0.0
 10
-29.0369
 20
-17.7427
 30
0.0
 10
-29.0369
 20
-17.7427
 30
0.0
 10
-29.0369
 20
-17.7427
 30
0.0
 10
-29.0369
 20
-17.7427
 30
0.0
 10
-29.5391
 20
-17.7427
 30
0.0
 10
-29.5391
 20
-17.7427
 30
0.0
  0
SPLINE
  5
1A9
330
1F
100
AcDbEntity
  8
DATUMS
 62
   250
100
AcDbSpline
210
0.0
220
0.0
230
1.0
 70
     8
 71
     3
 72
    12
 73
     8
 74
     0
 42
0.0000000001
 43
0.0000000001
 40
0.0
 40
0.0
 40
0.0
 40
0.0
 40
0.3333333333333333
 40
0.3333333333333333
 40
0.3333333333333333
 40
0.3333333333333333
 40
1.0
 40
1.0
 40
1.0
 40
1.0
 10
-29.5391
 20
-17.7427
 30
0.0
 10
-29.5982
 20
-17.7469
 30
0.0
 10
-29.6514
 20
-17.7539
 30
0.0
 10
-29.706
 20
-17.779
 30
0.0
 10
-29.706
 20
-17.779
 30
0.0
 10
-30.0342
 20
-17.9288
 30
0.0
 10
-29.9408
 20
-18.3696
 30
0.0
 10
-29.9408
 20
-18.6463
 30
0.0
  0
SPLINE
  5
1AA
330
1F
100
AcDbEntity
  8
DATUMS
 62
   250
100
AcDbSpline
210
0.0
220
0.0
230
1.0
 70
    24
 71
     3
 72
    12
 73
     8
 74
     0
 42
0.0000000001
 43
0.0000000001
 40
0.0
 40
0.0
 40
0.0
 40
0.0
 40
0.3333333333333333
 40
0.3333333333333333
 40
0.3333333333333333
 40
0.3333333333333333
 40
1.0
 40
1.0
 40
1.0
 40
1.0
 10
-29.9408
 20
-18.6463
 30
0.0
 10
-29.9408
 20
-18.6463
 30
0.0
 10
-29.9408
 20
-37.324
 30
0.0
 10
-29.9408
 20
-37.324
 30
0.0
 10
-29.9408
 20
-37.324
 30
0.0
 10
-29.9408
 20
-37.324
 30
0.0
 10
-29.9408
 20
-37.8262
 30
0.0
 10
-29.9408
 20
-37.8262
 30
0.0
  0
SPLINE
  5
1AB
330
1F
100
AcDbEntity
  8
DATUMS
 62
   250
100
AcDbSpline
210
0.0
220
0.0
230
1.0
 70
     8
 71
     3
 72
    12
 73
     8
 74
     0
 42
0.0000000001
 43
0.0000000001
 40
0.0
 40
0.0
 40
0.0
 40
0.0
 40
0.3333333333333333
 40
0.3333333333333333
 40
0.3333333333333333
 40
0.3333333333333333
 40
1.0
 40
1.0
 40
1.0
 40
1.0
 10
2.4942
 20
-18.1443
 30
0.0
 10
2.4601
 20
-18.0373
 30
0.0
 10
2.4294
 20
-17.9255
 30
0.0
 10
2.377
 20
-17.8256
 30
0.0
 10
2.377
 20
-17.8256
 30
0.0
 10
2.3579
 20
-17.7891
 30
0.0
 10
2.336
 20
-17.7513
 30
0.0
 10
2.2934
 20
-17.7427
 30
0.0
  0
SPLINE
  5
1AC
330
1F
100
AcDbEntity
  8
DATUMS
 62
   250
100
AcDbSpline
210
0.0
220
0.0
230
1.0
 70
     8
 71
     3
 72
    12
 73
     8
 74
     0
 42
0.0000000001
 43
0.0000000001
 40
0.0
 40
0.0
 40
0.0
 40
0.0
 40
0.3333333333333333
 40
0.3333333333333333
 40
0.3333333333333333
 40
0.3333333333333333
 40
1.0
 40
1.0
 40
1.0
 40
1.0
 10
-29.5391
 20
-17.7427
 30
0.0
 10
-29.5818
 20
-17.7514
 30
0.0
 10
-29.6036
 20
-17.7891
 30
0.0
 10
-29.6229
 20
-17.8256
 30
0.0
 10
-29.6229
 20
-17.8256
 30
0.0
 10
-29.6751
 20
-17.9256
 30
0.0
 10
-29.7058
 20
-18.0374
 30
0.0
 10
-29.74
 20
-18.1443
 30
0.0
  0
SPLINE
  5
1AD
330
1F
100
AcDbEntity
  8
DATUMS
 62
   250
100
AcDbSpline
210
0.0
220
0.0
230
1.0
 70
     8
 71
     3
 72
     8
 73
     4
 74
     0
 42
0.0000000001
 43
0.0000000001
 40
0.0
 40
0.0
 40
0.0
 40
0.0
 40
1.0
 40
1.0
 40
1.0
 40
1.0
 10
-15.5972
 20
-26.1975
 30
0.0
 10
-15.9211
 20
-25.8604
 30
0.0
 10
-16.1494
 20
-25.4648
 30
0.0
 10
-16.2794
 20
-25.0156
 30
0.0
  0
SPLINE
  5
1AE
330
1F
100
AcDbEntity
  8
DATUMS
 62
   250
100
AcDbSpline
210
0.0
220
0.0
230
1.0
 70
     8
 71
     3
 72
     8
 73
     4
 74
     0
 42
0.0000000001
 43
0.0000000001
 40
0.0
 40
0.0
 40
0.0
 40
0.0
 40
1.0
 40
1.0
 40
1.0
 40
1.0
 10
-15.5972
 20
-22.342
 30
0.0
 10
-15.9211
 20
-22.6792
 30
0.0
 10
-16.1494
 20
-23.0748
 30
0.0
 10
-16.2794
 20
-23.524
 30
0.0
  0
SPLINE
  5
1AF
330
1F
100
AcDbEntity
  8
DATUMS
 62
   250
100
AcDbSpline
210
0.0
220
0.0
230
1.0
 70
     8
 71
     3
 72
    12
 73
     8
 74
     0
 42
0.0000000001
 43
0.0000000001
 40
0.0
 40
0.0
 40
0.0
 40
0.0
 40
0.3333333333333333
 40
0.3333333333333333
 40
0.3333333333333333
 40
0.3333333333333333
 40
1.0
 40
1.0
 40
1.0
 40
1.0
 10
-12.9405
 20
-26.9433
 30
0.0
 10
-13.1306
 20
-26.9903
 30
0.0
 10
-13.3164
 20
-27.0133
 30
0.0
 10
-13.5117
 20
-27.0291
 30
0.0
 10
-13.5117
 20
-27.0291
 30
0.0
 10
-13.7837
 20
-27.0291
 30
0.0
 10
-14.0407
 20
-27.0086
 30
0.0
 10
-14.3053
 20
-26.9433
 30
0.0
  0
SPLINE
  5
1B0
330
1F
100
AcDbEntity
  8
DATUMS
 62
   250
100
AcDbSpline
210
0.0
220
0.0
230
1.0
 70
     8
 71
     3
 72
    12
 73
     8
 74
     0
 42
0.0000000001
 43
0.0000000001
 40
0.0
 40
0.0
 40
0.0
 40
0.0
 40
0.3333333333333333
 40
0.3333333333333333
 40
0.3333333333333333
 40
0.3333333333333333
 40
1.0
 40
1.0
 40
1.0
 40
1.0
 10
-12.9405
 20
-21.5962
 30
0.0
 10
-13.2051
 20
-21.5309
 30
0.0
 10
-13.462
 20
-21.5105
 30
0.0
 10
-13.7342
 20
-21.5105
 30
0.0
 10
-13.7342
 20
-21.5105
 30
0.0
 10
-13.9293
 20
-21.5263
 30
0.0
 10
-14.1151
 20
-21.5493
 30
0.0
 10
-14.3053
 20
-21.5962
 30
0.0
  0
SPLINE
  5
1B1
330
1F
100
AcDbEntity
  8
DATUMS
 62
   250
100
AcDbSpline
210
0.0
220
0.0
230
1.0
 70
     8
 71
     3
 72
     8
 73
     4
 74
     0
 42
0.0000000001
 43
0.0000000001
 40
0.0
 40
0.0
 40
0.0
 40
0.0
 40
1.0
 40
1.0
 40
1.0
 40
1.0
 10
-10.9663
 20
-25.0156
 30
0.0
 10
-11.0964
 20
-25.4648
 30
0.0
 10
-11.3246
 20
-25.8604
 30
0.0
 10
-11.6487
 20
-26.1975
 30
0.0
  0
SPLINE
  5
1B2
330
1F
100
AcDbEntity
  8
DATUMS
 62
   250
100
AcDbSpline
210
0.0
220
0.0
230
1.0
 70
     8
 71
     3
 72
     8
 73
     4
 74
     0
 42
0.0000000001
 43
0.0000000001
 40
0.0
 40
0.0
 40
0.0
 40
0.0
 40
1.0
 40
1.0
 40
1.0
 40
1.0
 10
-10.9663
 20
-23.524
 30
0.0
 10
-11.0964
 20
-23.0748
 30
0.0
 10
-11.3246
 20
-22.6792
 30
0.0
 10
-11.6487
 20
-22.342
 30
0.0
  0
SPLINE
  5
1B3
330
1F
100
AcDbEntity
  8
DATUMS
 62
   250
100
AcDbSpline
210
0.0
220
0.0
230
1.0
 70
    24
 71
     3
 72
     8
 73
     4
 74
     0
 42
0.0000000001
 43
0.0000000001
 40
0.0
 40
0.0
 40
0.0
 40
0.0
 40
1.0
 40
1.0
 40
1.0
 40
1.0
 10
-13.4678
 20
-3.7915
 30
0.0
 10
-13.4678
 20
-3.7915
 30
0.0
 10
-32.0196
 20
-3.7915
 30
0.0
 10
-32.0196
 20
-3.7915
 30
0.0
  0
SPLINE
  5
1B4
330
1F
100
AcDbEntity
  8
DATUMS
 62
   250
100
AcDbSpline
210
0.0
220
0.0
230
1.0
 70
    24
 71
     3
 72
     8
 73
     4
 74
     0
 42
0.0000000001
 43
0.0000000001
 40
0.0
 40
0.0
 40
0.0
 40
0.0
 40
1.0
 40
1.0
 40
1.0
 40
1.0
 10
5.0837
 20
-3.7915
 30
0.0
 10
5.0837
 20
-3.7915
 30
0.0
 10
-32.0196
 20
-3.7915
 30
0.0
 10
-32.0196
 20
-3.7915
 30
0.0
  0
SPLINE
  5
1B5
330
1F
100
AcDbEntity
  8
DATUMS
 62
   250
100
AcDbSpline
210
0.0
220
0.0
230
1.0
 70
    24
 71
     3
 72
     8
 73
     4
 74
     0
 42
0.0000000001
 43
0.0000000001
 40
0.0
 40
0.0
 40
0.0
 40
0.0
 40
1.0
 40
1.0
 40
1.0
 40
1.0
 10
-32.0196
 20
35.7617
 30
0.0
 10
-32.0196
 20
35.7617
 30
0.0
 10
-32.0196
 20
-3.7915
 30
0.0
 10
-32.0196
 20
-3.7915
 30
0.0
  0
SPLINE
  5
1B6
330
1F
100
AcDbEntity
  8
DATUMS
 62
   250
100
AcDbSpline
210
0.0
220
0.0
230
1.0
 70
    24
 71
     3
 72
     8
 73
     4
 74
     0
 42
0.0000000001
 43
0.0000000001
 40
0.0
 40
0.0
 40
0.0
 40
0.0
 40
1.0
 40
1.0
 40
1.0
 40
1.0
 10
5.0837
 20
35.7616
 30
0.0
 10
5.0837
 20
35.7616
 30
0.0
 10
-32.0196
 20
35.7617
 30
0.0
 10
-32.0196
 20
35.7617
 30
0.0
  0
SPLINE
  5
1B7
330
1F
100
AcDbEntity
  8
DATUMS
 62
   250
100
AcDbSpline
210
0.0
220
0.0
230
1.0
 70
    24
 71
     3
 72
     8
 73
     4
 74
     0
 42
0.0000000001
 43
0.0000000001
 40
0.0
 40
0.0
 40
0.0
 40
0.0
 40
1.0
 40
1.0
 40
1.0
 40
1.0
 10
-13.4678
 20
35.7616
 30
0.0
 10
-13.4678
 20
35.7616
 30
0.0
 10
5.0837
 20
35.7617
 30
0.0
 10
5.0837
 20
35.7617
 30
0.0
  0
SPLINE
  5
1B8
330
1F
100
AcDbEntity
  8
DATUMS
 62
   250
100
AcDbSpline
210
0.0
220
0.0
230
1.0
 70
    24
 71
     3
 72
     8
 73
     4
 74
     0
 42
0.0000000001
 43
0.0000000001
 40
0.0
 40
0.0
 40
0.0
 40
0.0
 40
1.0
 40
1.0
 40
1.0
 40
1.0
 10
5.0837
 20
-3.7915
 30
0.0
 10
5.0837
 20
-3.7915
 30
0.0
 10
5.0837
 20
35.7616
 30
0.0
 10
5.0837
 20
35.7616
 30
0.0
  0
SPLINE
  5
1B9
330
1F
100
AcDbEntity
  8
DATUMS
 62
   250
100
AcDbSpline
210
0.0
220
0.0
230
1.0
 70
    24
 71
     3
 72
     8
 73
     4
 74
     0
 42
0.0000000001
 43
0.0000000001
 40
0.0
 40
0.0
 40
0.0
 40
0.0
 40
1.0
 40
1.0
 40
1.0
 40
1.0
 10
-32.4133
 20
-4.1939
 30
0.0
 10
-32.4133
 20
-4.1939
 30
0.0
 10
-32.4133
 20
36.1642
 30
0.0
 10
-32.4133
 20
36.1642
 30
0.0
  0
SPLINE
  5
1BA
330
1F
100
AcDbEntity
  8
DATUMS
 62
   250
100
AcDbSpline
210
0.0
220
0.0
230
1.0
 70
    24
 71
     3
 72
     8
 73
     4
 74
     0
 42
0.0000000001
 43
0.0000000001
 40
0.0
 40
0.0
 40
0.0
 40
0.0
 40
1.0
 40
1.0
 40
1.0
 40
1.0
 10
-32.4133
 20
36.1642
 30
0.0
 10
-32.4133
 20
36.1642
 30
0.0
 10
5.4775
 20
36.1642
 30
0.0
 10
5.4775
 20
36.1642
 30
0.0
  0
SPLINE
  5
1BB
330
1F
100
AcDbEntity
  8
DATUMS
 62
   250
100
AcDbSpline
210
0.0
220
0.0
230
1.0
 70
    24
 71
     3
 72
     8
 73
     4
 74
     0
 42
0.0000000001
 43
0.0000000001
 40
0.0
 40
0.0
 40
0.0
 40
0.0
 40
1.0
 40
1.0
 40
1.0
 40
1.0
 10
5.4775
 20
-4.1939
 30
0.0
 10
5.4775
 20
-4.1939
 30
0.0
 10
5.4775
 20
36.1642
 30
0.0
 10
5.4775
 20
36.1642
 30
0.0
  0
SPLINE
  5
1BC
330
1F
100
AcDbEntity
  8
DATUMS
 62
   250
100
AcDbSpline
210
0.0
220
0.0
230
1.0
 70
    24
 71
     3
 72
     8
 73
     4
 74
     0
 42
0.0000000001
 43
0.0000000001
 40
0.0
 40
0.0
 40
0.0
 40
0.0
 40
1.0
 40
1.0
 40
1.0
 40
1.0
 10
-32.4133
 20
-4.1939
 30
0.0
 10
-32.4133
 20
-4.1939
 30
0.0
 10
5.4775
 20
-4.1939
 30
0.0
 10
5.4775
 20
-4.1939
 30
0.0
  0
SPLINE
  5
1BD
330
1F
100
AcDbEntity
  8
DATUMS
 62
   250
100
AcDbSpline
210
0.0
220
0.0
230
1.0
 70
     8
 71
     3
 72
     8
 73
     4
 74
     0
 42
0.0000000001
 43
0.0000000001
 40
0.0
 40
0.0
 40
0.0
 40
0.0
 40
1.0
 40
1.0
 40
1.0
 40
1.0
 10
-32.0196
 20
35.7617
 30
0.0
 10
-32.1392
 20
35.8572
 30
0.0
 10
-32.2567
 20
35.952
 30
0.0
 10
-32.4133
 20
35.9629
 30
0.0
  0
SPLINE
  5
1BE
330
1F
100
AcDbEntity
  8
DATUMS
 62
   250
100
AcDbSpline
210
0.0
220
0.0
230
1.0
 70
     8
 71
     3
 72
     8
 73
     4
 74
     0
 42
0.0000000001
 43
0.0000000001
 40
0.0
 40
0.0
 40
0.0
 40
0.0
 40
1.0
 40
1.0
 40
1.0
 40
1.0
 10
5.0837
 20
35.7617
 30
0.0
 10
5.2034
 20
35.8572
 30
0.0
 10
5.3208
 20
35.952
 30
0.0
 10
5.4775
 20
35.9629
 30
0.0
  0
SPLINE
  5
1BF
330
1F
100
AcDbEntity
  8
DATUMS
 62
   250
100
AcDbSpline
210
0.0
220
0.0
230
1.0
 70
     8
 71
     3
 72
     8
 73
     4
 74
     0
 42
0.0000000001
 43
0.0000000001
 40
0.0
 40
0.0
 40
0.0
 40
0.0
 40
1.0
 40
1.0
 40
1.0
 40
1.0
 10
5.0837
 20
-3.7915
 30
0.0
 10
5.2034
 20
-3.8871
 30
0.0
 10
5.3208
 20
-3.9818
 30
0.0
 10
5.4775
 20
-3.9927
 30
0.0
  0
SPLINE
  5
1C0
330
1F
100
AcDbEntity
  8
DATUMS
 62
   250
100
AcDbSpline
210
0.0
220
0.0
230
1.0
 70
     8
 71
     3
 72
     8
 73
     4
 74
     0
 42
0.0000000001
 43
0.0000000001
 40
0.0
 40
0.0
 40
0.0
 40
0.0
 40
1.0
 40
1.0
 40
1.0
 40
1.0
 10
-32.4133
 20
-3.9927
 30
0.0
 10
-32.2567
 20
-3.9818
 30
0.0
 10
-32.1392
 20
-3.8871
 30
0.0
 10
-32.0196
 20
-3.7915
 30
0.0
  0
SPLINE
  5
1C1
330
1F
100
AcDbEntity
  8
DATUMS
 62
   250
100
AcDbSpline
210
0.0
220
0.0
230
1.0
 70
     8
 71
     3
 72
     8
 73
     4
 74
     0
 42
0.0000000001
 43
0.0000000001
 40
0.0
 40
0.0
 40
0.0
 40
0.0
 40
1.0
 40
1.0
 40
1.0
 40
1.0
 10
-32.0524
 20
35.8142
 30
0.0
 10
-32.1372
 20
35.9478
 30
0.0
 10
-32.2403
 20
36.1461
 30
0.0
 10
-32.4133
 20
36.1642
 30
0.0
  0
SPLINE
  5
1C2
330
1F
100
AcDbEntity
  8
DATUMS
 62
   250
100
AcDbSpline
210
0.0
220
0.0
230
1.0
 70
     8
 71
     3
 72
    12
 73
     8
 74
     0
 42
0.0000000001
 43
0.0000000001
 40
0.0
 40
0.0
 40
0.0
 40
0.0
 40
0.3333333333333333
 40
0.3333333333333333
 40
0.3333333333333333
 40
0.3333333333333333
 40
1.0
 40
1.0
 40
1.0
 40
1.0
 10
-32.4133
 20
35.9629
 30
0.0
 10
-32.4046
 20
35.9201
 30
0.0
 10
-32.3676
 20
35.8982
 30
0.0
 10
-32.3319
 20
35.8791
 30
0.0
 10
-32.3319
 20
35.8791
 30
0.0
 10
-32.234
 20
35.8266
 30
0.0
 10
-32.1243
 20
35.7959
 30
0.0
 10
-32.0196
 20
35.7617
 30
0.0
  0
SPLINE
  5
1C3
330
1F
100
AcDbEntity
  8
DATUMS
 62
   250
100
AcDbSpline
210
0.0
220
0.0
230
1.0
 70
     8
 71
     3
 72
     8
 73
     4
 74
     0
 42
0.0000000001
 43
0.0000000001
 40
0.0
 40
0.0
 40
0.0
 40
0.0
 40
1.0
 40
1.0
 40
1.0
 40
1.0
 10
-32.0196
 20
-3.7915
 30
0.0
 10
-32.1105
 20
-3.937
 30
0.0
 10
-32.2234
 20
-4.174
 30
0.0
 10
-32.4133
 20
-4.1939
 30
0.0
  0
SPLINE
  5
1C4
330
1F
100
AcDbEntity
  8
DATUMS
 62
   250
100
AcDbSpline
210
0.0
220
0.0
230
1.0
 70
     8
 71
     3
 72
    12
 73
     8
 74
     0
 42
0.0000000001
 43
0.0000000001
 40
0.0
 40
0.0
 40
0.0
 40
0.0
 40
0.3333333333333333
 40
0.3333333333333333
 40
0.3333333333333333
 40
0.3333333333333333
 40
1.0
 40
1.0
 40
1.0
 40
1.0
 10
-32.4133
 20
-3.9927
 30
0.0
 10
-32.4046
 20
-3.9498
 30
0.0
 10
-32.3676
 20
-3.9281
 30
0.0
 10
-32.3319
 20
-3.9088
 30
0.0
 10
-32.3319
 20
-3.9088
 30
0.0
 10
-32.2496
 20
-3.8647
 30
0.0
 10
-32.1589
 20
-3.8373
 30
0.0
 10
-32.0709
 20
-3.8081
 30
0.0
  0
SPLINE
  5
1C5
330
1F
100
AcDbEntity
  8
DATUMS
 62
   250
100
AcDbSpline
210
0.0
220
0.0
230
1.0
 70
     8
 71
     3
 72
    12
 73
     8
 74
     0
 42
0.0000000001
 43
0.0000000001
 40
0.0
 40
0.0
 40
0.0
 40
0.0
 40
0.3333333333333333
 40
0.3333333333333333
 40
0.3333333333333333
 40
0.3333333333333333
 40
1.0
 40
1.0
 40
1.0
 40
1.0
 10
5.4775
 20
35.9629
 30
0.0
 10
5.4689
 20
35.9201
 30
0.0
 10
5.4318
 20
35.8982
 30
0.0
 10
5.396
 20
35.8791
 30
0.0
 10
5.396
 20
35.8791
 30
0.0
 10
5.3138
 20
35.835
 30
0.0
 10
5.2231
 20
35.8075
 30
0.0
 10
5.1351
 20
35.7784
 30
0.0
  0
SPLINE
  5
1C6
330
1F
100
AcDbEntity
  8
DATUMS
 62
   250
100
AcDbSpline
210
0.0
220
0.0
230
1.0
 70
     8
 71
     3
 72
     8
 73
     4
 74
     0
 42
0.0000000001
 43
0.0000000001
 40
0.0
 40
0.0
 40
0.0
 40
0.0
 40
1.0
 40
1.0
 40
1.0
 40
1.0
 10
5.0837
 20
35.7617
 30
0.0
 10
5.1747
 20
35.9072
 30
0.0
 10
5.2877
 20
36.1442
 30
0.0
 10
5.4775
 20
36.1642
 30
0.0
  0
SPLINE
  5
1C7
330
1F
100
AcDbEntity
  8
DATUMS
 62
   250
100
AcDbSpline
210
0.0
220
0.0
230
1.0
 70
     8
 71
     3
 72
    12
 73
     8
 74
     0
 42
0.0000000001
 43
0.0000000001
 40
0.0
 40
0.0
 40
0.0
 40
0.0
 40
0.3333333333333333
 40
0.3333333333333333
 40
0.3333333333333333
 40
0.3333333333333333
 40
1.0
 40
1.0
 40
1.0
 40
1.0
 10
5.4775
 20
-3.9927
 30
0.0
 10
5.4689
 20
-3.95
 30
0.0
 10
5.4318
 20
-3.9281
 30
0.0
 10
5.3962
 20
-3.9088
 30
0.0
 10
5.3962
 20
-3.9088
 30
0.0
 10
5.2983
 20
-3.8563
 30
0.0
 10
5.1886
 20
-3.8256
 30
0.0
 10
5.0837
 20
-3.7915
 30
0.0
  0
SPLINE
  5
1C8
330
1F
100
AcDbEntity
  8
DATUMS
 62
   250
100
AcDbSpline
210
0.0
220
0.0
230
1.0
 70
     8
 71
     3
 72
     8
 73
     4
 74
     0
 42
0.0000000001
 43
0.0000000001
 40
0.0
 40
0.0
 40
0.0
 40
0.0
 40
1.0
 40
1.0
 40
1.0
 40
1.0
 10
5.1166
 20
-3.844
 30
0.0
 10
5.2014
 20
-3.9775
 30
0.0
 10
5.3045
 20
-4.1758
 30
0.0
 10
5.4775
 20
-4.1939
 30
0.0
  0
SPLINE
  5
1C9
330
1F
100
AcDbEntity
  8
DATUMS
 62
   250
100
AcDbSpline
210
0.0
220
0.0
230
1.0
 70
     8
 71
     3
 72
     8
 73
     4
 74
     0
 42
0.0000000001
 43
0.0000000001
 40
0.0
 40
0.0
 40
0.0
 40
0.0
 40
1.0
 40
1.0
 40
1.0
 40
1.0
 10
-17.1955
 20
18.9541
 30
0.0
 10
-17.1699
 20
18.5883
 30
0.0
 10
-16.6743
 20
18.7026
 30
0.0
 10
-16.4573
 20
18.7026
 30
0.0
  0
SPLINE
  5
1CA
330
1F
100
AcDbEntity
  8
DATUMS
 62
   250
100
AcDbSpline
210
0.0
220
0.0
230
1.0
 70
    24
 71
     3
 72
     8
 73
     4
 74
     0
 42
0.0000000001
 43
0.0000000001
 40
0.0
 40
0.0
 40
0.0
 40
0.0
 40
1.0
 40
1.0
 40
1.0
 40
1.0
 10
-16.4573
 20
18.7026
 30
0.0
 10
-16.4573
 20
18.7026
 30
0.0
 10
-10.4784
 20
18.7026
 30
0.0
 10
-10.4784
 20
18.7026
 30
0.0
  0
SPLINE
  5
1CB
330
1F
100
AcDbEntity
  8
DATUMS
 62
   250
100
AcDbSpline
210
0.0
220
0.0
230
1.0
 70
     8
 71
     3
 72
    12
 73
     8
 74
     0
 42
0.0000000001
 43
0.0000000001
 40
0.0
 40
0.0
 40
0.0
 40
0.0
 40
0.3333333333333333
 40
0.3333333333333333
 40
0.3333333333333333
 40
0.3333333333333333
 40
1.0
 40
1.0
 40
1.0
 40
1.0
 10
-10.4784
 20
18.7026
 30
0.0
 10
-10.3926
 20
18.7026
 30
0.0
 10
-9.9769
 20
18.6297
 30
0.0
 10
-9.8252
 20
18.764
 30
0.0
 10
-9.8252
 20
18.764
 30
0.0
 10
-9.658
 20
18.9122
 30
0.0
 10
-9.7403
 20
19.3381
 30
0.0
 10
-9.7403
 20
19.4572
 30
0.0
  0
SPLINE
  5
1CC
330
1F
100
AcDbEntity
  8
DATUMS
 62
   250
100
AcDbSpline
210
0.0
220
0.0
230
1.0
 70
    24
 71
     3
 72
     8
 73
     4
 74
     0
 42
0.0000000001
 43
0.0000000001
 40
0.0
 40
0.0
 40
0.0
 40
0.0
 40
1.0
 40
1.0
 40
1.0
 40
1.0
 10
-9.7403
 20
19.4572
 30
0.0
 10
-9.7403
 20
19.4572
 30
0.0
 10
-9.7403
 20
23.0805
 30
0.0
 10
-9.7403
 20
23.0805
 30
0.0
  0
SPLINE
  5
1CD
330
1F
100
AcDbEntity
  8
DATUMS
 62
   250
100
AcDbSpline
210
0.0
220
0.0
230
1.0
 70
     8
 71
     3
 72
     8
 73
     4
 74
     0
 42
0.0000000001
 43
0.0000000001
 40
0.0
 40
0.0
 40
0.0
 40
0.0
 40
1.0
 40
1.0
 40
1.0
 40
1.0
 10
-9.7403
 20
23.0805
 30
0.0
 10
-9.7403
 20
23.2569
 30
0.0
 10
-9.6282
 20
23.8336
 30
0.0
 10
-9.9864
 20
23.8353
 30
0.0
  0
SPLINE
  5
1CE
330
1F
100
AcDbEntity
  8
DATUMS
 62
   250
100
AcDbSpline
210
0.0
220
0.0
230
1.0
 70
    24
 71
     3
 72
    16
 73
    12
 74
     0
 42
0.0000000001
 43
0.0000000001
 40
0.0
 40
0.0
 40
0.0
 40
0.0
 40
0.25
 40
0.25
 40
0.25
 40
0.25
 40
0.5
 40
0.5
 40
0.5
 40
0.5
 40
1.0
 40
1.0
 40
1.0
 40
1.0
 10
-9.9864
 20
23.8353
 30
0.0
 10
-9.9864
 20
23.8353
 30
0.0
 10
-10.4784
 20
23.8353
 30
0.0
 10
-10.4784
 20
23.8353
 30
0.0
 10
-10.4784
 20
23.8353
 30
0.0
 10
-10.4784
 20
23.8353
 30
0.0
 10
-16.4573
 20
23.8353
 30
0.0
 10
-16.4573
 20
23.8353
 30
0.0
 10
-16.4573
 20
23.8353
 30
0.0
 10
-16.4573
 20
23.8353
 30
0.0
 10
-16.9493
 20
23.8353
 30
0.0
 10
-16.9493
 20
23.8353
 30
0.0
  0
SPLINE
  5
1CF
330
1F
100
AcDbEntity
  8
DATUMS
 62
   250
100
AcDbSpline
210
0.0
220
0.0
230
1.0
 70
     8
 71
     3
 72
     8
 73
     4
 74
     0
 42
0.0000000001
 43
0.0000000001
 40
0.0
 40
0.0
 40
0.0
 40
0.0
 40
1.0
 40
1.0
 40
1.0
 40
1.0
 10
-16.9493
 20
23.8353
 30
0.0
 10
-17.3072
 20
23.8091
 30
0.0
 10
-17.1955
 20
23.3025
 30
0.0
 10
-17.1955
 20
23.0805
 30
0.0
  0
SPLINE
  5
1D0
330
1F
100
AcDbEntity
  8
DATUMS
 62
   250
100
AcDbSpline
210
0.0
220
0.0
230
1.0
 70
    24
 71
     3
 72
    12
 73
     8
 74
     0
 42
0.0000000001
 43
0.0000000001
 40
0.0
 40
0.0
 40
0.0
 40
0.0
 40
0.3333333333333333
 40
0.3333333333333333
 40
0.3333333333333333
 40
0.3333333333333333
 40
1.0
 40
1.0
 40
1.0
 40
1.0
 10
-17.1955
 20
23.0805
 30
0.0
 10
-17.1955
 20
23.0805
 30
0.0
 10
-17.1955
 20
19.4572
 30
0.0
 10
-17.1955
 20
19.4572
 30
0.0
 10
-17.1955
 20
19.4572
 30
0.0
 10
-17.1955
 20
19.4572
 30
0.0
 10
-17.1955
 20
18.9541
 30
0.0
 10
-17.1955
 20
18.9541
 30
0.0
  0
SPLINE
  5
1D1
330
1F
100
AcDbEntity
  8
DATUMS
 62
   250
100
AcDbSpline
210
0.0
220
0.0
230
1.0
 70
     8
 71
     3
 72
     8
 73
     4
 74
     0
 42
0.0000000001
 43
0.0000000001
 40
0.0
 40
0.0
 40
0.0
 40
0.0
 40
1.0
 40
1.0
 40
1.0
 40
1.0
 10
-9.8523
 20
18.7467
 30
0.0
 10
-10.1204
 20
19.0591
 30
0.0
 10
-10.0263
 20
19.0241
 30
0.0
 10
-10.0263
 20
19.5033
 30
0.0
  0
SPLINE
  5
1D2
330
1F
100
AcDbEntity
  8
DATUMS
 62
   250
100
AcDbSpline
210
0.0
220
0.0
230
1.0
 70
    24
 71
     3
 72
     8
 73
     4
 74
     0
 42
0.0000000001
 43
0.0000000001
 40
0.0
 40
0.0
 40
0.0
 40
0.0
 40
1.0
 40
1.0
 40
1.0
 40
1.0
 10
-10.0263
 20
19.5033
 30
0.0
 10
-10.0263
 20
19.5033
 30
0.0
 10
-10.0263
 20
23.027
 30
0.0
 10
-10.0263
 20
23.027
 30
0.0
  0
SPLINE
  5
1D3
330
1F
100
AcDbEntity
  8
DATUMS
 62
   250
100
AcDbSpline
210
0.0
220
0.0
230
1.0
 70
     8
 71
     3
 72
     8
 73
     4
 74
     0
 42
0.0000000001
 43
0.0000000001
 40
0.0
 40
0.0
 40
0.0
 40
0.0
 40
1.0
 40
1.0
 40
1.0
 40
1.0
 10
-10.0263
 20
23.027
 30
0.0
 10
-10.0263
 20
23.4523
 30
0.0
 10
-10.1197
 20
23.5101
 30
0.0
 10
-9.8462
 20
23.7899
 30
0.0
  0
SPLINE
  5
1D4
330
1F
100
AcDbEntity
  8
DATUMS
 62
   250
100
AcDbSpline
210
0.0
220
0.0
230
1.0
 70
     8
 71
     3
 72
     8
 73
     4
 74
     0
 42
0.0000000001
 43
0.0000000001
 40
0.0
 40
0.0
 40
0.0
 40
0.0
 40
1.0
 40
1.0
 40
1.0
 40
1.0
 10
-17.1529
 20
23.7046
 30
0.0
 10
-16.7751
 20
23.4341
 30
0.0
 10
-17.0085
 20
23.5304
 30
0.0
 10
-16.4174
 20
23.5304
 30
0.0
  0
SPLINE
  5
1D5
330
1F
100
AcDbEntity
  8
DATUMS
 62
   250
100
AcDbSpline
210
0.0
220
0.0
230
1.0
 70
    24
 71
     3
 72
     8
 73
     4
 74
     0
 42
0.0000000001
 43
0.0000000001
 40
0.0
 40
0.0
 40
0.0
 40
0.0
 40
1.0
 40
1.0
 40
1.0
 40
1.0
 10
-16.4174
 20
23.5304
 30
0.0
 10
-16.4174
 20
23.5304
 30
0.0
 10
-10.5183
 20
23.5304
 30
0.0
 10
-10.5183
 20
23.5304
 30
0.0
  0
SPLINE
  5
1D6
330
1F
100
AcDbEntity
  8
DATUMS
 62
   250
100
AcDbSpline
210
0.0
220
0.0
230
1.0
 70
     8
 71
     3
 72
     8
 73
     4
 74
     0
 42
0.0000000001
 43
0.0000000001
 40
0.0
 40
0.0
 40
0.0
 40
0.0
 40
1.0
 40
1.0
 40
1.0
 40
1.0
 10
-10.5183
 20
23.5304
 30
0.0
 10
-10.1056
 20
23.5304
 30
0.0
 10
-10.0466
 20
23.4342
 30
0.0
 10
-9.7751
 20
23.7118
 30
0.0
  0
SPLINE
  5
1D7
330
1F
100
AcDbEntity
  8
DATUMS
 62
   250
100
AcDbSpline
210
0.0
220
0.0
230
1.0
 70
     8
 71
     3
 72
    20
 73
    16
 74
     0
 42
0.0000000001
 43
0.0000000001
 40
0.0
 40
0.0
 40
0.0
 40
0.0
 40
0.2
 40
0.2
 40
0.2
 40
0.2
 40
0.4
 40
0.4
 40
0.4
 40
0.4
 40
0.6
 40
0.6
 40
0.6
 40
0.6
 40
1.0
 40
1.0
 40
1.0
 40
1.0
 10
-9.7822
 20
23.7231
 30
0.0
 10
-9.7822
 20
23.7231
 30
0.0
 10
-9.7803
 20
23.7064
 30
0.0
 10
-9.7803
 20
23.7064
 30
0.0
 10
-9.7803
 20
23.7064
 30
0.0
 10
-9.7803
 20
23.7064
 30
0.0
 10
-9.7803
 20
23.2031
 30
0.0
 10
-9.7803
 20
23.2031
 30
0.0
 10
-9.7803
 20
23.2031
 30
0.0
 10
-9.7803
 20
23.2031
 30
0.0
 10
-9.7803
 20
19.3271
 30
0.0
 10
-9.7803
 20
19.3271
 30
0.0
 10
-9.7803
 20
19.3271
 30
0.0
 10
-9.7803
 20
19.3271
 30
0.0
 10
-9.7813
 20
18.8155
 30
0.0
 10
-9.7813
 20
18.8155
 30
0.0
  0
SPLINE
  5
1D8
330
1F
100
AcDbEntity
  8
DATUMS
 62
   250
100
AcDbSpline
210
0.0
220
0.0
230
1.0
 70
     8
 71
     3
 72
     8
 73
     4
 74
     0
 42
0.0000000001
 43
0.0000000001
 40
0.0
 40
0.0
 40
0.0
 40
0.0
 40
1.0
 40
1.0
 40
1.0
 40
1.0
 10
-17.1529
 20
18.8257
 30
0.0
 10
-16.7751
 20
19.0962
 30
0.0
 10
-17.0086
 20
19.0001
 30
0.0
 10
-16.4174
 20
19.0001
 30
0.0
  0
SPLINE
  5
1D9
330
1F
100
AcDbEntity
  8
DATUMS
 62
   250
100
AcDbSpline
210
0.0
220
0.0
230
1.0
 70
    24
 71
     3
 72
     8
 73
     4
 74
     0
 42
0.0000000001
 43
0.0000000001
 40
0.0
 40
0.0
 40
0.0
 40
0.0
 40
1.0
 40
1.0
 40
1.0
 40
1.0
 10
-16.4174
 20
19.0001
 30
0.0
 10
-16.4174
 20
19.0001
 30
0.0
 10
-10.5183
 20
19.0001
 30
0.0
 10
-10.5183
 20
19.0001
 30
0.0
  0
SPLINE
  5
1DA
330
1F
100
AcDbEntity
  8
DATUMS
 62
   250
100
AcDbSpline
210
0.0
220
0.0
230
1.0
 70
     8
 71
     3
 72
     8
 73
     4
 74
     0
 42
0.0000000001
 43
0.0000000001
 40
0.0
 40
0.0
 40
0.0
 40
0.0
 40
1.0
 40
1.0
 40
1.0
 40
1.0
 10
-10.5183
 20
19.0001
 30
0.0
 10
-9.9262
 20
19.0001
 30
0.0
 10
-10.1606
 20
19.0962
 30
0.0
 10
-9.7803
 20
18.8239
 30
0.0
  0
SPLINE
  5
1DB
330
1F
100
AcDbEntity
  8
DATUMS
 62
   250
100
AcDbSpline
210
0.0
220
0.0
230
1.0
 70
     8
 71
     3
 72
    16
 73
    12
 74
     0
 42
0.0000000001
 43
0.0000000001
 40
0.0
 40
0.0
 40
0.0
 40
0.0
 40
0.25
 40
0.25
 40
0.25
 40
0.25
 40
0.5
 40
0.5
 40
0.5
 40
0.5
 40
1.0
 40
1.0
 40
1.0
 40
1.0
 10
-17.0918
 20
18.7496
 30
0.0
 10
-17.0918
 20
18.7496
 30
0.0
 10
-16.5914
 20
18.7467
 30
0.0
 10
-16.5914
 20
18.7467
 30
0.0
 10
-16.5914
 20
18.7467
 30
0.0
 10
-16.5914
 20
18.7467
 30
0.0
 10
-10.3461
 20
18.7484
 30
0.0
 10
-10.3461
 20
18.7484
 30
0.0
 10
-10.3461
 20
18.7484
 30
0.0
 10
-10.3461
 20
18.7484
 30
0.0
 10
-9.8439
 20
18.7496
 30
0.0
 10
-9.8439
 20
18.7496
 30
0.0
  0
SPLINE
  5
1DC
330
1F
100
AcDbEntity
  8
DATUMS
 62
   250
100
AcDbSpline
210
0.0
220
0.0
230
1.0
 70
     8
 71
     3
 72
     8
 73
     4
 74
     0
 42
0.0000000001
 43
0.0000000001
 40
0.0
 40
0.0
 40
0.0
 40
0.0
 40
1.0
 40
1.0
 40
1.0
 40
1.0
 10
-17.08
 20
18.751
 30
0.0
 10
-16.8154
 20
19.1375
 30
0.0
 10
-16.9095
 20
18.8987
 30
0.0
 10
-16.9095
 20
19.5033
 30
0.0
  0
SPLINE
  5
1DD
330
1F
100
AcDbEntity
  8
DATUMS
 62
   250
100
AcDbSpline
210
0.0
220
0.0
230
1.0
 70
    24
 71
     3
 72
     8
 73
     4
 74
     0
 42
0.0000000001
 43
0.0000000001
 40
0.0
 40
0.0
 40
0.0
 40
0.0
 40
1.0
 40
1.0
 40
1.0
 40
1.0
 10
-16.9095
 20
19.5033
 30
0.0
 10
-16.9095
 20
19.5033
 30
0.0
 10
-16.9095
 20
23.027
 30
0.0
 10
-16.9095
 20
23.027
 30
0.0
  0
SPLINE
  5
1DE
330
1F
100
AcDbEntity
  8
DATUMS
 62
   250
100
AcDbSpline
210
0.0
220
0.0
230
1.0
 70
     8
 71
     3
 72
     8
 73
     4
 74
     0
 42
0.0000000001
 43
0.0000000001
 40
0.0
 40
0.0
 40
0.0
 40
0.0
 40
1.0
 40
1.0
 40
1.0
 40
1.0
 10
-16.9095
 20
23.027
 30
0.0
 10
-16.9095
 20
23.4844
 30
0.0
 10
-16.817
 20
23.4899
 30
0.0
 10
-17.0895
 20
23.7899
 30
0.0
  0
SPLINE
  5
1DF
330
1F
100
AcDbEntity
  8
DATUMS
 62
   250
100
AcDbSpline
210
0.0
220
0.0
230
1.0
 70
     8
 71
     3
 72
    20
 73
    16
 74
     0
 42
0.0000000001
 43
0.0000000001
 40
0.0
 40
0.0
 40
0.0
 40
0.0
 40
0.2
 40
0.2
 40
0.2
 40
0.2
 40
0.4
 40
0.4
 40
0.4
 40
0.4
 40
0.6
 40
0.6
 40
0.6
 40
0.6
 40
1.0
 40
1.0
 40
1.0
 40
1.0
 10
-17.1535
 20
23.7231
 30
0.0
 10
-17.1535
 20
23.7231
 30
0.0
 10
-17.1555
 20
23.7064
 30
0.0
 10
-17.1555
 20
23.7064
 30
0.0
 10
-17.1555
 20
23.7064
 30
0.0
 10
-17.1555
 20
23.7064
 30
0.0
 10
-17.1555
 20
23.2031
 30
0.0
 10
-17.1555
 20
23.2031
 30
0.0
 10
-17.1555
 20
23.2031
 30
0.0
 10
-17.1555
 20
23.2031
 30
0.0
 10
-17.1555
 20
19.3271
 30
0.0
 10
-17.1555
 20
19.3271
 30
0.0
 10
-17.1555
 20
19.3271
 30
0.0
 10
-17.1555
 20
19.3271
 30
0.0
 10
-17.1544
 20
18.8155
 30
0.0
 10
-17.1544
 20
18.8155
 30
0.0
  0
SPLINE
  5
1E0
330
1F
100
AcDbEntity
  8
DATUMS
 62
   250
100
AcDbSpline
210
0.0
220
0.0
230
1.0
 70
     8
 71
     3
 72
    24
 73
    20
 74
     0
 42
0.0000000001
 43
0.0000000001
 40
0.0
 40
0.0
 40
0.0
 40
0.0
 40
0.1666666666666667
 40
0.1666666666666667
 40
0.1666666666666667
 40
0.1666666666666667
 40
0.3333333333333333
 40
0.3333333333333333
 40
0.3333333333333333
 40
0.3333333333333333
 40
0.5
 40
0.5
 40
0.5
 40
0.5
 40
0.6666666666666666
 40
0.6666666666666666
 40
0.6666666666666666
 40
0.6666666666666666
 40
1.0
 40
1.0
 40
1.0
 40
1.0
 10
-9.8291
 20
23.7769
 30
0.0
 10
-9.8291
 20
23.7769
 30
0.0
 10
-9.8541
 20
23.7818
 30
0.0
 10
-9.8541
 20
23.7818
 30
0.0
 10
-9.8541
 20
23.7818
 30
0.0
 10
-9.8541
 20
23.7818
 30
0.0
 10
-10.3461
 20
23.7818
 30
0.0
 10
-10.3461
 20
23.7818
 30
0.0
 10
-10.3461
 20
23.7818
 30
0.0
 10
-10.3461
 20
23.7818
 30
0.0
 10
-16.5896
 20
23.7818
 30
0.0
 10
-16.5896
 20
23.7818
 30
0.0
 10
-16.5896
 20
23.7818
 30
0.0
 10
-16.5896
 20
23.7818
 30
0.0
 10
-17.0816
 20
23.7818
 30
0.0
 10
-17.0816
 20
23.7818
 30
0.0
 10
-17.0816
 20
23.7818
 30
0.0
 10
-17.0816
 20
23.7818
 30
0.0
 10
-17.1064
 20
23.7769
 30
0.0
 10
-17.1064
 20
23.7769
 30
0.0
  0
SPLINE
  5
1E1
330
1F
100
AcDbEntity
  8
DATUMS
 62
   250
100
AcDbSpline
210
0.0
220
0.0
230
1.0
 70
    24
 71
     3
 72
     8
 73
     4
 74
     0
 42
0.0000000001
 43
0.0000000001
 40
0.0
 40
0.0
 40
0.0
 40
0.0
 40
1.0
 40
1.0
 40
1.0
 40
1.0
 10
-10.8968
 20
37.8249
 30
0.0
 10
-10.8968
 20
37.8249
 30
0.0
 10
-11.607
 20
37.8249
 30
0.0
 10
-11.607
 20
37.8249
 30
0.0
  0
SPLINE
  5
1E2
330
1F
100
AcDbEntity
  8
DATUMS
 62
   250
100
AcDbSpline
210
0.0
220
0.0
230
1.0
 70
    24
 71
     3
 72
     8
 73
     4
 74
     0
 42
0.0000000001
 43
0.0000000001
 40
0.0
 40
0.0
 40
0.0
 40
0.0
 40
1.0
 40
1.0
 40
1.0
 40
1.0
 10
-15.1515
 20
37.8249
 30
0.0
 10
-15.1515
 20
37.8249
 30
0.0
 10
-16.039
 20
37.8249
 30
0.0
 10
-16.039
 20
37.8249
 30
0.0
  0
SPLINE
  5
1E3
330
1F
100
AcDbEntity
  8
DATUMS
 62
   250
100
AcDbSpline
210
0.0
220
0.0
230
1.0
 70
    24
 71
     3
 72
     8
 73
     4
 74
     0
 42
0.0000000001
 43
0.0000000001
 40
0.0
 40
0.0
 40
0.0
 40
0.0
 40
1.0
 40
1.0
 40
1.0
 40
1.0
 10
-13.3455
 20
37.8249
 30
0.0
 10
-13.3455
 20
37.8249
 30
0.0
 10
-15.1515
 20
37.8249
 30
0.0
 10
-15.1515
 20
37.8249
 30
0.0
  0
SPLINE
  5
1E4
330
1F
100
AcDbEntity
  8
DATUMS
 62
   250
100
AcDbSpline
210
0.0
220
0.0
230
1.0
 70
    24
 71
     3
 72
     8
 73
     4
 74
     0
 42
0.0000000001
 43
0.0000000001
 40
0.0
 40
0.0
 40
0.0
 40
0.0
 40
1.0
 40
1.0
 40
1.0
 40
1.0
 10
-11.607
 20
37.8249
 30
0.0
 10
-11.607
 20
37.8249
 30
0.0
 10
-13.3455
 20
37.8249
 30
0.0
 10
-13.3455
 20
37.8249
 30
0.0
  0
SPLINE
  5
1E5
330
1F
100
AcDbEntity
  8
DATUMS
 62
   250
100
AcDbSpline
210
0.0
220
0.0
230
1.0
 70
    24
 71
     3
 72
    16
 73
    12
 74
     0
 42
0.0000000001
 43
0.0000000001
 40
0.0
 40
0.0
 40
0.0
 40
0.0
 40
0.25
 40
0.25
 40
0.25
 40
0.25
 40
0.5
 40
0.5
 40
0.5
 40
0.5
 40
1.0
 40
1.0
 40
1.0
 40
1.0
 10
-10.8968
 20
36.1642
 30
0.0
 10
-10.8968
 20
36.1642
 30
0.0
 10
-10.8968
 20
36.6674
 30
0.0
 10
-10.8968
 20
36.6674
 30
0.0
 10
-10.8968
 20
36.6674
 30
0.0
 10
-10.8968
 20
36.6674
 30
0.0
 10
-10.8968
 20
37.3216
 30
0.0
 10
-10.8968
 20
37.3216
 30
0.0
 10
-10.8968
 20
37.3216
 30
0.0
 10
-10.8968
 20
37.3216
 30
0.0
 10
-10.8968
 20
37.8249
 30
0.0
 10
-10.8968
 20
37.8249
 30
0.0
  0
SPLINE
  5
1E6
330
1F
100
AcDbEntity
  8
DATUMS
 62
   250
100
AcDbSpline
210
0.0
220
0.0
230
1.0
 70
     8
 71
     3
 72
     8
 73
     4
 74
     0
 42
0.0000000001
 43
0.0000000001
 40
0.0
 40
0.0
 40
0.0
 40
0.0
 40
1.0
 40
1.0
 40
1.0
 40
1.0
 10
-10.8968
 20
37.8249
 30
0.0
 10
-11.0174
 20
38.195
 30
0.0
 10
-11.3681
 20
38.0764
 30
0.0
 10
-11.6348
 20
38.0764
 30
0.0
  0
SPLINE
  5
1E7
330
1F
100
AcDbEntity
  8
DATUMS
 62
   250
100
AcDbSpline
210
0.0
220
0.0
230
1.0
 70
     8
 71
     3
 72
    20
 73
    16
 74
     0
 42
0.0000000001
 43
0.0000000001
 40
0.0
 40
0.0
 40
0.0
 40
0.0
 40
0.2
 40
0.2
 40
0.2
 40
0.2
 40
0.4
 40
0.4
 40
0.4
 40
0.4
 40
0.6
 40
0.6
 40
0.6
 40
0.6
 40
1.0
 40
1.0
 40
1.0
 40
1.0
 10
-11.6348
 20
38.0764
 30
0.0
 10
-11.6348
 20
38.0764
 30
0.0
 10
-15.3009
 20
38.0764
 30
0.0
 10
-15.3009
 20
38.0764
 30
0.0
 10
-15.3009
 20
38.0764
 30
0.0
 10
-15.3009
 20
38.0764
 30
0.0
 10
-15.793
 20
38.0764
 30
0.0
 10
-15.793
 20
38.0764
 30
0.0
 10
-15.793
 20
38.0764
 30
0.0
 10
-15.793
 20
38.0764
 30
0.0
 10
-16.039
 20
37.8249
 30
0.0
 10
-16.039
 20
37.8249
 30
0.0
 10
-16.039
 20
37.8249
 30
0.0
 10
-16.039
 20
37.8249
 30
0.0
 10
-16.039
 20
36.1642
 30
0.0
 10
-16.039
 20
36.1642
 30
0.0
  0
ENDSEC
  0
SECTION
  2
OBJECTS
  0
DICTIONARY
  5
C
330
0
100
AcDbDictionary
  3
ACAD_GROUP
350
D
  3
ACAD_LAYOUT
350
1A
  3
ACAD_MATERIAL
350
3B
  3
ACAD_MLEADERSTYLE
350
20A
  3
ACAD_MLINESTYLE
350
17
  3
ACAD_PLOTSETTINGS
350
19
  3
ACAD_VISUALSTYLE
350
2A
  3
ACDBHEADERROUNDTRIPXREC
350
1E8
  3
ACDBVARIABLEDICTIONARY
350
208
  0
DICTIONARY
  5
D
102
{ACAD_REACTORS
330
C
102
}
330
C
100
AcDbDictionary
  0
DICTIONARY
  5
1A
102
{ACAD_REACTORS
330
C
102
}
330
C
100
AcDbDictionary
  0
DICTIONARY
  5
3B
102
{ACAD_REACTORS
330
C
102
}
330
C
100
AcDbDictionary
  3
BYBLOCK
350
3D
  3
BYLAYER
350
3C
  3
GLOBAL
350
3E
  0
DICTIONARY
  5
20A
102
{ACAD_REACTORS
330
C
102
}
330
C
100
AcDbDictionary
  0
DICTIONARY
  5
17
102
{ACAD_REACTORS
330
C
102
}
330
C
100
AcDbDictionary
  3
STANDARD
350
18
  0
DICTIONARY
  5
19
102
{ACAD_REACTORS
330
C
102
}
330
C
100
AcDbDictionary
  0
DICTIONARY
  5
2A
102
{ACAD_REACTORS
330
C
102
}
330
C
100
AcDbDictionary
  3
2DWIREFRAME
350
2F
  3
3D_HIDDEN
350
31
  3
3DWIREFRAME
350
30
  3
BASIC
350
32
  3
BRIGHTEN
350
36
  3
COLORCHANGE
350
3A
  3
CONCEPTUAL
350
34
  3
DIM
350
35
  3
FACEPATTERN
350
39
  3
FLAT
350
2B
  3
FLATWITHEDGES
350
2C
  3
GOURAUD
350
2D
  3
GOURAUDWITHEDGES
350
2E
  3
LINEPATTERN
350
38
  3
REALISTIC
350
33
  3
THICKEN
350
37
  0
DICTIONARY
  5
1E8
102
{ACAD_REACTORS
330
C
102
}
330
C
100
AcDbDictionary
  3
CEPSNTYPE
350
1F1
  3
DIMSTYLEDATA
350
207
  3
FINGERPRINTGUID
350
1F2
  3
HYPERLINKBASE
350
1EB
  3
INSUNITS
350
1F0
  3
LAYOUTDICT
350
1ED
  3
LWETCUNION
350
1EF
  3
PLOTSETDICT
350
1EE
  3
PSVPSCALE
350
1F4
  3
PUCSBASE
350
1F7
  3
PUCSORGBACK
350
1FD
  3
PUCSORGBOTTOM
350
1F9
  3
PUCSORGFRONT
350
1FC
  3
PUCSORGLEFT
350
1FA
  3
PUCSORGRIGHT
350
1FB
  3
PUCSORGTOP
350
1F8
  3
PUCSORTHOREF
350
1F5
  3
PUCSORTHOVIEW
350
1F6
  3
STYLESHEET
350
1EC
  3
TSTACKALIGN
350
1E9
  3
TSTACKSIZE
350
1EA
  3
UCSBASE
350
200
  3
UCSORGBACK
350
206
  3
UCSORGBOTTOM
350
202
  3
UCSORGFRONT
350
205
  3
UCSORGLEFT
350
203
  3
UCSORGRIGHT
350
204
  3
UCSORGTOP
350
201
  3
UCSORTHOREF
350
1FE
  3
UCSORTHOVIEW
350
1FF
  3
VERSIONGUID
350
1F3
  0
DICTIONARY
  5
208
102
{ACAD_REACTORS
330
C
102
}
330
C
100
AcDbDictionary
  3
DIMASSOC
350
20B
  3
HIDETEXT
350
20C
  0
MATERIAL
  5
3D
102
{ACAD_REACTORS
330
3B
102
}
102
{ACAD_XDICTIONARY
360
20F
102
}
330
3B
100
AcDbMaterial
  1
ByBlock
  0
MATERIAL
  5
3C
102
{ACAD_REACTORS
330
3B
102
}
102
{ACAD_XDICTIONARY
360
20D
102
}
330
3B
100
AcDbMaterial
  1
ByLayer
  0
MATERIAL
  5
3E
102
{ACAD_REACTORS
330
3B
102
}
102
{ACAD_XDICTIONARY
360
211
102
}
330
3B
100
AcDbMaterial
  1
Global
  0
MLINESTYLE
  5
18
102
{ACAD_REACTORS
330
17
102
}
330
17
100
AcDbMlineStyle
  2
Standard
 70
     0
  3

 62
   256
 51
90.0
 52
90.0
 71
     2
 49
0.5
 62
   256
  6
BYLAYER
 49
-0.5
 62
   256
  6
BYLAYER
  0
ACAD_PROXY_OBJECT
  5
2F
102
{ACAD_REACTORS
330
2A
102
}
330
2A
100
AcDbProxyObject
 90
      499
 91
      501
 93
      436
310
42CC9915DA5C99599C985B595049028333333333333E3BF0000000000000FB0107901411070040501600405405064090741402480A0340
1001
ACAD
1000
AcDbSavedByObjectVersion
1070
     0
  0
ACAD_PROXY_OBJECT
  5
31
102
{ACAD_REACTORS
330
2A
102
}
330
2A
100
AcDbProxyObject
 90
      499
 91
      501
 93
      500
310
424CD108121A5919195B90640502408333333333333E3BF0000000000000FB01079024090700405020000000000001110200405405064090740C02480A0340
1001
ACAD
1000
AcDbSavedByObjectVersion
1070
     0
  0
ACAD_PROXY_OBJECT
  5
30
102
{ACAD_REACTORS
330
2A
102
}
330
2A
100
AcDbProxyObject
 90
      499
 91
      501
 93
      436
310
42CCD915DA5C99599C985B595059028333333333333E3BF0000000000000FB0107901411070040501600405405064090741402480A0340
1001
ACAD
1000
AcDbSavedByObjectVersion
1070
     0
  0
ACAD_PROXY_OBJECT
  5
32
102
{ACAD_REACTORS
330
2A
102
}
330
2A
100
AcDbProxyObject
 90
      499
 91
      501
 93
      388
310
4150985CDA58D07406404333333333333E3BF0000000000000FB0107A41107004050150841D405064090741402480A0350
1001
ACAD
1000
AcDbSavedByObjectVersion
1070
     0
  0
ACAD_PROXY_OBJECT
  5
36
102
{ACAD_REACTORS
330
2A
102
}
330
2A
100
AcDbProxyObject
 90
      499
 91
      501
 93
      428
310
42109C9A59DA1D195B90C409028333333333333E3BF0000000000000FB010790141107004050150841D405064090741402480A029950
1001
ACAD
1000
AcDbSavedByObjectVersion
1070
     0
  0
ACAD_PROXY_OBJECT
  5
3A
102
{ACAD_REACTORS
330
2A
102
}
330
2A
100
AcDbProxyObject
 90
      499
 91
      501
 93
      452
310
42D0DBDB1BDC90DA185B99D95104090240C333333333333E3BF0000000000000FB0108901411070040501508421405064090741402480A0350
1001
ACAD
1000
AcDbSavedByObjectVersion
1070
     0
  0
ACAD_PROXY_OBJECT
  5
34
102
{ACAD_REACTORS
330
2A
102
}
330
2A
100
AcDbProxyObject
 90
      499
 91
      501
 93
      500
310
4290DBDB98D95C1D1D585B10940D028333333333333E3BF0000000000000FB0107902409070040501000000000000111010841D405064090740C02480A0340
1001
ACAD
1000
AcDbSavedByObjectVersion
1070
     0
  0
ACAD_PROXY_OBJECT
  5
35
102
{ACAD_REACTORS
330
2A
102
}
330
2A
100
AcDbProxyObject
 90
      499
 91
      501
 93
      412
310
40D11A5B50B409028333333333333E3BF0000000000000FB010790141107004050150841D405064090741402480A02677FFFFFD0
1001
ACAD
1000
AcDbSavedByObjectVersion
1070
     0
  0
ACAD_PROXY_OBJECT
  5
39
102
{ACAD_REACTORS
330
2A
102
}
330
2A
100
AcDbProxyObject
 90
      499
 91
      501
 93
      444
310
42D19858D95C185D1D195C9B90F409028333333333333E3BF0000000000000FB010790141107004050150841D405064090741402480A0350
1001
ACAD
1000
AcDbSavedByObjectVersion
1070
     0
  0
ACAD_PROXY_OBJECT
  5
2B
102
{ACAD_REACTORS
330
2A
102
}
330
2A
100
AcDbProxyObject
 90
      499
 91
      501
 93
      388
310
41119B185D240901404333333333333E3BF0000000000000F9010740A41107004050150841D405064090741402480A1B50
1001
ACAD
1000
AcDbSavedByObjectVersion
1070
     0
  0
ACAD_PROXY_OBJECT
  5
2C
102
{ACAD_REACTORS
330
2A
102
}
330
2A
100
AcDbProxyObject
 90
      499
 91
      501
 93
      476
310
43519B185D15DA5D1A115919D95CD0140901404333333333333E3BF0000000000000F9010740901411070040501600405405064090741402480A1B50
1001
ACAD
1000
AcDbSavedByObjectVersion
1070
     0
  0
ACAD_PROXY_OBJECT
  5
2D
102
{ACAD_REACTORS
330
2A
102
}
330
2A
100
AcDbProxyObject
 90
      499
 91
      501
 93
      412
310
41D1DBDD5C985D5910240902404333333333333E3BF0000000000000F9010740A411070040501641D405064090741402480A1B50
1001
ACAD
1000
AcDbSavedByObjectVersion
1070
     0
  0
ACAD_PROXY_OBJECT
  5
2E
102
{ACAD_REACTORS
330
2A
102
}
330
2A
100
AcDbProxyObject
 90
      499
 91
      501
 93
      500
310
4411DBDD5C985D5915DA5D1A115919D95CD0340902404333333333333E3BF0000000000000F9010740901411070040501600405405064090741402480A1B50
1001
ACAD
1000
AcDbSavedByObjectVersion
1070
     0
  0
ACAD_PROXY_OBJECT
  5
38
102
{ACAD_REACTORS
330
2A
102
}
330
2A
100
AcDbProxyObject
 90
      499
 91
      501
 93
      444
310
42D31A5B995C185D1D195C9B90E409028333333333333E3BF0000000000000FB010790141107004050750841D405064090741402483A0350
1001
ACAD
1000
AcDbSavedByObjectVersion
1070
     0
  0
ACAD_PROXY_OBJECT
  5
33
102
{ACAD_REACTORS
330
2A
102
}
330
2A
100
AcDbProxyObject
 90
      499
 91
      501
 93
      420
310
425499585B1A5CDD1A58D08409028333333333333E3BF0000000000000FB01079019070040501508421405064090741402480A1B40
1001
ACAD
1000
AcDbSavedByObjectVersion
1070
     0
  0
ACAD_PROXY_OBJECT
  5
37
102
{ACAD_REACTORS
330
2A
102
}
330
2A
100
AcDbProxyObject
 90
      499
 91
      501
 93
      412
310
41D51A1A58DAD95B90D409028333333333333E3BF0000000000000FB010790141107004050150C41D405064090741402480A0350
1001
ACAD
1000
AcDbSavedByObjectVersion
1070
     0
  0
XRECORD
  5
1F1
102
{ACAD_REACTORS
330
1E8
102
}
330
1E8
100
AcDbXrecord
 90
        0
  0
XRECORD
  5
207
102
{ACAD_REACTORS
330
1E8
102
}
330
1E8
100
AcDbXrecord
1000
DSTYLE
1002
{
1070
   340
340
11
1002
}
  0
XRECORD
  5
1F2
102
{ACAD_REACTORS
330
1E8
102
}
330
1E8
100
AcDbXrecord
  1
{B49CD876-F0BE-423A-ABF1-4F2145095C78}
  0
XRECORD
  5
1EB
102
{ACAD_REACTORS
330
1E8
102
}
330
1E8
100
AcDbXrecord
  1

  0
XRECORD
  5
1F0
102
{ACAD_REACTORS
330
1E8
102
}
330
1E8
100
AcDbXrecord
 90
        4
  0
XRECORD
  5
1ED
102
{ACAD_REACTORS
330
1E8
102
}
330
1E8
100
AcDbXrecord
340
1A
  0
XRECORD
  5
1EF
102
{ACAD_REACTORS
330
1E8
102
}
330
1E8
100
AcDbXrecord
 90
    10781
  0
XRECORD
  5
1EE
102
{ACAD_REACTORS
330
1E8
102
}
330
1E8
100
AcDbXrecord
340
19
  0
XRECORD
  5
1F4
102
{ACAD_REACTORS
330
1E8
102
}
330
1E8
100
AcDbXrecord
 40
0.0
  0
XRECORD
  5
1F7
102
{ACAD_REACTORS
330
1E8
102
}
330
1E8
100
AcDbXrecord
340
0
  0
XRECORD
  5
1FD
102
{ACAD_REACTORS
330
1E8
102
}
330
1E8
100
AcDbXrecord
 10
0.0
 20
0.0
 30
0.0
  0
XRECORD
  5
1F9
102
{ACAD_REACTORS
330
1E8
102
}
330
1E8
100
AcDbXrecord
 10
0.0
 20
0.0
 30
0.0
  0
XRECORD
  5
1FC
102
{ACAD_REACTORS
330
1E8
102
}
330
1E8
100
AcDbXrecord
 10
0.0
 20
0.0
 30
0.0
  0
XRECORD
  5
1FA
102
{ACAD_REACTORS
330
1E8
102
}
330
1E8
100
AcDbXrecord
 10
0.0
 20
0.0
 30
0.0
  0
XRECORD
  5
1FB
102
{ACAD_REACTORS
330
1E8
102
}
330
1E8
100
AcDbXrecord
 10
0.0
 20
0.0
 30
0.0
  0
XRECORD
  5
1F8
102
{ACAD_REACTORS
330
1E8
102
}
330
1E8
100
AcDbXrecord
 10
0.0
 20
0.0
 30
0.0
  0
XRECORD
  5
1F5
102
{ACAD_REACTORS
330
1E8
102
}
330
1E8
100
AcDbXrecord
340
0
  0
XRECORD
  5
1F6
102
{ACAD_REACTORS
330
1E8
102
}
330
1E8
100
AcDbXrecord
 70
     0
  0
XRECORD
  5
1EC
102
{ACAD_REACTORS
330
1E8
102
}
330
1E8
100
AcDbXrecord
  1

  0
XRECORD
  5
1E9
102
{ACAD_REACTORS
330
1E8
102
}
330
1E8
100
AcDbXrecord
 90
        1
  0
XRECORD
  5
1EA
102
{ACAD_REACTORS
330
1E8
102
}
330
1E8
100
AcDbXrecord
 90
       70
  0
XRECORD
  5
200
102
{ACAD_REACTORS
330
1E8
102
}
330
1E8
100
AcDbXrecord
340
0
  0
XRECORD
  5
206
102
{ACAD_REACTORS
330
1E8
102
}
330
1E8
100
AcDbXrecord
 10
0.0
 20
0.0
 30
0.0
  0
XRECORD
  5
202
102
{ACAD_REACTORS
330
1E8
102
}
330
1E8
100
AcDbXrecord
 10
0.0
 20
0.0
 30
0.0
  0
XRECORD
  5
205
102
{ACAD_REACTORS
330
1E8
102
}
330
1E8
100
AcDbXrecord
 10
0.0
 20
0.0
 30
0.0
  0
XRECORD
  5
203
102
{ACAD_REACTORS
330
1E8
102
}
330
1E8
100
AcDbXrecord
 10
0.0
 20
0.0
 30
0.0
  0
XRECORD
  5
204
102
{ACAD_REACTORS
330
1E8
102
}
330
1E8
100
AcDbXrecord
 10
0.0
 20
0.0
 30
0.0
  0
XRECORD
  5
201
102
{ACAD_REACTORS
330
1E8
102
}
330
1E8
100
AcDbXrecord
 10
0.0
 20
0.0
 30
0.0
  0
XRECORD
  5
1FE
102
{ACAD_REACTORS
330
1E8
102
}
330
1E8
100
AcDbXrecord
340
0
  0
XRECORD
  5
1FF
102
{ACAD_REACTORS
330
1E8
102
}
330
1E8
100
AcDbXrecord
 70
     0
  0
XRECORD
  5
1F3
102
{ACAD_REACTORS
330
1E8
102
}
330
1E8
100
AcDbXrecord
  1
{FAEB1C32-E019-11D5-929B-00C0DF256EC4}
  0
DICTIONARYVAR
  5
20B
102
{ACAD_REACTORS
330
208
102
}
330
208
100
DictionaryVariables
280
     0
  1
2
  0
DICTIONARYVAR
  5
20C
102
{ACAD_REACTORS
330
208
102
}
330
208
100
DictionaryVariables
280
     0
  1
1
  0
DICTIONARY
  5
20F
330
3D
100
AcDbDictionary
280
     1
  3
ACAD_XREC_ROUNDTRIP
360
210
  0
DICTIONARY
  5
20D
330
3C
100
AcDbDictionary
280
     1
  3
ACAD_XREC_ROUNDTRIP
360
20E
  0
DICTIONARY
  5
211
330
3E
100
AcDbDictionary
280
     1
  3
ACAD_XREC_ROUNDTRIP
360
212
  0
XRECORD
  5
210
102
{ACAD_REACTORS
330
20F
102
}
330
20F
100
AcDbXrecord
102
MATERIAL
148
0.0
149
0.0
149
0.0
 93
        0
 94
      127
282
     0
 72
     1
 77
     1
171
     1
175
     1
179
     1
273
     0
  0
XRECORD
  5
20E
102
{ACAD_REACTORS
330
20D
102
}
330
20D
100
AcDbXrecord
102
MATERIAL
148
0.0
149
0.0
149
0.0
 93
        0
 94
      127
282
     0
 72
     1
 77
     1
171
     1
175
     1
179
     1
273
     0
  0
XRECORD
  5
212
102
{ACAD_REACTORS
330
211
102
}
330
211
100
AcDbXrecord
102
MATERIAL
148
0.0
149
0.0
149
0.0
 93
        0
 94
      127
282
     0
 72
     1
 77
     1
171
     1
175
     1
179
     1
273
     0
  0
ENDSEC
  0
EOF
