  0
SECTION
  2
HEADER
  9
$ACADVER
  1
AC1014
  9
$ACADMAINTVER
 70
     9
  9
$DWGCODEPAGE
  3
ANSI_1250
  9
$INSBASE
 10
0.0
 20
0.0
 30
0.0
  9
$EXTMIN
 10
-58.5682
 20
-39.8324
 30
0.0
  9
$EXTMAX
 10
58.7092
 20
39.6914
 30
0.0
  9
$LIMMIN
 10
0.0
 20
0.0
  9
$LIMMAX
 10
12.0
 20
9.0
  9
$ORTHOMODE
 70
     0
  9
$REGENMODE
 70
     1
  9
$FILLMODE
 70
     1
  9
$QTEXTMODE
 70
     0
  9
$MIRRTEXT
 70
     1
  9
$DRAGMODE
 70
     2
  9
$LTSCALE
 40
1.0
  9
$OSMODE
 70
    37
  9
$ATTMODE
 70
     1
  9
$TEXTSIZE
 40
0.2
  9
$TRACEWID
 40
0.05
  9
$TEXTSTYLE
  7
STANDARD
  9
$CLAYER
  8
0
  9
$CELTYPE
  6
BYLAYER
  9
$CECOLOR
 62
   256
  9
$CELTSCALE
 40
1.0
  9
$DELOBJ
 70
     1
  9
$DISPSILH
 70
     0
  9
$DIMSCALE
 40
1.0
  9
$DIMASZ
 40
0.18
  9
$DIMEXO
 40
0.0625
  9
$DIMDLI
 40
0.38
  9
$DIMRND
 40
0.0
  9
$DIMDLE
 40
0.0
  9
$DIMEXE
 40
0.18
  9
$DIMTP
 40
0.0
  9
$DIMTM
 40
0.0
  9
$DIMTXT
 40
0.18
  9
$DIMCEN
 40
0.09
  9
$DIMTSZ
 40
0.0
  9
$DIMTOL
 70
     0
  9
$DIMLIM
 70
     0
  9
$DIMTIH
 70
     1
  9
$DIMTOH
 70
     1
  9
$DIMSE1
 70
     0
  9
$DIMSE2
 70
     0
  9
$DIMTAD
 70
     0
  9
$DIMZIN
 70
     0
  9
$DIMBLK
  1

  9
$DIMASO
 70
     1
  9
$DIMSHO
 70
     1
  9
$DIMPOST
  1

  9
$DIMAPOST
  1

  9
$DIMALT
 70
     0
  9
$DIMALTD
 70
     2
  9
$DIMALTF
 40
25.4
  9
$DIMLFAC
 40
1.0
  9
$DIMTOFL
 70
     0
  9
$DIMTVP
 40
0.0
  9
$DIMTIX
 70
     0
  9
$DIMSOXD
 70
     0
  9
$DIMSAH
 70
     0
  9
$DIMBLK1
  1

  9
$DIMBLK2
  1

  9
$DIMSTYLE
  2
STANDARD
  9
$DIMCLRD
 70
     0
  9
$DIMCLRE
 70
     0
  9
$DIMCLRT
 70
     0
  9
$DIMTFAC
 40
1.0
  9
$DIMGAP
 40
0.09
  9
$DIMJUST
 70
     0
  9
$DIMSD1
 70
     0
  9
$DIMSD2
 70
     0
  9
$DIMTOLJ
 70
     1
  9
$DIMTZIN
 70
     0
  9
$DIMALTZ
 70
     0
  9
$DIMALTTZ
 70
     0
  9
$DIMFIT
 70
     3
  9
$DIMUPT
 70
     0
  9
$DIMUNIT
 70
     2
  9
$DIMDEC
 70
     4
  9
$DIMTDEC
 70
     4
  9
$DIMALTU
 70
     2
  9
$DIMALTTD
 70
     2
  9
$DIMTXSTY
  7
STANDARD
  9
$DIMAUNIT
 70
     0
  9
$LUNITS
 70
     2
  9
$LUPREC
 70
     4
  9
$SKETCHINC
 40
0.1
  9
$FILLETRAD
 40
0.5
  9
$AUNITS
 70
     0
  9
$AUPREC
 70
     0
  9
$MENU
  1
.
  9
$ELEVATION
 40
0.0
  9
$PELEVATION
 40
0.0
  9
$THICKNESS
 40
0.0
  9
$LIMCHECK
 70
     0
  9
$CHAMFERA
 40
0.5
  9
$CHAMFERB
 40
0.5
  9
$CHAMFERC
 40
1.0
  9
$CHAMFERD
 40
0.0
  9
$SKPOLY
 70
     0
  9
$TDCREATE
 40
2456302.614771655
  9
$TDUPDATE
 40
2456302.614771666
  9
$TDINDWG
 40
0.0000000116
  9
$TDUSRTIMER
 40
0.0000000116
  9
$USRTIMER
 70
     1
  9
$ANGBASE
 50
0.0
  9
$ANGDIR
 70
     0
  9
$PDMODE
 70
     0
  9
$PDSIZE
 40
0.0
  9
$PLINEWID
 40
0.0
  9
$COORDS
 70
     1
  9
$SPLFRAME
 70
     0
  9
$SPLINETYPE
 70
     6
  9
$SPLINESEGS
 70
     8
  9
$ATTDIA
 70
     0
  9
$ATTREQ
 70
     1
  9
$HANDLING
 70
     1
  9
$HANDSEED
  5
146
  9
$SURFTAB1
 70
     6
  9
$SURFTAB2
 70
     6
  9
$SURFTYPE
 70
     6
  9
$SURFU
 70
     6
  9
$SURFV
 70
     6
  9
$UCSNAME
  2

  9
$UCSORG
 10
0.0
 20
0.0
 30
0.0
  9
$UCSXDIR
 10
1.0
 20
0.0
 30
0.0
  9
$UCSYDIR
 10
0.0
 20
1.0
 30
0.0
  9
$PUCSNAME
  2

  9
$PUCSORG
 10
0.0
 20
0.0
 30
0.0
  9
$PUCSXDIR
 10
1.0
 20
0.0
 30
0.0
  9
$PUCSYDIR
 10
0.0
 20
1.0
 30
0.0
  9
$USERI1
 70
     0
  9
$USERI2
 70
     0
  9
$USERI3
 70
     0
  9
$USERI4
 70
     0
  9
$USERI5
 70
     0
  9
$USERR1
 40
0.0
  9
$USERR2
 40
0.0
  9
$USERR3
 40
0.0
  9
$USERR4
 40
0.0
  9
$USERR5
 40
0.0
  9
$WORLDVIEW
 70
     1
  9
$SHADEDGE
 70
     3
  9
$SHADEDIF
 70
    70
  9
$TILEMODE
 70
     1
  9
$MAXACTVP
 70
    64
  9
$PINSBASE
 10
0.0
 20
0.0
 30
0.0
  9
$PLIMCHECK
 70
     0
  9
$PEXTMIN
 10
1.000000000000000E+20
 20
1.000000000000000E+20
 30
1.000000000000000E+20
  9
$PEXTMAX
 10
-1.000000000000000E+20
 20
-1.000000000000000E+20
 30
-1.000000000000000E+20
  9
$PLIMMIN
 10
0.0
 20
0.0
  9
$PLIMMAX
 10
12.0
 20
9.0
  9
$UNITMODE
 70
     0
  9
$VISRETAIN
 70
     1
  9
$PLINEGEN
 70
     0
  9
$PSLTSCALE
 70
     1
  9
$TREEDEPTH
 70
  3020
  9
$PICKSTYLE
 70
     1
  9
$CMLSTYLE
  2
STANDARD
  9
$CMLJUST
 70
     0
  9
$CMLSCALE
 40
1.0
  9
$PROXYGRAPHICS
 70
     1
  9
$MEASUREMENT
 70
     0
  0
ENDSEC
  0
SECTION
  2
CLASSES
  0
CLASS
  1
ACDBDICTIONARYWDFLT
  2
AcDbDictionaryWithDefault
  3
ObjectDBX Classes
 90
        0
280
     0
281
     0
  0
CLASS
  1
VISUALSTYLE
  2
AcDbVisualStyle
  3
ObjectDBX Classes
 90
     4095
280
     0
281
     0
  0
CLASS
  1
MATERIAL
  2
AcDbMaterial
  3
ObjectDBX Classes
 90
     1153
280
     0
281
     0
  0
CLASS
  1
DICTIONARYVAR
  2
AcDbDictionaryVar
  3
ObjectDBX Classes
 90
        0
280
     0
281
     0
  0
CLASS
  1
XRECORD
  2
AcDbXrecord
  3
AutoCAD 2000
 90
        0
280
     0
281
     0
  0
CLASS
  1
LWPOLYLINE
  2
AcDbPolyline
  3
AutoCAD 2000
 90
        0
280
     0
281
     1
  0
CLASS
  1
HATCH
  2
AcDbHatch
  3
AutoCAD 2000
 90
        0
280
     0
281
     1
  0
CLASS
  1
ACDBPLACEHOLDER
  2
AcDbPlaceHolder
  3
ObjectDBX Classes
 90
        0
280
     0
281
     0
  0
CLASS
  1
LAYOUT
  2
AcDbLayout
  3
ObjectDBX Classes
 90
        0
280
     0
281
     0
  0
ENDSEC
  0
SECTION
  2
TABLES
  0
TABLE
  2
VPORT
  5
8
330
0
100
AcDbSymbolTable
 70
     1
  0
VPORT
  5
29
330
8
100
AcDbSymbolTableRecord
100
AcDbViewportTableRecord
  2
*ACTIVE
 70
     0
 10
0.0
 20
0.0
 11
1.0
 21
1.0
 12
10.42990654205607
 22
4.5
 13
0.0
 23
0.0
 14
0.5
 24
0.5
 15
0.5
 25
0.5
 16
0.0
 26
0.0
 36
1.0
 17
0.0
 27
0.0
 37
0.0
 40
9.0
 41
1.972972972850329
 42
50.0
 43
0.0
 44
0.0
 50
0.0
 51
0.0
 71
     0
 72
   100
 73
     1
 74
     3
 75
     0
 76
     0
 77
     0
 78
     0
  0
ENDTAB
  0
TABLE
  2
LTYPE
  5
5
330
0
100
AcDbSymbolTable
 70
     5
  0
LTYPE
  5
14
330
5
100
AcDbSymbolTableRecord
100
AcDbLinetypeTableRecord
  2
BYBLOCK
 70
     0
  3

 72
    65
 73
     0
 40
0.0
  0
LTYPE
  5
15
330
5
100
AcDbSymbolTableRecord
100
AcDbLinetypeTableRecord
  2
BYLAYER
 70
     0
  3

 72
    65
 73
     0
 40
0.0
  0
LTYPE
  5
16
330
5
100
AcDbSymbolTableRecord
100
AcDbLinetypeTableRecord
  2
CONTINUOUS
 70
     0
  3
Solid line
 72
    65
 73
     0
 40
0.0
  0
LTYPE
  5
51
330
5
100
AcDbSymbolTableRecord
100
AcDbLinetypeTableRecord
  2
NEW_LINE1
 70
     0
  3

 72
    65
 73
     4
 40
1.2
 49
0.5
 74
     4
 75
     0
340
0
 46
1.0
 50
0.0
 44
0.0
 45
0.0
 49
-0.3
 74
     4
 75
     0
340
0
 46
1.0
 50
0.0
 44
0.0
 45
0.0
 49
0.1
 74
     4
 75
     0
340
0
 46
1.0
 50
0.0
 44
0.0
 45
0.0
 49
-0.3
 74
     4
 75
     0
340
0
 46
1.0
 50
0.0
 44
0.0
 45
0.0
  0
LTYPE
  5
53
330
5
100
AcDbSymbolTableRecord
100
AcDbLinetypeTableRecord
  2
NEW_LINE2
 70
     0
  3

 72
    65
 73
     4
 40
1.2
 49
0.5
 74
     4
 75
     0
340
0
 46
1.0
 50
0.0
 44
0.0
 45
0.0
 49
-0.3
 74
     4
 75
     0
340
0
 46
1.0
 50
0.0
 44
0.0
 45
0.0
 49
0.1
 74
     4
 75
     0
340
0
 46
1.0
 50
0.0
 44
0.0
 45
0.0
 49
-0.3
 74
     4
 75
     0
340
0
 46
1.0
 50
0.0
 44
0.0
 45
0.0
  0
LTYPE
  5
F4
330
5
100
AcDbSymbolTableRecord
100
AcDbLinetypeTableRecord
  2
NEW_LINE3
 70
     0
  3

 72
    65
 73
     4
 40
1.2
 49
0.5
 74
     4
 75
     0
340
0
 46
1.0
 50
0.0
 44
0.0
 45
0.0
 49
-0.3
 74
     4
 75
     0
340
0
 46
1.0
 50
0.0
 44
0.0
 45
0.0
 49
0.1
 74
     4
 75
     0
340
0
 46
1.0
 50
0.0
 44
0.0
 45
0.0
 49
-0.3
 74
     4
 75
     0
340
0
 46
1.0
 50
0.0
 44
0.0
 45
0.0
  0
LTYPE
  5
11A
330
5
100
AcDbSymbolTableRecord
100
AcDbLinetypeTableRecord
  2
NEW_LINE4
 70
     0
  3

 72
    65
 73
     4
 40
1.2
 49
0.5
 74
     4
 75
     0
340
0
 46
1.0
 50
0.0
 44
0.0
 45
0.0
 49
-0.3
 74
     4
 75
     0
340
0
 46
1.0
 50
0.0
 44
0.0
 45
0.0
 49
0.1
 74
     4
 75
     0
340
0
 46
1.0
 50
0.0
 44
0.0
 45
0.0
 49
-0.3
 74
     4
 75
     0
340
0
 46
1.0
 50
0.0
 44
0.0
 45
0.0
  0
ENDTAB
  0
TABLE
  2
LAYER
  5
2
330
0
100
AcDbSymbolTable
 70
     2
  0
LAYER
  5
10
330
2
100
AcDbSymbolTableRecord
100
AcDbLayerTableRecord
  2
0
 70
     0
 62
     7
  6
CONTINUOUS
  0
LAYER
  5
40
330
2
100
AcDbSymbolTableRecord
100
AcDbLayerTableRecord
  2
ROUND
 70
     0
 62
     7
  6
CONTINUOUS
  0
ENDTAB
  0
TABLE
  2
STYLE
  5
3
330
0
100
AcDbSymbolTable
 70
     1
  0
STYLE
  5
11
330
3
100
AcDbSymbolTableRecord
100
AcDbTextStyleTableRecord
  2
STANDARD
 70
     0
 40
0.0
 41
1.0
 50
0.0
 71
     0
 42
0.2
  3
txt
  4

  0
ENDTAB
  0
TABLE
  2
VIEW
  5
6
330
0
100
AcDbSymbolTable
 70
     0
  0
ENDTAB
  0
TABLE
  2
UCS
  5
7
330
0
100
AcDbSymbolTable
 70
     0
  0
ENDTAB
  0
TABLE
  2
APPID
  5
9
330
0
100
AcDbSymbolTable
 70
     2
  0
APPID
  5
12
330
9
100
AcDbSymbolTableRecord
100
AcDbRegAppTableRecord
  2
ACAD
 70
     0
  0
APPID
  5
3F
330
9
100
AcDbSymbolTableRecord
100
AcDbRegAppTableRecord
  2
ODA
 70
     0
  0
ENDTAB
  0
TABLE
  2
DIMSTYLE
  5
A
330
0
100
AcDbSymbolTable
 70
     1
  0
DIMSTYLE
105
27
330
A
100
AcDbSymbolTableRecord
100
AcDbDimStyleTableRecord
  2
STANDARD
 70
     0
  3

  4

  5

  6

  7

 40
1.0
 41
0.18
 42
0.0625
 43
0.38
 44
0.18
 45
0.0
 46
0.0
 47
0.0
 48
0.0
140
0.18
141
0.09
142
0.0
143
25.4
144
1.0
145
0.0
146
1.0
147
0.09
 71
     0
 72
     0
 73
     1
 74
     1
 75
     0
 76
     0
 77
     0
 78
     0
170
     0
171
     2
172
     0
173
     0
174
     0
175
     0
176
     0
177
     0
178
     0
270
     2
271
     4
272
     4
273
     2
274
     2
340
11
275
     0
280
     0
281
     0
282
     0
283
     1
284
     0
285
     0
286
     0
287
     3
288
     0
  0
ENDTAB
  0
TABLE
  2
BLOCK_RECORD
  5
1
330
0
100
AcDbSymbolTable
 70
     1
  0
BLOCK_RECORD
  5
1F
330
1
100
AcDbSymbolTableRecord
100
AcDbBlockTableRecord
  2
*MODEL_SPACE
  0
BLOCK_RECORD
  5
1B
330
1
100
AcDbSymbolTableRecord
100
AcDbBlockTableRecord
  2
*PAPER_SPACE
  0
ENDTAB
  0
ENDSEC
  0
SECTION
  2
BLOCKS
  0
BLOCK
  5
20
330
1F
100
AcDbEntity
  8
0
100
AcDbBlockBegin
  2
*MODEL_SPACE
 70
     0
 10
0.0
 20
0.0
 30
0.0
  3
*MODEL_SPACE
  1

  0
ENDBLK
  5
21
330
1F
100
AcDbEntity
  8
0
100
AcDbBlockEnd
  0
BLOCK
  5
1C
330
1B
100
AcDbEntity
 67
     1
  8
0
100
AcDbBlockBegin
  2
*PAPER_SPACE
 70
     0
 10
0.0
 20
0.0
 30
0.0
  3
*PAPER_SPACE
  1

  0
ENDBLK
  5
1D
330
1B
100
AcDbEntity
 67
     1
  8
0
100
AcDbBlockEnd
  0
ENDSEC
  0
SECTION
  2
ENTITIES
  0
SPLINE
  5
41
330
1F
100
AcDbEntity
  8
ROUND
 62
   250
100
AcDbSpline
210
0.0
220
0.0
230
1.0
 70
    11
 71
     3
 72
    88
 73
    84
 74
     0
 42
0.0000000001
 43
0.0000000001
 40
0.0
 40
0.0
 40
0.0
 40
0.0
 40
0.0454545454545455
 40
0.0454545454545455
 40
0.0454545454545455
 40
0.0454545454545455
 40
0.0909090909090909
 40
0.0909090909090909
 40
0.0909090909090909
 40
0.0909090909090909
 40
0.1363636363636364
 40
0.1363636363636364
 40
0.1363636363636364
 40
0.1363636363636364
 40
0.1818181818181818
 40
0.1818181818181818
 40
0.1818181818181818
 40
0.1818181818181818
 40
0.2272727272727273
 40
0.2272727272727273
 40
0.2272727272727273
 40
0.2272727272727273
 40
0.2727272727272727
 40
0.2727272727272727
 40
0.2727272727272727
 40
0.2727272727272727
 40
0.3181818181818182
 40
0.3181818181818182
 40
0.3181818181818182
 40
0.3181818181818182
 40
0.3636363636363636
 40
0.3636363636363636
 40
0.3636363636363636
 40
0.3636363636363636
 40
0.4090909090909091
 40
0.4090909090909091
 40
0.4090909090909091
 40
0.4090909090909091
 40
0.4545454545454545
 40
0.4545454545454545
 40
0.4545454545454545
 40
0.4545454545454545
 40
0.5
 40
0.5
 40
0.5
 40
0.5
 40
0.5454545454545454
 40
0.5454545454545454
 40
0.5454545454545454
 40
0.5454545454545454
 40
0.5909090909090909
 40
0.5909090909090909
 40
0.5909090909090909
 40
0.5909090909090909
 40
0.6363636363636364
 40
0.6363636363636364
 40
0.6363636363636364
 40
0.6363636363636364
 40
0.6818181818181818
 40
0.6818181818181818
 40
0.6818181818181818
 40
0.6818181818181818
 40
0.7272727272727273
 40
0.7272727272727273
 40
0.7272727272727273
 40
0.7272727272727273
 40
0.7727272727272727
 40
0.7727272727272727
 40
0.7727272727272727
 40
0.7727272727272727
 40
0.8181818181818182
 40
0.8181818181818182
 40
0.8181818181818182
 40
0.8181818181818182
 40
0.8636363636363636
 40
0.8636363636363636
 40
0.8636363636363636
 40
0.8636363636363636
 40
0.9090909090909091
 40
0.9090909090909091
 40
0.9090909090909091
 40
0.9090909090909091
 40
1.0
 40
1.0
 40
1.0
 40
1.0
 10
-12.3539
 20
29.7546
 30
0.0
 10
-12.3539
 20
29.7546
 30
0.0
 10
-29.9669
 20
29.7546
 30
0.0
 10
-29.9669
 20
29.7546
 30
0.0
 10
-29.9669
 20
29.7546
 30
0.0
 10
-29.9669
 20
29.7546
 30
0.0
 10
-42.2012
 20
29.7546
 30
0.0
 10
-42.2012
 20
29.7546
 30
0.0
 10
-42.2012
 20
29.7546
 30
0.0
 10
-42.2012
 20
29.7546
 30
0.0
 10
-42.3875
 20
29.8389
 30
0.0
 10
-42.3875
 20
29.8389
 30
0.0
 10
-42.3875
 20
29.8389
 30
0.0
 10
-42.3875
 20
29.8389
 30
0.0
 10
-42.4649
 20
30.1096
 30
0.0
 10
-42.4649
 20
30.1096
 30
0.0
 10
-42.4649
 20
30.1096
 30
0.0
 10
-42.4649
 20
30.1096
 30
0.0
 10
-42.3488
 20
31.2313
 30
0.0
 10
-42.3488
 20
31.2313
 30
0.0
 10
-42.3488
 20
31.2313
 30
0.0
 10
-42.3488
 20
31.2313
 30
0.0
 10
-42.0394
 20
31.4247
 30
0.0
 10
-42.0394
 20
31.4247
 30
0.0
 10
-42.0394
 20
31.4247
 30
0.0
 10
-42.0394
 20
31.4247
 30
0.0
 10
-41.526
 20
31.5174
 30
0.0
 10
-41.526
 20
31.5174
 30
0.0
 10
-41.526
 20
31.5174
 30
0.0
 10
-41.526
 20
31.5174
 30
0.0
 10
-39.2546
 20
31.9275
 30
0.0
 10
-39.2546
 20
31.9275
 30
0.0
 10
-39.2546
 20
31.9275
 30
0.0
 10
-39.2546
 20
31.9275
 30
0.0
 10
-37.1274
 20
32.3143
 30
0.0
 10
-37.1274
 20
32.3143
 30
0.0
 10
-37.1274
 20
32.3143
 30
0.0
 10
-37.1274
 20
32.3143
 30
0.0
 10
-34.8841
 20
32.6237
 30
0.0
 10
-34.8841
 20
32.6237
 30
0.0
 10
-34.8841
 20
32.6237
 30
0.0
 10
-34.8841
 20
32.6237
 30
0.0
 10
-31.9832
 20
32.8558
 30
0.0
 10
-31.9832
 20
32.8558
 30
0.0
 10
-31.9832
 20
32.8558
 30
0.0
 10
-31.9832
 20
32.8558
 30
0.0
 10
-29.3532
 20
32.9331
 30
0.0
 10
-29.3532
 20
32.9331
 30
0.0
 10
-29.3532
 20
32.9331
 30
0.0
 10
-29.3532
 20
32.9331
 30
0.0
 10
-26.7231
 20
32.9331
 30
0.0
 10
-26.7231
 20
32.9331
 30
0.0
 10
-26.7231
 20
32.9331
 30
0.0
 10
-26.7231
 20
32.9331
 30
0.0
 10
-24.3251
 20
32.8558
 30
0.0
 10
-24.3251
 20
32.8558
 30
0.0
 10
-24.3251
 20
32.8558
 30
0.0
 10
-24.3251
 20
32.8558
 30
0.0
 10
-20.9601
 20
32.6237
 30
0.0
 10
-20.9601
 20
32.6237
 30
0.0
 10
-20.9601
 20
32.6237
 30
0.0
 10
-20.9601
 20
32.6237
 30
0.0
 10
-17.2858
 20
32.3143
 30
0.0
 10
-17.2858
 20
32.3143
 30
0.0
 10
-17.2858
 20
32.3143
 30
0.0
 10
-17.2858
 20
32.3143
 30
0.0
 10
-14.3849
 20
31.9662
 30
0.0
 10
-14.3849
 20
31.9662
 30
0.0
 10
-14.3849
 20
31.9662
 30
0.0
 10
-14.3849
 20
31.9662
 30
0.0
 10
-12.4897
 20
31.5407
 30
0.0
 10
-12.4897
 20
31.5407
 30
0.0
 10
-12.4897
 20
31.5407
 30
0.0
 10
-12.4897
 20
31.5407
 30
0.0
 10
-12.103
 20
31.1539
 30
0.0
 10
-12.103
 20
31.1539
 30
0.0
 10
-12.103
 20
31.1539
 30
0.0
 10
-12.103
 20
31.1539
 30
0.0
 10
-12.0256
 20
30.0323
 30
0.0
 10
-12.0256
 20
30.0323
 30
0.0
 10
-12.0256
 20
30.0323
 30
0.0
 10
-12.0256
 20
30.0323
 30
0.0
 10
-12.3539
 20
29.7546
 30
0.0
 10
-12.3539
 20
29.7546
 30
0.0
  0
SPLINE
  5
42
330
1F
100
AcDbEntity
  8
ROUND
 62
   250
100
AcDbSpline
210
0.0
220
0.0
230
1.0
 70
    27
 71
     3
 72
    16
 73
    12
 74
     0
 42
0.0000000001
 43
0.0000000001
 40
0.0
 40
0.0
 40
0.0
 40
0.0
 40
0.25
 40
0.25
 40
0.25
 40
0.25
 40
0.5
 40
0.5
 40
0.5
 40
0.5
 40
1.0
 40
1.0
 40
1.0
 40
1.0
 10
-42.0078
 20
31.5174
 30
0.0
 10
-42.0078
 20
31.5174
 30
0.0
 10
-41.526
 20
31.5174
 30
0.0
 10
-41.526
 20
31.5174
 30
0.0
 10
-41.526
 20
31.5174
 30
0.0
 10
-41.526
 20
31.5174
 30
0.0
 10
-12.5473
 20
31.5174
 30
0.0
 10
-12.5473
 20
31.5174
 30
0.0
 10
-12.5473
 20
31.5174
 30
0.0
 10
-12.5473
 20
31.5174
 30
0.0
 10
-42.0078
 20
31.5174
 30
0.0
 10
-42.0078
 20
31.5174
 30
0.0
  0
SPLINE
  5
43
330
1F
100
AcDbEntity
  8
ROUND
 62
   250
100
AcDbSpline
210
0.0
220
0.0
230
1.0
 70
    27
 71
     3
 72
    12
 73
     8
 74
     0
 42
0.0000000001
 43
0.0000000001
 40
0.0
 40
0.0
 40
0.0
 40
0.0
 40
0.3333333333333333
 40
0.3333333333333333
 40
0.3333333333333333
 40
0.3333333333333333
 40
1.0
 40
1.0
 40
1.0
 40
1.0
 10
-14.0423
 20
29.7545
 30
0.0
 10
-14.0423
 20
29.7545
 30
0.0
 10
-14.2146
 20
27.7942
 30
0.0
 10
-14.2146
 20
27.7942
 30
0.0
 10
-14.2146
 20
27.7942
 30
0.0
 10
-14.2146
 20
27.7942
 30
0.0
 10
-14.0423
 20
29.7545
 30
0.0
 10
-14.0423
 20
29.7545
 30
0.0
  0
SPLINE
  5
44
330
1F
100
AcDbEntity
  8
ROUND
 62
   250
100
AcDbSpline
210
0.0
220
0.0
230
1.0
 70
    27
 71
     3
 72
    12
 73
     8
 74
     0
 42
0.0000000001
 43
0.0000000001
 40
0.0
 40
0.0
 40
0.0
 40
0.0
 40
0.3333333333333333
 40
0.3333333333333333
 40
0.3333333333333333
 40
0.3333333333333333
 40
1.0
 40
1.0
 40
1.0
 40
1.0
 10
-38.5251
 20
29.7545
 30
0.0
 10
-38.5251
 20
29.7545
 30
0.0
 10
-38.3768
 20
27.7942
 30
0.0
 10
-38.3768
 20
27.7942
 30
0.0
 10
-38.3768
 20
27.7942
 30
0.0
 10
-38.3768
 20
27.7942
 30
0.0
 10
-38.5251
 20
29.7545
 30
0.0
 10
-38.5251
 20
29.7545
 30
0.0
  0
SPLINE
  5
45
330
1F
100
AcDbEntity
  8
ROUND
 62
   250
100
AcDbSpline
210
0.0
220
0.0
230
1.0
 70
    27
 71
     3
 72
    12
 73
     8
 74
     0
 42
0.0000000001
 43
0.0000000001
 40
0.0
 40
0.0
 40
0.0
 40
0.0
 40
0.3333333333333333
 40
0.3333333333333333
 40
0.3333333333333333
 40
0.3333333333333333
 40
1.0
 40
1.0
 40
1.0
 40
1.0
 10
-34.2661
 20
29.7545
 30
0.0
 10
-34.2661
 20
29.7545
 30
0.0
 10
-34.1809
 20
27.7942
 30
0.0
 10
-34.1809
 20
27.7942
 30
0.0
 10
-34.1809
 20
27.7942
 30
0.0
 10
-34.1809
 20
27.7942
 30
0.0
 10
-34.2661
 20
29.7545
 30
0.0
 10
-34.2661
 20
29.7545
 30
0.0
  0
SPLINE
  5
46
330
1F
100
AcDbEntity
  8
ROUND
 62
   250
100
AcDbSpline
210
0.0
220
0.0
230
1.0
 70
    27
 71
     3
 72
    12
 73
     8
 74
     0
 42
0.0000000001
 43
0.0000000001
 40
0.0
 40
0.0
 40
0.0
 40
0.0
 40
0.3333333333333333
 40
0.3333333333333333
 40
0.3333333333333333
 40
0.3333333333333333
 40
1.0
 40
1.0
 40
1.0
 40
1.0
 10
-33.5227
 20
29.7545
 30
0.0
 10
-33.5227
 20
29.7545
 30
0.0
 10
-33.4375
 20
27.7942
 30
0.0
 10
-33.4375
 20
27.7942
 30
0.0
 10
-33.4375
 20
27.7942
 30
0.0
 10
-33.4375
 20
27.7942
 30
0.0
 10
-33.5227
 20
29.7545
 30
0.0
 10
-33.5227
 20
29.7545
 30
0.0
  0
SPLINE
  5
47
330
1F
100
AcDbEntity
  8
ROUND
 62
   250
100
AcDbSpline
210
0.0
220
0.0
230
1.0
 70
    27
 71
     3
 72
    12
 73
     8
 74
     0
 42
0.0000000001
 43
0.0000000001
 40
0.0
 40
0.0
 40
0.0
 40
0.0
 40
0.3333333333333333
 40
0.3333333333333333
 40
0.3333333333333333
 40
0.3333333333333333
 40
1.0
 40
1.0
 40
1.0
 40
1.0
 10
-31.6722
 20
29.7545
 30
0.0
 10
-31.6722
 20
29.7545
 30
0.0
 10
-31.7579
 20
27.7942
 30
0.0
 10
-31.7579
 20
27.7942
 30
0.0
 10
-31.7579
 20
27.7942
 30
0.0
 10
-31.7579
 20
27.7942
 30
0.0
 10
-31.6722
 20
29.7545
 30
0.0
 10
-31.6722
 20
29.7545
 30
0.0
  0
SPLINE
  5
48
330
1F
100
AcDbEntity
  8
ROUND
 62
   250
100
AcDbSpline
210
0.0
220
0.0
230
1.0
 70
    11
 71
     3
 72
    20
 73
    16
 74
     0
 42
0.0000000001
 43
0.0000000001
 40
0.0
 40
0.0
 40
0.0
 40
0.0
 40
0.2
 40
0.2
 40
0.2
 40
0.2
 40
0.4
 40
0.4
 40
0.4
 40
0.4
 40
0.6
 40
0.6
 40
0.6
 40
0.6
 40
1.0
 40
1.0
 40
1.0
 40
1.0
 10
-30.02
 20
27.7942
 30
0.0
 10
-30.02
 20
27.7942
 30
0.0
 10
-29.9669
 20
29.7546
 30
0.0
 10
-29.9669
 20
29.7546
 30
0.0
 10
-29.9669
 20
29.7546
 30
0.0
 10
-29.9669
 20
29.7546
 30
0.0
 10
-29.9668
 20
29.7609
 30
0.0
 10
-29.9668
 20
29.7609
 30
0.0
 10
-29.9668
 20
29.7609
 30
0.0
 10
-29.9668
 20
29.7609
 30
0.0
 10
-29.9669
 20
29.7546
 30
0.0
 10
-29.9669
 20
29.7546
 30
0.0
 10
-29.9669
 20
29.7546
 30
0.0
 10
-29.9669
 20
29.7546
 30
0.0
 10
-30.02
 20
27.7942
 30
0.0
 10
-30.02
 20
27.7942
 30
0.0
  0
SPLINE
  5
49
330
1F
100
AcDbEntity
  8
ROUND
 62
   250
100
AcDbSpline
210
0.0
220
0.0
230
1.0
 70
    27
 71
     3
 72
    12
 73
     8
 74
     0
 42
0.0000000001
 43
0.0000000001
 40
0.0
 40
0.0
 40
0.0
 40
0.0
 40
0.3333333333333333
 40
0.3333333333333333
 40
0.3333333333333333
 40
0.3333333333333333
 40
1.0
 40
1.0
 40
1.0
 40
1.0
 10
-27.7058
 20
29.7545
 30
0.0
 10
-27.7058
 20
29.7545
 30
0.0
 10
-27.7058
 20
27.7942
 30
0.0
 10
-27.7058
 20
27.7942
 30
0.0
 10
-27.7058
 20
27.7942
 30
0.0
 10
-27.7058
 20
27.7942
 30
0.0
 10
-27.7058
 20
29.7545
 30
0.0
 10
-27.7058
 20
29.7545
 30
0.0
  0
SPLINE
  5
4A
330
1F
100
AcDbEntity
  8
ROUND
 62
   250
100
AcDbSpline
210
0.0
220
0.0
230
1.0
 70
    27
 71
     3
 72
    12
 73
     8
 74
     0
 42
0.0000000001
 43
0.0000000001
 40
0.0
 40
0.0
 40
0.0
 40
0.0
 40
0.3333333333333333
 40
0.3333333333333333
 40
0.3333333333333333
 40
0.3333333333333333
 40
1.0
 40
1.0
 40
1.0
 40
1.0
 10
-26.8489
 20
29.7545
 30
0.0
 10
-26.8489
 20
29.7545
 30
0.0
 10
-26.8489
 20
27.7942
 30
0.0
 10
-26.8489
 20
27.7942
 30
0.0
 10
-26.8489
 20
27.7942
 30
0.0
 10
-26.8489
 20
27.7942
 30
0.0
 10
-26.8489
 20
29.7545
 30
0.0
 10
-26.8489
 20
29.7545
 30
0.0
  0
SPLINE
  5
4B
330
1F
100
AcDbEntity
  8
ROUND
 62
   250
100
AcDbSpline
210
0.0
220
0.0
230
1.0
 70
    27
 71
     3
 72
    12
 73
     8
 74
     0
 42
0.0000000001
 43
0.0000000001
 40
0.0
 40
0.0
 40
0.0
 40
0.0
 40
0.3333333333333333
 40
0.3333333333333333
 40
0.3333333333333333
 40
0.3333333333333333
 40
1.0
 40
1.0
 40
1.0
 40
1.0
 10
-24.3184
 20
29.7545
 30
0.0
 10
-24.3184
 20
29.7545
 30
0.0
 10
-24.2319
 20
27.7942
 30
0.0
 10
-24.2319
 20
27.7942
 30
0.0
 10
-24.2319
 20
27.7942
 30
0.0
 10
-24.2319
 20
27.7942
 30
0.0
 10
-24.3184
 20
29.7545
 30
0.0
 10
-24.3184
 20
29.7545
 30
0.0
  0
SPLINE
  5
4C
330
1F
100
AcDbEntity
  8
ROUND
 62
   250
100
AcDbSpline
210
0.0
220
0.0
230
1.0
 70
    27
 71
     3
 72
    12
 73
     8
 74
     0
 42
0.0000000001
 43
0.0000000001
 40
0.0
 40
0.0
 40
0.0
 40
0.0
 40
0.3333333333333333
 40
0.3333333333333333
 40
0.3333333333333333
 40
0.3333333333333333
 40
1.0
 40
1.0
 40
1.0
 40
1.0
 10
-21.0318
 20
29.7545
 30
0.0
 10
-21.0318
 20
29.7545
 30
0.0
 10
-21.1173
 20
27.7942
 30
0.0
 10
-21.1173
 20
27.7942
 30
0.0
 10
-21.1173
 20
27.7942
 30
0.0
 10
-21.1173
 20
27.7942
 30
0.0
 10
-21.0318
 20
29.7545
 30
0.0
 10
-21.0318
 20
29.7545
 30
0.0
  0
SPLINE
  5
4D
330
1F
100
AcDbEntity
  8
ROUND
 62
   250
100
AcDbSpline
210
0.0
220
0.0
230
1.0
 70
    27
 71
     3
 72
    12
 73
     8
 74
     0
 42
0.0000000001
 43
0.0000000001
 40
0.0
 40
0.0
 40
0.0
 40
0.0
 40
0.3333333333333333
 40
0.3333333333333333
 40
0.3333333333333333
 40
0.3333333333333333
 40
1.0
 40
1.0
 40
1.0
 40
1.0
 10
-20.2891
 20
29.7545
 30
0.0
 10
-20.2891
 20
29.7545
 30
0.0
 10
-20.3745
 20
27.7942
 30
0.0
 10
-20.3745
 20
27.7942
 30
0.0
 10
-20.3745
 20
27.7942
 30
0.0
 10
-20.3745
 20
27.7942
 30
0.0
 10
-20.2891
 20
29.7545
 30
0.0
 10
-20.2891
 20
29.7545
 30
0.0
  0
SPLINE
  5
4E
330
1F
100
AcDbEntity
  8
ROUND
 62
   250
100
AcDbSpline
210
0.0
220
0.0
230
1.0
 70
    27
 71
     3
 72
    12
 73
     8
 74
     0
 42
0.0000000001
 43
0.0000000001
 40
0.0
 40
0.0
 40
0.0
 40
0.0
 40
0.3333333333333333
 40
0.3333333333333333
 40
0.3333333333333333
 40
0.3333333333333333
 40
1.0
 40
1.0
 40
1.0
 40
1.0
 10
-15.6014
 20
29.7545
 30
0.0
 10
-15.6014
 20
29.7545
 30
0.0
 10
-15.7495
 20
27.7942
 30
0.0
 10
-15.7495
 20
27.7942
 30
0.0
 10
-15.7495
 20
27.7942
 30
0.0
 10
-15.7495
 20
27.7942
 30
0.0
 10
-15.6014
 20
29.7545
 30
0.0
 10
-15.6014
 20
29.7545
 30
0.0
  0
SPLINE
  5
4F
330
1F
100
AcDbEntity
  8
ROUND
 62
   250
100
AcDbSpline
210
0.0
220
0.0
230
1.0
 70
    27
 71
     3
 72
    12
 73
     8
 74
     0
 42
0.0000000001
 43
0.0000000001
 40
0.0
 40
0.0
 40
0.0
 40
0.0
 40
0.3333333333333333
 40
0.3333333333333333
 40
0.3333333333333333
 40
0.3333333333333333
 40
1.0
 40
1.0
 40
1.0
 40
1.0
 10
-40.5124
 20
29.7545
 30
0.0
 10
-40.5124
 20
29.7545
 30
0.0
 10
-40.3403
 20
27.7942
 30
0.0
 10
-40.3403
 20
27.7942
 30
0.0
 10
-40.3403
 20
27.7942
 30
0.0
 10
-40.3403
 20
27.7942
 30
0.0
 10
-40.5124
 20
29.7545
 30
0.0
 10
-40.5124
 20
29.7545
 30
0.0
  0
SPLINE
  5
50
330
1F
100
AcDbEntity
  8
ROUND
  6
NEW_LINE1
 62
   250
100
AcDbSpline
210
0.0
220
0.0
230
1.0
 70
    24
 71
     3
 72
     8
 73
     4
 74
     0
 42
0.0000000001
 43
0.0000000001
 40
0.0
 40
0.0
 40
0.0
 40
0.0
 40
1.0
 40
1.0
 40
1.0
 40
1.0
 10
-30.1984
 20
3.7906
 30
0.0
 10
-30.1984
 20
3.7906
 30
0.0
 10
3.9139
 20
3.7906
 30
0.0
 10
3.9139
 20
3.7906
 30
0.0
  0
SPLINE
  5
52
330
1F
100
AcDbEntity
  8
ROUND
  6
NEW_LINE2
 62
   250
100
AcDbSpline
210
0.0
220
0.0
230
1.0
 70
    24
 71
     3
 72
     8
 73
     4
 74
     0
 42
0.0000000001
 43
0.0000000001
 40
0.0
 40
0.0
 40
0.0
 40
0.0
 40
1.0
 40
1.0
 40
1.0
 40
1.0
 10
-27.2961
 20
-4.1501
 30
0.0
 10
-27.2961
 20
-4.1501
 30
0.0
 10
-27.2961
 20
29.5352
 30
0.0
 10
-27.2961
 20
29.5352
 30
0.0
  0
SPLINE
  5
54
330
1F
100
AcDbEntity
  8
ROUND
 62
   250
100
AcDbSpline
210
0.0
220
0.0
230
1.0
 70
    24
 71
     3
 72
     8
 73
     4
 74
     0
 42
0.0000000001
 43
0.0000000001
 40
0.0
 40
0.0
 40
0.0
 40
0.0
 40
1.0
 40
1.0
 40
1.0
 40
1.0
 10
-11.9935
 20
31.6173
 30
0.0
 10
-11.9935
 20
31.6173
 30
0.0
 10
-11.9935
 20
37.5421
 30
0.0
 10
-11.9935
 20
37.5421
 30
0.0
  0
SPLINE
  5
55
330
1F
100
AcDbEntity
  8
ROUND
 62
   250
100
AcDbSpline
210
0.0
220
0.0
230
1.0
 70
    24
 71
     3
 72
     8
 73
     4
 74
     0
 42
0.0000000001
 43
0.0000000001
 40
0.0
 40
0.0
 40
0.0
 40
0.0
 40
1.0
 40
1.0
 40
1.0
 40
1.0
 10
-42.6575
 20
30.6649
 30
0.0
 10
-42.6575
 20
30.6649
 30
0.0
 10
-42.6575
 20
37.359
 30
0.0
 10
-42.6575
 20
37.359
 30
0.0
  0
SPLINE
  5
56
330
1F
100
AcDbEntity
  8
ROUND
 62
   250
100
AcDbSpline
210
0.0
220
0.0
230
1.0
 70
    24
 71
     3
 72
     8
 73
     4
 74
     0
 42
0.0000000001
 43
0.0000000001
 40
0.0
 40
0.0
 40
0.0
 40
0.0
 40
1.0
 40
1.0
 40
1.0
 40
1.0
 10
-46.2354
 20
19.2739
 30
0.0
 10
-46.2354
 20
19.2739
 30
0.0
 10
-56.8187
 20
19.2739
 30
0.0
 10
-56.8187
 20
19.2739
 30
0.0
  0
SPLINE
  5
57
330
1F
100
AcDbEntity
  8
ROUND
 62
   250
100
AcDbSpline
210
0.0
220
0.0
230
1.0
 70
    24
 71
     3
 72
     8
 73
     4
 74
     0
 42
0.0000000001
 43
0.0000000001
 40
0.0
 40
0.0
 40
0.0
 40
0.0
 40
1.0
 40
1.0
 40
1.0
 40
1.0
 10
-43.8585
 20
-8.7679
 30
0.0
 10
-43.8585
 20
-8.7679
 30
0.0
 10
-56.5567
 20
-8.7679
 30
0.0
 10
-56.5567
 20
-8.7679
 30
0.0
  0
SPLINE
  5
58
330
1F
100
AcDbEntity
  8
ROUND
 62
   250
100
AcDbSpline
210
0.0
220
0.0
230
1.0
 70
    24
 71
     3
 72
     8
 73
     4
 74
     0
 42
0.0000000001
 43
0.0000000001
 40
0.0
 40
0.0
 40
0.0
 40
0.0
 40
1.0
 40
1.0
 40
1.0
 40
1.0
 10
-17.2833
 20
20.115
 30
0.0
 10
-17.2833
 20
20.115
 30
0.0
 10
-37.2606
 20
19.3782
 30
0.0
 10
-37.2606
 20
19.3782
 30
0.0
  0
SPLINE
  5
59
330
1F
100
AcDbEntity
  8
ROUND
 62
   250
100
AcDbSpline
210
0.0
220
0.0
230
1.0
 70
    24
 71
     3
 72
     8
 73
     4
 74
     0
 42
0.0000000001
 43
0.0000000001
 40
0.0
 40
0.0
 40
0.0
 40
0.0
 40
1.0
 40
1.0
 40
1.0
 40
1.0
 10
-17.3104
 20
21.014
 30
0.0
 10
-17.3104
 20
21.014
 30
0.0
 10
-37.2877
 20
20.2772
 30
0.0
 10
-37.2877
 20
20.2772
 30
0.0
  0
SPLINE
  5
5A
330
1F
100
AcDbEntity
  8
ROUND
 62
   250
100
AcDbSpline
210
0.0
220
0.0
230
1.0
 70
    24
 71
     3
 72
     8
 73
     4
 74
     0
 42
0.0000000001
 43
0.0000000001
 40
0.0
 40
0.0
 40
0.0
 40
0.0
 40
1.0
 40
1.0
 40
1.0
 40
1.0
 10
-17.3375
 20
21.913
 30
0.0
 10
-17.3375
 20
21.913
 30
0.0
 10
-37.3148
 20
21.1762
 30
0.0
 10
-37.3148
 20
21.1762
 30
0.0
  0
SPLINE
  5
5B
330
1F
100
AcDbEntity
  8
ROUND
 62
   250
100
AcDbSpline
210
0.0
220
0.0
230
1.0
 70
    24
 71
     3
 72
     8
 73
     4
 74
     0
 42
0.0000000001
 43
0.0000000001
 40
0.0
 40
0.0
 40
0.0
 40
0.0
 40
1.0
 40
1.0
 40
1.0
 40
1.0
 10
-17.3646
 20
22.812
 30
0.0
 10
-17.3646
 20
22.812
 30
0.0
 10
-37.3419
 20
22.0752
 30
0.0
 10
-37.3419
 20
22.0752
 30
0.0
  0
SPLINE
  5
5C
330
1F
100
AcDbEntity
  8
ROUND
 62
   250
100
AcDbSpline
210
0.0
220
0.0
230
1.0
 70
    24
 71
     3
 72
     8
 73
     4
 74
     0
 42
0.0000000001
 43
0.0000000001
 40
0.0
 40
0.0
 40
0.0
 40
0.0
 40
1.0
 40
1.0
 40
1.0
 40
1.0
 10
-17.3917
 20
23.711
 30
0.0
 10
-17.3917
 20
23.711
 30
0.0
 10
-37.369
 20
22.9742
 30
0.0
 10
-37.369
 20
22.9742
 30
0.0
  0
SPLINE
  5
5D
330
1F
100
AcDbEntity
  8
ROUND
 62
   250
100
AcDbSpline
210
0.0
220
0.0
230
1.0
 70
    24
 71
     3
 72
     8
 73
     4
 74
     0
 42
0.0000000001
 43
0.0000000001
 40
0.0
 40
0.0
 40
0.0
 40
0.0
 40
1.0
 40
1.0
 40
1.0
 40
1.0
 10
-17.4188
 20
24.61
 30
0.0
 10
-17.4188
 20
24.61
 30
0.0
 10
-37.3961
 20
23.8732
 30
0.0
 10
-37.3961
 20
23.8732
 30
0.0
  0
SPLINE
  5
5E
330
1F
100
AcDbEntity
  8
ROUND
 62
   250
100
AcDbSpline
210
0.0
220
0.0
230
1.0
 70
    24
 71
     3
 72
     8
 73
     4
 74
     0
 42
0.0000000001
 43
0.0000000001
 40
0.0
 40
0.0
 40
0.0
 40
0.0
 40
1.0
 40
1.0
 40
1.0
 40
1.0
 10
-17.4459
 20
25.509
 30
0.0
 10
-17.4459
 20
25.509
 30
0.0
 10
-37.4232
 20
24.7722
 30
0.0
 10
-37.4232
 20
24.7722
 30
0.0
  0
SPLINE
  5
5F
330
1F
100
AcDbEntity
  8
ROUND
 62
   250
100
AcDbSpline
210
0.0
220
0.0
230
1.0
 70
    24
 71
     3
 72
     8
 73
     4
 74
     0
 42
0.0000000001
 43
0.0000000001
 40
0.0
 40
0.0
 40
0.0
 40
0.0
 40
1.0
 40
1.0
 40
1.0
 40
1.0
 10
-51.2298
 20
15.0411
 30
0.0
 10
-51.2298
 20
15.0411
 30
0.0
 10
-51.2298
 20
-8.1532
 30
0.0
 10
-51.2298
 20
-8.1532
 30
0.0
  0
SPLINE
  5
60
330
1F
100
AcDbEntity
  8
ROUND
 62
   250
100
AcDbSpline
210
0.0
220
0.0
230
1.0
 70
    24
 71
     3
 72
     8
 73
     4
 74
     0
 42
0.0000000001
 43
0.0000000001
 40
0.0
 40
0.0
 40
0.0
 40
0.0
 40
1.0
 40
1.0
 40
1.0
 40
1.0
 10
-12.3364
 20
36.9777
 30
0.0
 10
-12.3364
 20
36.9777
 30
0.0
 10
-42.6627
 20
36.9777
 30
0.0
 10
-42.6627
 20
36.9777
 30
0.0
  0
SPLINE
  5
61
330
1F
100
AcDbEntity
  8
ROUND
 62
   250
100
AcDbSpline
210
0.0
220
0.0
230
1.0
 70
    11
 71
     3
 72
    84
 73
    80
 74
     0
 42
0.0000000001
 43
0.0000000001
 40
0.0
 40
0.0
 40
0.0
 40
0.0
 40
0.0476190476190476
 40
0.0476190476190476
 40
0.0476190476190476
 40
0.0476190476190476
 40
0.0952380952380952
 40
0.0952380952380952
 40
0.0952380952380952
 40
0.0952380952380952
 40
0.1428571428571428
 40
0.1428571428571428
 40
0.1428571428571428
 40
0.1428571428571428
 40
0.1904761904761905
 40
0.1904761904761905
 40
0.1904761904761905
 40
0.1904761904761905
 40
0.2380952380952381
 40
0.2380952380952381
 40
0.2380952380952381
 40
0.2380952380952381
 40
0.2857142857142857
 40
0.2857142857142857
 40
0.2857142857142857
 40
0.2857142857142857
 40
0.3333333333333333
 40
0.3333333333333333
 40
0.3333333333333333
 40
0.3333333333333333
 40
0.3809523809523809
 40
0.3809523809523809
 40
0.3809523809523809
 40
0.3809523809523809
 40
0.4285714285714285
 40
0.4285714285714285
 40
0.4285714285714285
 40
0.4285714285714285
 40
0.4761904761904762
 40
0.4761904761904762
 40
0.4761904761904762
 40
0.4761904761904762
 40
0.5238095238095238
 40
0.5238095238095238
 40
0.5238095238095238
 40
0.5238095238095238
 40
0.5714285714285714
 40
0.5714285714285714
 40
0.5714285714285714
 40
0.5714285714285714
 40
0.6190476190476191
 40
0.6190476190476191
 40
0.6190476190476191
 40
0.6190476190476191
 40
0.6666666666666666
 40
0.6666666666666666
 40
0.6666666666666666
 40
0.6666666666666666
 40
0.7142857142857143
 40
0.7142857142857143
 40
0.7142857142857143
 40
0.7142857142857143
 40
0.7619047619047619
 40
0.7619047619047619
 40
0.7619047619047619
 40
0.7619047619047619
 40
0.8095238095238095
 40
0.8095238095238095
 40
0.8095238095238095
 40
0.8095238095238095
 40
0.8571428571428571
 40
0.8571428571428571
 40
0.8571428571428571
 40
0.8571428571428571
 40
0.9047619047619048
 40
0.9047619047619048
 40
0.9047619047619048
 40
0.9047619047619048
 40
1.0
 40
1.0
 40
1.0
 40
1.0
 10
-28.2485
 20
39.4323
 30
0.0
 10
-28.2485
 20
39.4323
 30
0.0
 10
-28.0171
 20
39.6914
 30
0.0
 10
-28.0171
 20
39.6914
 30
0.0
 10
-28.0171
 20
39.6914
 30
0.0
 10
-28.0171
 20
39.6914
 30
0.0
 10
-27.8807
 20
39.5757
 30
0.0
 10
-27.8807
 20
39.5757
 30
0.0
 10
-27.8807
 20
39.5757
 30
0.0
 10
-27.8807
 20
39.5757
 30
0.0
 10
-28.1229
 20
39.3029
 30
0.0
 10
-28.1229
 20
39.3029
 30
0.0
 10
-28.1229
 20
39.3029
 30
0.0
 10
-28.0439
 20
39.1853
 30
0.0
 10
-27.9908
 20
39.0823
 30
0.0
 10
-27.963
 20
38.9944
 30
0.0
 10
-27.963
 20
38.9944
 30
0.0
 10
-27.9263
 20
38.8786
 30
0.0
 10
-27.908
 20
38.7488
 30
0.0
 10
-27.908
 20
38.6058
 30
0.0
 10
-27.908
 20
38.6058
 30
0.0
 10
-27.908
 20
38.3989
 30
0.0
 10
-27.9498
 20
38.2145
 30
0.0
 10
-28.0336
 20
38.0532
 30
0.0
 10
-28.0336
 20
38.0532
 30
0.0
 10
-28.1173
 20
37.8913
 30
0.0
 10
-28.2344
 20
37.7691
 30
0.0
 10
-28.3854
 20
37.6863
 30
0.0
 10
-28.3854
 20
37.6863
 30
0.0
 10
-28.5369
 20
37.604
 30
0.0
 10
-28.6972
 20
37.5626
 30
0.0
 10
-28.867
 20
37.5626
 30
0.0
 10
-28.867
 20
37.5626
 30
0.0
 10
-28.994
 20
37.5626
 30
0.0
 10
-29.1088
 20
37.5804
 30
0.0
 10
-29.2118
 20
37.6162
 30
0.0
 10
-29.2118
 20
37.6162
 30
0.0
 10
-29.2908
 20
37.6439
 30
0.0
 10
-29.383
 20
37.6966
 30
0.0
 10
-29.4889
 20
37.7747
 30
0.0
 10
-29.4889
 20
37.7747
 30
0.0
 10
-29.4889
 20
37.7747
 30
0.0
 10
-29.7203
 20
37.5155
 30
0.0
 10
-29.7203
 20
37.5155
 30
0.0
 10
-29.7203
 20
37.5155
 30
0.0
 10
-29.7203
 20
37.5155
 30
0.0
 10
-29.8567
 20
37.6312
 30
0.0
 10
-29.8567
 20
37.6312
 30
0.0
 10
-29.8567
 20
37.6312
 30
0.0
 10
-29.8567
 20
37.6312
 30
0.0
 10
-29.614
 20
37.9026
 30
0.0
 10
-29.614
 20
37.9026
 30
0.0
 10
-29.614
 20
37.9026
 30
0.0
 10
-29.7043
 20
38.0395
 30
0.0
 10
-29.7645
 20
38.1566
 30
0.0
 10
-29.7946
 20
38.2535
 30
0.0
 10
-29.7946
 20
38.2535
 30
0.0
 10
-29.8247
 20
38.3504
 30
0.0
 10
-29.8402
 20
38.4671
 30
0.0
 10
-29.8402
 20
38.603
 30
0.0
 10
-29.8402
 20
38.603
 30
0.0
 10
-29.8402
 20
38.8104
 30
0.0
 10
-29.7988
 20
38.9953
 30
0.0
 10
-29.7161
 20
39.1576
 30
0.0
 10
-29.7161
 20
39.1576
 30
0.0
 10
-29.6333
 20
39.3199
 30
0.0
 10
-29.5176
 20
39.4426
 30
0.0
 10
-29.368
 20
39.5263
 30
0.0
 10
-29.368
 20
39.5263
 30
0.0
 10
-29.2189
 20
39.6096
 30
0.0
 10
-29.0528
 20
39.6515
 30
0.0
 10
-28.8699
 20
39.6515
 30
0.0
 10
-28.8699
 20
39.6515
 30
0.0
 10
-28.7466
 20
39.6515
 30
0.0
 10
-28.6389
 20
39.6355
 30
0.0
 10
-28.5467
 20
39.6025
 30
0.0
 10
-28.5467
 20
39.6025
 30
0.0
 10
-28.4545
 20
39.5701
 30
0.0
 10
-28.3548
 20
39.5132
 30
0.0
 10
-28.2485
 20
39.4323
 30
0.0
  0
SPLINE
  5
62
330
1F
100
AcDbEntity
  8
ROUND
 62
   250
100
AcDbSpline
210
0.0
220
0.0
230
1.0
 70
    11
 71
     3
 72
    32
 73
    28
 74
     0
 42
0.0000000001
 43
0.0000000001
 40
0.0
 40
0.0
 40
0.0
 40
0.0
 40
0.125
 40
0.125
 40
0.125
 40
0.125
 40
0.25
 40
0.25
 40
0.25
 40
0.25
 40
0.375
 40
0.375
 40
0.375
 40
0.375
 40
0.5
 40
0.5
 40
0.5
 40
0.5
 40
0.625
 40
0.625
 40
0.625
 40
0.625
 40
0.75
 40
0.75
 40
0.75
 40
0.75
 40
1.0
 40
1.0
 40
1.0
 40
1.0
 10
-28.4136
 20
39.2465
 30
0.0
 10
-28.5002
 20
39.3142
 30
0.0
 10
-28.5759
 20
39.3608
 30
0.0
 10
-28.6403
 20
39.3857
 30
0.0
 10
-28.6403
 20
39.3857
 30
0.0
 10
-28.7052
 20
39.4102
 30
0.0
 10
-28.7814
 20
39.4229
 30
0.0
 10
-28.8685
 20
39.4229
 30
0.0
 10
-28.8685
 20
39.4229
 30
0.0
 10
-29.0698
 20
39.4229
 30
0.0
 10
-29.2358
 20
39.3547
 30
0.0
 10
-29.3675
 20
39.2183
 30
0.0
 10
-29.3675
 20
39.2183
 30
0.0
 10
-29.4988
 20
39.0818
 30
0.0
 10
-29.5646
 20
38.8782
 30
0.0
 10
-29.5646
 20
38.6068
 30
0.0
 10
-29.5646
 20
38.6068
 30
0.0
 10
-29.5646
 20
38.5005
 30
0.0
 10
-29.5543
 20
38.4059
 30
0.0
 10
-29.534
 20
38.3231
 30
0.0
 10
-29.534
 20
38.3231
 30
0.0
 10
-29.5194
 20
38.2615
 30
0.0
 10
-29.4889
 20
38.1858
 30
0.0
 10
-29.4418
 20
38.096
 30
0.0
 10
-29.4418
 20
38.096
 30
0.0
 10
-29.4418
 20
38.096
 30
0.0
 10
-28.4136
 20
39.2465
 30
0.0
 10
-28.4136
 20
39.2465
 30
0.0
  0
SPLINE
  5
63
330
1F
100
AcDbEntity
  8
ROUND
 62
   250
100
AcDbSpline
210
0.0
220
0.0
230
1.0
 70
    11
 71
     3
 72
    28
 73
    24
 74
     0
 42
0.0000000001
 43
0.0000000001
 40
0.0
 40
0.0
 40
0.0
 40
0.0
 40
0.1428571428571428
 40
0.1428571428571428
 40
0.1428571428571428
 40
0.1428571428571428
 40
0.2857142857142857
 40
0.2857142857142857
 40
0.2857142857142857
 40
0.2857142857142857
 40
0.4285714285714285
 40
0.4285714285714285
 40
0.4285714285714285
 40
0.4285714285714285
 40
0.5714285714285714
 40
0.5714285714285714
 40
0.5714285714285714
 40
0.5714285714285714
 40
0.7142857142857143
 40
0.7142857142857143
 40
0.7142857142857143
 40
0.7142857142857143
 40
1.0
 40
1.0
 40
1.0
 40
1.0
 10
-28.3007
 20
39.1044
 30
0.0
 10
-28.3007
 20
39.1044
 30
0.0
 10
-29.3247
 20
37.9581
 30
0.0
 10
-29.3247
 20
37.9581
 30
0.0
 10
-29.3247
 20
37.9581
 30
0.0
 10
-29.2542
 20
37.9003
 30
0.0
 10
-29.1888
 20
37.8598
 30
0.0
 10
-29.129
 20
37.8368
 30
0.0
 10
-29.129
 20
37.8368
 30
0.0
 10
-29.051
 20
37.8062
 30
0.0
 10
-28.9663
 20
37.7912
 30
0.0
 10
-28.8755
 20
37.7912
 30
0.0
 10
-28.8755
 20
37.7912
 30
0.0
 10
-28.6751
 20
37.7912
 30
0.0
 10
-28.51
 20
37.8617
 30
0.0
 10
-28.3793
 20
38.0033
 30
0.0
 10
-28.3793
 20
38.0033
 30
0.0
 10
-28.249
 20
38.1449
 30
0.0
 10
-28.1836
 20
38.3434
 30
0.0
 10
-28.1836
 20
38.5988
 30
0.0
 10
-28.1836
 20
38.5988
 30
0.0
 10
-28.1836
 20
38.7897
 30
0.0
 10
-28.2226
 20
38.9586
 30
0.0
 10
-28.3007
 20
39.1044
 30
0.0
  0
SPLINE
  5
64
330
1F
100
AcDbEntity
  8
ROUND
 62
   250
100
AcDbSpline
210
0.0
220
0.0
230
1.0
 70
    11
 71
     3
 72
    48
 73
    44
 74
     0
 42
0.0000000001
 43
0.0000000001
 40
0.0
 40
0.0
 40
0.0
 40
0.0
 40
0.0833333333333333
 40
0.0833333333333333
 40
0.0833333333333333
 40
0.0833333333333333
 40
0.1666666666666667
 40
0.1666666666666667
 40
0.1666666666666667
 40
0.1666666666666667
 40
0.25
 40
0.25
 40
0.25
 40
0.25
 40
0.3333333333333333
 40
0.3333333333333333
 40
0.3333333333333333
 40
0.3333333333333333
 40
0.4166666666666667
 40
0.4166666666666667
 40
0.4166666666666667
 40
0.4166666666666667
 40
0.5
 40
0.5
 40
0.5
 40
0.5
 40
0.5833333333333334
 40
0.5833333333333334
 40
0.5833333333333334
 40
0.5833333333333334
 40
0.6666666666666666
 40
0.6666666666666666
 40
0.6666666666666666
 40
0.6666666666666666
 40
0.75
 40
0.75
 40
0.75
 40
0.75
 40
0.8333333333333334
 40
0.8333333333333334
 40
0.8333333333333334
 40
0.8333333333333334
 40
1.0
 40
1.0
 40
1.0
 40
1.0
 10
-27.6422
 20
39.3523
 30
0.0
 10
-27.6422
 20
39.3523
 30
0.0
 10
-27.6422
 20
39.5908
 30
0.0
 10
-27.6422
 20
39.5908
 30
0.0
 10
-27.6422
 20
39.5908
 30
0.0
 10
-27.6422
 20
39.5908
 30
0.0
 10
-26.3346
 20
39.5908
 30
0.0
 10
-26.3346
 20
39.5908
 30
0.0
 10
-26.3346
 20
39.5908
 30
0.0
 10
-26.3346
 20
39.5908
 30
0.0
 10
-26.3346
 20
39.3979
 30
0.0
 10
-26.3346
 20
39.3979
 30
0.0
 10
-26.3346
 20
39.3979
 30
0.0
 10
-26.463
 20
39.2611
 30
0.0
 10
-26.5905
 20
39.079
 30
0.0
 10
-26.717
 20
38.8523
 30
0.0
 10
-26.717
 20
38.8523
 30
0.0
 10
-26.8431
 20
38.6256
 30
0.0
 10
-26.9409
 20
38.3918
 30
0.0
 10
-27.0096
 20
38.1524
 30
0.0
 10
-27.0096
 20
38.1524
 30
0.0
 10
-27.0594
 20
37.9831
 30
0.0
 10
-27.0909
 20
37.7982
 30
0.0
 10
-27.1046
 20
37.5969
 30
0.0
 10
-27.1046
 20
37.5969
 30
0.0
 10
-27.1046
 20
37.5969
 30
0.0
 10
-27.3595
 20
37.5969
 30
0.0
 10
-27.3595
 20
37.5969
 30
0.0
 10
-27.3595
 20
37.5969
 30
0.0
 10
-27.3567
 20
37.7559
 30
0.0
 10
-27.3257
 20
37.9478
 30
0.0
 10
-27.2659
 20
38.1731
 30
0.0
 10
-27.2659
 20
38.1731
 30
0.0
 10
-27.2062
 20
38.3979
 30
0.0
 10
-27.1206
 20
38.6152
 30
0.0
 10
-27.0091
 20
38.8241
 30
0.0
 10
-27.0091
 20
38.8241
 30
0.0
 10
-26.8972
 20
39.0329
 30
0.0
 10
-26.7786
 20
39.2093
 30
0.0
 10
-26.6526
 20
39.3523
 30
0.0
 10
-26.6526
 20
39.3523
 30
0.0
 10
-26.6526
 20
39.3523
 30
0.0
 10
-27.6422
 20
39.3523
 30
0.0
 10
-27.6422
 20
39.3523
 30
0.0
  0
SPLINE
  5
65
330
1F
100
AcDbEntity
  8
ROUND
 62
   250
100
AcDbSpline
210
0.0
220
0.0
230
1.0
 70
    11
 71
     3
 72
    40
 73
    36
 74
     0
 42
0.0000000001
 43
0.0000000001
 40
0.0
 40
0.0
 40
0.0
 40
0.0
 40
0.1
 40
0.1
 40
0.1
 40
0.1
 40
0.2
 40
0.2
 40
0.2
 40
0.2
 40
0.3
 40
0.3
 40
0.3
 40
0.3
 40
0.4
 40
0.4
 40
0.4
 40
0.4
 40
0.5
 40
0.5
 40
0.5
 40
0.5
 40
0.6
 40
0.6
 40
0.6
 40
0.6
 40
0.7
 40
0.7
 40
0.7
 40
0.7
 40
0.8
 40
0.8
 40
0.8
 40
0.8
 40
1.0
 40
1.0
 40
1.0
 40
1.0
 10
-25.1549
 20
37.5969
 30
0.0
 10
-25.1549
 20
37.5969
 30
0.0
 10
-25.4028
 20
37.5969
 30
0.0
 10
-25.4028
 20
37.5969
 30
0.0
 10
-25.4028
 20
37.5969
 30
0.0
 10
-25.4028
 20
37.5969
 30
0.0
 10
-25.4028
 20
39.1773
 30
0.0
 10
-25.4028
 20
39.1773
 30
0.0
 10
-25.4028
 20
39.1773
 30
0.0
 10
-25.4626
 20
39.1204
 30
0.0
 10
-25.5406
 20
39.0635
 30
0.0
 10
-25.6375
 20
39.0066
 30
0.0
 10
-25.6375
 20
39.0066
 30
0.0
 10
-25.7349
 20
38.9497
 30
0.0
 10
-25.8219
 20
38.9069
 30
0.0
 10
-25.8991
 20
38.8786
 30
0.0
 10
-25.8991
 20
38.8786
 30
0.0
 10
-25.8991
 20
38.8786
 30
0.0
 10
-25.8991
 20
39.1181
 30
0.0
 10
-25.8991
 20
39.1181
 30
0.0
 10
-25.8991
 20
39.1181
 30
0.0
 10
-25.7603
 20
39.1834
 30
0.0
 10
-25.6389
 20
39.2625
 30
0.0
 10
-25.535
 20
39.3551
 30
0.0
 10
-25.535
 20
39.3551
 30
0.0
 10
-25.4315
 20
39.4483
 30
0.0
 10
-25.3577
 20
39.5381
 30
0.0
 10
-25.3144
 20
39.6256
 30
0.0
 10
-25.3144
 20
39.6256
 30
0.0
 10
-25.3144
 20
39.6256
 30
0.0
 10
-25.1549
 20
39.6256
 30
0.0
 10
-25.1549
 20
39.6256
 30
0.0
 10
-25.1549
 20
39.6256
 30
0.0
 10
-25.1549
 20
39.6256
 30
0.0
 10
-25.1549
 20
37.5969
 30
0.0
 10
-25.1549
 20
37.5969
 30
0.0
  0
SPLINE
  5
66
330
1F
100
AcDbEntity
  8
ROUND
 62
   250
100
AcDbSpline
210
0.0
220
0.0
230
1.0
 70
    11
 71
     3
 72
    20
 73
    16
 74
     0
 42
0.0000000001
 43
0.0000000001
 40
0.0
 40
0.0
 40
0.0
 40
0.0
 40
0.2
 40
0.2
 40
0.2
 40
0.2
 40
0.4
 40
0.4
 40
0.4
 40
0.4
 40
0.6
 40
0.6
 40
0.6
 40
0.6
 40
1.0
 40
1.0
 40
1.0
 40
1.0
 10
-15.0693
 20
37.4214
 30
0.0
 10
-15.0693
 20
37.4214
 30
0.0
 10
-12.0693
 20
36.998
 30
0.0
 10
-12.0693
 20
36.998
 30
0.0
 10
-12.0693
 20
36.998
 30
0.0
 10
-12.0693
 20
36.998
 30
0.0
 10
-12.0693
 20
36.9039
 30
0.0
 10
-12.0693
 20
36.9039
 30
0.0
 10
-12.0693
 20
36.9039
 30
0.0
 10
-12.0693
 20
36.9039
 30
0.0
 10
-15.0693
 20
36.4524
 30
0.0
 10
-15.0693
 20
36.4524
 30
0.0
 10
-15.0693
 20
36.4524
 30
0.0
 10
-15.0693
 20
36.4524
 30
0.0
 10
-15.0693
 20
37.4214
 30
0.0
 10
-15.0693
 20
37.4214
 30
0.0
  0
SPLINE
  5
67
330
1F
100
AcDbEntity
  8
ROUND
 62
   250
100
AcDbSpline
210
0.0
220
0.0
230
1.0
 70
    11
 71
     3
 72
    20
 73
    16
 74
     0
 42
0.0000000001
 43
0.0000000001
 40
0.0
 40
0.0
 40
0.0
 40
0.0
 40
0.2
 40
0.2
 40
0.2
 40
0.2
 40
0.4
 40
0.4
 40
0.4
 40
0.4
 40
0.6
 40
0.6
 40
0.6
 40
0.6
 40
1.0
 40
1.0
 40
1.0
 40
1.0
 10
-39.5691
 20
36.5064
 30
0.0
 10
-39.5691
 20
36.5064
 30
0.0
 10
-42.5691
 20
36.9298
 30
0.0
 10
-42.5691
 20
36.9298
 30
0.0
 10
-42.5691
 20
36.9298
 30
0.0
 10
-42.5691
 20
36.9298
 30
0.0
 10
-42.5691
 20
37.0238
 30
0.0
 10
-42.5691
 20
37.0238
 30
0.0
 10
-42.5691
 20
37.0238
 30
0.0
 10
-42.5691
 20
37.0238
 30
0.0
 10
-39.5691
 20
37.4754
 30
0.0
 10
-39.5691
 20
37.4754
 30
0.0
 10
-39.5691
 20
37.4754
 30
0.0
 10
-39.5691
 20
37.4754
 30
0.0
 10
-39.5691
 20
36.5064
 30
0.0
 10
-39.5691
 20
36.5064
 30
0.0
  0
SPLINE
  5
68
330
1F
100
AcDbEntity
  8
ROUND
 62
   250
100
AcDbSpline
210
0.0
220
0.0
230
1.0
 70
    11
 71
     3
 72
    20
 73
    16
 74
     0
 42
0.0000000001
 43
0.0000000001
 40
0.0
 40
0.0
 40
0.0
 40
0.0
 40
0.2
 40
0.2
 40
0.2
 40
0.2
 40
0.4
 40
0.4
 40
0.4
 40
0.4
 40
0.6
 40
0.6
 40
0.6
 40
0.6
 40
1.0
 40
1.0
 40
1.0
 40
1.0
 10
-51.7143
 20
13.2137
 30
0.0
 10
-51.7143
 20
13.2137
 30
0.0
 10
-51.2909
 20
16.2138
 30
0.0
 10
-51.2909
 20
16.2138
 30
0.0
 10
-51.2909
 20
16.2138
 30
0.0
 10
-51.2909
 20
16.2138
 30
0.0
 10
-51.1969
 20
16.2138
 30
0.0
 10
-51.1969
 20
16.2138
 30
0.0
 10
-51.1969
 20
16.2138
 30
0.0
 10
-51.1969
 20
16.2138
 30
0.0
 10
-50.7453
 20
13.2137
 30
0.0
 10
-50.7453
 20
13.2137
 30
0.0
 10
-50.7453
 20
13.2137
 30
0.0
 10
-50.7453
 20
13.2137
 30
0.0
 10
-51.7143
 20
13.2137
 30
0.0
 10
-51.7143
 20
13.2137
 30
0.0
  0
SPLINE
  5
69
330
1F
100
AcDbEntity
  8
ROUND
 62
   250
100
AcDbSpline
210
0.0
220
0.0
230
1.0
 70
    11
 71
     3
 72
    20
 73
    16
 74
     0
 42
0.0000000001
 43
0.0000000001
 40
0.0
 40
0.0
 40
0.0
 40
0.0
 40
0.2
 40
0.2
 40
0.2
 40
0.2
 40
0.4
 40
0.4
 40
0.4
 40
0.4
 40
0.6
 40
0.6
 40
0.6
 40
0.6
 40
1.0
 40
1.0
 40
1.0
 40
1.0
 10
-50.7453
 20
-5.6596
 30
0.0
 10
-50.7453
 20
-5.6596
 30
0.0
 10
-51.1687
 20
-8.6596
 30
0.0
 10
-51.1687
 20
-8.6596
 30
0.0
 10
-51.1687
 20
-8.6596
 30
0.0
 10
-51.1687
 20
-8.6596
 30
0.0
 10
-51.2627
 20
-8.6596
 30
0.0
 10
-51.2627
 20
-8.6596
 30
0.0
 10
-51.2627
 20
-8.6596
 30
0.0
 10
-51.2627
 20
-8.6596
 30
0.0
 10
-51.7143
 20
-5.6596
 30
0.0
 10
-51.7143
 20
-5.6596
 30
0.0
 10
-51.7143
 20
-5.6596
 30
0.0
 10
-51.7143
 20
-5.6596
 30
0.0
 10
-50.7453
 20
-5.6596
 30
0.0
 10
-50.7453
 20
-5.6596
 30
0.0
  0
SPLINE
  5
6A
330
1F
100
AcDbEntity
  8
ROUND
 62
   250
100
AcDbSpline
210
0.0
220
0.0
230
1.0
 70
    11
 71
     3
 72
    92
 73
    88
 74
     0
 42
0.0000000001
 43
0.0000000001
 40
0.0
 40
0.0
 40
0.0
 40
0.0
 40
0.0434782608695652
 40
0.0434782608695652
 40
0.0434782608695652
 40
0.0434782608695652
 40
0.0869565217391304
 40
0.0869565217391304
 40
0.0869565217391304
 40
0.0869565217391304
 40
0.1304347826086956
 40
0.1304347826086956
 40
0.1304347826086956
 40
0.1304347826086956
 40
0.1739130434782609
 40
0.1739130434782609
 40
0.1739130434782609
 40
0.1739130434782609
 40
0.2173913043478261
 40
0.2173913043478261
 40
0.2173913043478261
 40
0.2173913043478261
 40
0.2608695652173913
 40
0.2608695652173913
 40
0.2608695652173913
 40
0.2608695652173913
 40
0.3043478260869565
 40
0.3043478260869565
 40
0.3043478260869565
 40
0.3043478260869565
 40
0.3478260869565217
 40
0.3478260869565217
 40
0.3478260869565217
 40
0.3478260869565217
 40
0.391304347826087
 40
0.391304347826087
 40
0.391304347826087
 40
0.391304347826087
 40
0.4347826086956522
 40
0.4347826086956522
 40
0.4347826086956522
 40
0.4347826086956522
 40
0.4782608695652174
 40
0.4782608695652174
 40
0.4782608695652174
 40
0.4782608695652174
 40
0.5217391304347826
 40
0.5217391304347826
 40
0.5217391304347826
 40
0.5217391304347826
 40
0.5652173913043478
 40
0.5652173913043478
 40
0.5652173913043478
 40
0.5652173913043478
 40
0.6086956521739131
 40
0.6086956521739131
 40
0.6086956521739131
 40
0.6086956521739131
 40
0.6521739130434783
 40
0.6521739130434783
 40
0.6521739130434783
 40
0.6521739130434783
 40
0.6956521739130435
 40
0.6956521739130435
 40
0.6956521739130435
 40
0.6956521739130435
 40
0.7391304347826086
 40
0.7391304347826086
 40
0.7391304347826086
 40
0.7391304347826086
 40
0.782608695652174
 40
0.782608695652174
 40
0.782608695652174
 40
0.782608695652174
 40
0.8260869565217391
 40
0.8260869565217391
 40
0.8260869565217391
 40
0.8260869565217391
 40
0.8695652173913043
 40
0.8695652173913043
 40
0.8695652173913043
 40
0.8695652173913043
 40
0.9130434782608695
 40
0.9130434782608695
 40
0.9130434782608695
 40
0.9130434782608695
 40
1.0
 40
1.0
 40
1.0
 40
1.0
 10
-52.1679
 20
2.7048
 30
0.0
 10
-52.1679
 20
2.7048
 30
0.0
 10
-52.19
 20
2.9654
 30
0.0
 10
-52.19
 20
2.9654
 30
0.0
 10
-52.19
 20
2.9654
 30
0.0
 10
-52.063
 20
2.9847
 30
0.0
 10
-51.968
 20
3.0293
 30
0.0
 10
-51.9041
 20
3.0994
 30
0.0
 10
-51.9041
 20
3.0994
 30
0.0
 10
-51.8401
 20
3.17
 30
0.0
 10
-51.8081
 20
3.2546
 30
0.0
 10
-51.8081
 20
3.3539
 30
0.0
 10
-51.8081
 20
3.3539
 30
0.0
 10
-51.8081
 20
3.4733
 30
0.0
 10
-51.8533
 20
3.5745
 30
0.0
 10
-51.9431
 20
3.6568
 30
0.0
 10
-51.9431
 20
3.6568
 30
0.0
 10
-52.0334
 20
3.7395
 30
0.0
 10
-52.1529
 20
3.7809
 30
0.0
 10
-52.3015
 20
3.7809
 30
0.0
 10
-52.3015
 20
3.7809
 30
0.0
 10
-52.4431
 20
3.7809
 30
0.0
 10
-52.5545
 20
3.7414
 30
0.0
 10
-52.6364
 20
3.6619
 30
0.0
 10
-52.6364
 20
3.6619
 30
0.0
 10
-52.7182
 20
3.5825
 30
0.0
 10
-52.7591
 20
3.4785
 30
0.0
 10
-52.7591
 20
3.3496
 30
0.0
 10
-52.7591
 20
3.3496
 30
0.0
 10
-52.7591
 20
3.2697
 30
0.0
 10
-52.7408
 20
3.1977
 30
0.0
 10
-52.7046
 20
3.1333
 30
0.0
 10
-52.7046
 20
3.1333
 30
0.0
 10
-52.6684
 20
3.0689
 30
0.0
 10
-52.6213
 20
3.0185
 30
0.0
 10
-52.5635
 20
2.9818
 30
0.0
 10
-52.5635
 20
2.9818
 30
0.0
 10
-52.5635
 20
2.9818
 30
0.0
 10
-52.5936
 20
2.749
 30
0.0
 10
-52.5936
 20
2.749
 30
0.0
 10
-52.5936
 20
2.749
 30
0.0
 10
-52.5936
 20
2.749
 30
0.0
 10
-53.6311
 20
2.9447
 30
0.0
 10
-53.6311
 20
2.9447
 30
0.0
 10
-53.6311
 20
2.9447
 30
0.0
 10
-53.6311
 20
2.9447
 30
0.0
 10
-53.6311
 20
3.9493
 30
0.0
 10
-53.6311
 20
3.9493
 30
0.0
 10
-53.6311
 20
3.9493
 30
0.0
 10
-53.6311
 20
3.9493
 30
0.0
 10
-53.3941
 20
3.9493
 30
0.0
 10
-53.3941
 20
3.9493
 30
0.0
 10
-53.3941
 20
3.9493
 30
0.0
 10
-53.3941
 20
3.9493
 30
0.0
 10
-53.3941
 20
3.1432
 30
0.0
 10
-53.3941
 20
3.1432
 30
0.0
 10
-53.3941
 20
3.1432
 30
0.0
 10
-53.3941
 20
3.1432
 30
0.0
 10
-52.8513
 20
3.034
 30
0.0
 10
-52.8513
 20
3.034
 30
0.0
 10
-52.8513
 20
3.034
 30
0.0
 10
-52.936
 20
3.1554
 30
0.0
 10
-52.9783
 20
3.2829
 30
0.0
 10
-52.9783
 20
3.416
 30
0.0
 10
-52.9783
 20
3.416
 30
0.0
 10
-52.9783
 20
3.5923
 30
0.0
 10
-52.9172
 20
3.741
 30
0.0
 10
-52.7949
 20
3.8623
 30
0.0
 10
-52.7949
 20
3.8623
 30
0.0
 10
-52.6726
 20
3.9836
 30
0.0
 10
-52.5155
 20
4.0443
 30
0.0
 10
-52.3236
 20
4.0443
 30
0.0
 10
-52.3236
 20
4.0443
 30
0.0
 10
-52.1406
 20
4.0443
 30
0.0
 10
-51.9826
 20
3.9907
 30
0.0
 10
-51.8495
 20
3.8844
 30
0.0
 10
-51.8495
 20
3.8844
 30
0.0
 10
-51.6863
 20
3.7546
 30
0.0
 10
-51.6045
 20
3.5778
 30
0.0
 10
-51.6045
 20
3.3539
 30
0.0
 10
-51.6045
 20
3.3539
 30
0.0
 10
-51.6045
 20
3.17
 30
0.0
 10
-51.6557
 20
3.0199
 30
0.0
 10
-51.7587
 20
2.9038
 30
0.0
 10
-51.7587
 20
2.9038
 30
0.0
 10
-51.8617
 20
2.7876
 30
0.0
 10
-51.9981
 20
2.7213
 30
0.0
 10
-52.1679
 20
2.7048
 30
0.0
  0
SPLINE
  5
6B
330
1F
100
AcDbEntity
  8
ROUND
 62
   250
100
AcDbSpline
210
0.0
220
0.0
230
1.0
 70
    11
 71
     3
 72
    68
 73
    64
 74
     0
 42
0.0000000001
 43
0.0000000001
 40
0.0
 40
0.0
 40
0.0
 40
0.0
 40
0.0588235294117647
 40
0.0588235294117647
 40
0.0588235294117647
 40
0.0588235294117647
 40
0.1176470588235294
 40
0.1176470588235294
 40
0.1176470588235294
 40
0.1176470588235294
 40
0.1764705882352941
 40
0.1764705882352941
 40
0.1764705882352941
 40
0.1764705882352941
 40
0.2352941176470588
 40
0.2352941176470588
 40
0.2352941176470588
 40
0.2352941176470588
 40
0.2941176470588235
 40
0.2941176470588235
 40
0.2941176470588235
 40
0.2941176470588235
 40
0.3529411764705883
 40
0.3529411764705883
 40
0.3529411764705883
 40
0.3529411764705883
 40
0.4117647058823529
 40
0.4117647058823529
 40
0.4117647058823529
 40
0.4117647058823529
 40
0.4705882352941176
 40
0.4705882352941176
 40
0.4705882352941176
 40
0.4705882352941176
 40
0.5294117647058824
 40
0.5294117647058824
 40
0.5294117647058824
 40
0.5294117647058824
 40
0.5882352941176471
 40
0.5882352941176471
 40
0.5882352941176471
 40
0.5882352941176471
 40
0.6470588235294118
 40
0.6470588235294118
 40
0.6470588235294118
 40
0.6470588235294118
 40
0.7058823529411765
 40
0.7058823529411765
 40
0.7058823529411765
 40
0.7058823529411765
 40
0.7647058823529411
 40
0.7647058823529411
 40
0.7647058823529411
 40
0.7647058823529411
 40
0.8235294117647058
 40
0.8235294117647058
 40
0.8235294117647058
 40
0.8235294117647058
 40
0.8823529411764706
 40
0.8823529411764706
 40
0.8823529411764706
 40
0.8823529411764706
 40
1.0
 40
1.0
 40
1.0
 40
1.0
 10
-52.7342
 20
4.6562
 30
0.0
 10
-52.7718
 20
4.5532
 30
0.0
 10
-52.8255
 20
4.477
 30
0.0
 10
-52.8955
 20
4.4272
 30
0.0
 10
-52.8955
 20
4.4272
 30
0.0
 10
-52.9651
 20
4.3778
 30
0.0
 10
-53.0489
 20
4.3529
 30
0.0
 10
-53.1462
 20
4.3529
 30
0.0
 10
-53.1462
 20
4.3529
 30
0.0
 10
-53.2934
 20
4.3529
 30
0.0
 10
-53.4167
 20
4.4055
 30
0.0
 10
-53.5168
 20
4.5114
 30
0.0
 10
-53.5168
 20
4.5114
 30
0.0
 10
-53.617
 20
4.6172
 30
0.0
 10
-53.6673
 20
4.7573
 30
0.0
 10
-53.6673
 20
4.9328
 30
0.0
 10
-53.6673
 20
4.9328
 30
0.0
 10
-53.6673
 20
5.1092
 30
0.0
 10
-53.6161
 20
5.2512
 30
0.0
 10
-53.5135
 20
5.3589
 30
0.0
 10
-53.5135
 20
5.3589
 30
0.0
 10
-53.411
 20
5.4661
 30
0.0
 10
-53.2864
 20
5.5198
 30
0.0
 10
-53.1392
 20
5.5198
 30
0.0
 10
-53.1392
 20
5.5198
 30
0.0
 10
-53.0456
 20
5.5198
 30
0.0
 10
-52.9642
 20
5.4953
 30
0.0
 10
-52.8946
 20
5.4464
 30
0.0
 10
-52.8946
 20
5.4464
 30
0.0
 10
-52.8255
 20
5.397
 30
0.0
 10
-52.7718
 20
5.3227
 30
0.0
 10
-52.7342
 20
5.2225
 30
0.0
 10
-52.7342
 20
5.2225
 30
0.0
 10
-52.6938
 20
5.3462
 30
0.0
 10
-52.6289
 20
5.4407
 30
0.0
 10
-52.5385
 20
5.5056
 30
0.0
 10
-52.5385
 20
5.5056
 30
0.0
 10
-52.4487
 20
5.5701
 30
0.0
 10
-52.341
 20
5.6025
 30
0.0
 10
-52.2164
 20
5.6025
 30
0.0
 10
-52.2164
 20
5.6025
 30
0.0
 10
-52.0433
 20
5.6025
 30
0.0
 10
-51.8984
 20
5.5414
 30
0.0
 10
-51.7808
 20
5.4196
 30
0.0
 10
-51.7808
 20
5.4196
 30
0.0
 10
-51.6633
 20
5.2973
 30
0.0
 10
-51.6045
 20
5.1364
 30
0.0
 10
-51.6045
 20
4.937
 30
0.0
 10
-51.6045
 20
4.937
 30
0.0
 10
-51.6045
 20
4.7376
 30
0.0
 10
-51.6633
 20
4.5772
 30
0.0
 10
-51.7813
 20
4.4549
 30
0.0
 10
-51.7813
 20
4.4549
 30
0.0
 10
-51.8994
 20
4.3326
 30
0.0
 10
-52.0466
 20
4.2715
 30
0.0
 10
-52.223
 20
4.2715
 30
0.0
 10
-52.223
 20
4.2715
 30
0.0
 10
-52.3542
 20
4.2715
 30
0.0
 10
-52.4642
 20
4.3049
 30
0.0
 10
-52.5531
 20
4.3717
 30
0.0
 10
-52.5531
 20
4.3717
 30
0.0
 10
-52.6416
 20
4.438
 30
0.0
 10
-52.7022
 20
4.533
 30
0.0
 10
-52.7342
 20
4.6562
 30
0.0
  0
SPLINE
  5
6C
330
1F
100
AcDbEntity
  8
ROUND
 62
   250
100
AcDbSpline
210
0.0
220
0.0
230
1.0
 70
    11
 71
     3
 72
    36
 73
    32
 74
     0
 42
0.0000000001
 43
0.0000000001
 40
0.0
 40
0.0
 40
0.0
 40
0.0
 40
0.1111111111111111
 40
0.1111111111111111
 40
0.1111111111111111
 40
0.1111111111111111
 40
0.2222222222222222
 40
0.2222222222222222
 40
0.2222222222222222
 40
0.2222222222222222
 40
0.3333333333333333
 40
0.3333333333333333
 40
0.3333333333333333
 40
0.3333333333333333
 40
0.4444444444444444
 40
0.4444444444444444
 40
0.4444444444444444
 40
0.4444444444444444
 40
0.5555555555555556
 40
0.5555555555555556
 40
0.5555555555555556
 40
0.5555555555555556
 40
0.6666666666666666
 40
0.6666666666666666
 40
0.6666666666666666
 40
0.6666666666666666
 40
0.7777777777777778
 40
0.7777777777777778
 40
0.7777777777777778
 40
0.7777777777777778
 40
1.0
 40
1.0
 40
1.0
 40
1.0
 10
-53.1547
 20
4.6064
 30
0.0
 10
-53.0592
 20
4.6064
 30
0.0
 10
-52.9811
 20
4.6374
 30
0.0
 10
-52.9205
 20
4.6986
 30
0.0
 10
-52.9205
 20
4.6986
 30
0.0
 10
-52.8598
 20
4.7602
 30
0.0
 10
-52.8292
 20
4.8401
 30
0.0
 10
-52.8292
 20
4.9384
 30
0.0
 10
-52.8292
 20
4.9384
 30
0.0
 10
-52.8292
 20
5.0339
 30
0.0
 10
-52.8593
 20
5.1124
 30
0.0
 10
-52.9195
 20
5.1736
 30
0.0
 10
-52.9195
 20
5.1736
 30
0.0
 10
-52.9797
 20
5.2347
 30
0.0
 10
-53.0536
 20
5.2648
 30
0.0
 10
-53.1406
 20
5.2648
 30
0.0
 10
-53.1406
 20
5.2648
 30
0.0
 10
-53.2318
 20
5.2648
 30
0.0
 10
-53.308
 20
5.2338
 30
0.0
 10
-53.3701
 20
5.1708
 30
0.0
 10
-53.3701
 20
5.1708
 30
0.0
 10
-53.4322
 20
5.1077
 30
0.0
 10
-53.4632
 20
5.0297
 30
0.0
 10
-53.4632
 20
4.9356
 30
0.0
 10
-53.4632
 20
4.9356
 30
0.0
 10
-53.4632
 20
4.8411
 30
0.0
 10
-53.4327
 20
4.7625
 30
0.0
 10
-53.3724
 20
4.7
 30
0.0
 10
-53.3724
 20
4.7
 30
0.0
 10
-53.3118
 20
4.6374
 30
0.0
 10
-53.2389
 20
4.6064
 30
0.0
 10
-53.1547
 20
4.6064
 30
0.0
  0
SPLINE
  5
6D
330
1F
100
AcDbEntity
  8
ROUND
 62
   250
100
AcDbSpline
210
0.0
220
0.0
230
1.0
 70
    11
 71
     3
 72
    40
 73
    36
 74
     0
 42
0.0000000001
 43
0.0000000001
 40
0.0
 40
0.0
 40
0.0
 40
0.0
 40
0.1
 40
0.1
 40
0.1
 40
0.1
 40
0.2
 40
0.2
 40
0.2
 40
0.2
 40
0.3
 40
0.3
 40
0.3
 40
0.3
 40
0.4
 40
0.4
 40
0.4
 40
0.4
 40
0.5
 40
0.5
 40
0.5
 40
0.5
 40
0.6
 40
0.6
 40
0.6
 40
0.6
 40
0.7
 40
0.7
 40
0.7
 40
0.7
 40
0.8
 40
0.8
 40
0.8
 40
0.8
 40
1.0
 40
1.0
 40
1.0
 40
1.0
 10
-52.2215
 20
4.5264
 30
0.0
 10
-52.151
 20
4.5264
 30
0.0
 10
-52.0823
 20
4.5433
 30
0.0
 10
-52.0165
 20
4.5767
 30
0.0
 10
-52.0165
 20
4.5767
 30
0.0
 10
-51.9502
 20
4.6101
 30
0.0
 10
-51.8989
 20
4.66
 30
0.0
 10
-51.8627
 20
4.7263
 30
0.0
 10
-51.8627
 20
4.7263
 30
0.0
 10
-51.8265
 20
4.7926
 30
0.0
 10
-51.8081
 20
4.8636
 30
0.0
 10
-51.8081
 20
4.9398
 30
0.0
 10
-51.8081
 20
4.9398
 30
0.0
 10
-51.8081
 20
5.0584
 30
0.0
 10
-51.8462
 20
5.1562
 30
0.0
 10
-51.9229
 20
5.2333
 30
0.0
 10
-51.9229
 20
5.2333
 30
0.0
 10
-51.9991
 20
5.3105
 30
0.0
 10
-52.096
 20
5.349
 30
0.0
 10
-52.2135
 20
5.349
 30
0.0
 10
-52.2135
 20
5.349
 30
0.0
 10
-52.333
 20
5.349
 30
0.0
 10
-52.4318
 20
5.3095
 30
0.0
 10
-52.5099
 20
5.23
 30
0.0
 10
-52.5099
 20
5.23
 30
0.0
 10
-52.5879
 20
5.1505
 30
0.0
 10
-52.627
 20
5.0508
 30
0.0
 10
-52.627
 20
4.9314
 30
0.0
 10
-52.627
 20
4.9314
 30
0.0
 10
-52.627
 20
4.8147
 30
0.0
 10
-52.5884
 20
4.7183
 30
0.0
 10
-52.5113
 20
4.6416
 30
0.0
 10
-52.5113
 20
4.6416
 30
0.0
 10
-52.4337
 20
4.565
 30
0.0
 10
-52.3372
 20
4.5264
 30
0.0
 10
-52.2215
 20
4.5264
 30
0.0
  0
SPLINE
  5
6E
330
1F
100
AcDbEntity
  8
ROUND
 62
   250
100
AcDbSpline
210
0.0
220
0.0
230
1.0
 70
    24
 71
     3
 72
     8
 73
     4
 74
     0
 42
0.0000000001
 43
0.0000000001
 40
0.0
 40
0.0
 40
0.0
 40
0.0
 40
1.0
 40
1.0
 40
1.0
 40
1.0
 10
-37.6894
 20
22.1621
 30
0.0
 10
-37.6894
 20
22.1621
 30
0.0
 10
-41.5258
 20
22.1621
 30
0.0
 10
-41.5258
 20
22.1621
 30
0.0
  0
SPLINE
  5
6F
330
1F
100
AcDbEntity
  8
ROUND
 62
   250
100
AcDbSpline
210
0.0
220
0.0
230
1.0
 70
    11
 71
     3
 72
   120
 73
   116
 74
     0
 42
0.0000000001
 43
0.0000000001
 40
0.0
 40
0.0
 40
0.0
 40
0.0
 40
0.0333333333333333
 40
0.0333333333333333
 40
0.0333333333333333
 40
0.0333333333333333
 40
0.0666666666666667
 40
0.0666666666666667
 40
0.0666666666666667
 40
0.0666666666666667
 40
0.1
 40
0.1
 40
0.1
 40
0.1
 40
0.1333333333333333
 40
0.1333333333333333
 40
0.1333333333333333
 40
0.1333333333333333
 40
0.1666666666666667
 40
0.1666666666666667
 40
0.1666666666666667
 40
0.1666666666666667
 40
0.2
 40
0.2
 40
0.2
 40
0.2
 40
0.2333333333333333
 40
0.2333333333333333
 40
0.2333333333333333
 40
0.2333333333333333
 40
0.2666666666666667
 40
0.2666666666666667
 40
0.2666666666666667
 40
0.2666666666666667
 40
0.3
 40
0.3
 40
0.3
 40
0.3
 40
0.3333333333333333
 40
0.3333333333333333
 40
0.3333333333333333
 40
0.3333333333333333
 40
0.3666666666666666
 40
0.3666666666666666
 40
0.3666666666666666
 40
0.3666666666666666
 40
0.4
 40
0.4
 40
0.4
 40
0.4
 40
0.4333333333333333
 40
0.4333333333333333
 40
0.4333333333333333
 40
0.4333333333333333
 40
0.4666666666666667
 40
0.4666666666666667
 40
0.4666666666666667
 40
0.4666666666666667
 40
0.5
 40
0.5
 40
0.5
 40
0.5
 40
0.5333333333333333
 40
0.5333333333333333
 40
0.5333333333333333
 40
0.5333333333333333
 40
0.5666666666666667
 40
0.5666666666666667
 40
0.5666666666666667
 40
0.5666666666666667
 40
0.6
 40
0.6
 40
0.6
 40
0.6
 40
0.6333333333333333
 40
0.6333333333333333
 40
0.6333333333333333
 40
0.6333333333333333
 40
0.6666666666666666
 40
0.6666666666666666
 40
0.6666666666666666
 40
0.6666666666666666
 40
0.7
 40
0.7
 40
0.7
 40
0.7
 40
0.7333333333333333
 40
0.7333333333333333
 40
0.7333333333333333
 40
0.7333333333333333
 40
0.7666666666666667
 40
0.7666666666666667
 40
0.7666666666666667
 40
0.7666666666666667
 40
0.8
 40
0.8
 40
0.8
 40
0.8
 40
0.8333333333333334
 40
0.8333333333333334
 40
0.8333333333333334
 40
0.8333333333333334
 40
0.8666666666666667
 40
0.8666666666666667
 40
0.8666666666666667
 40
0.8666666666666667
 40
0.9
 40
0.9
 40
0.9
 40
0.9
 40
0.9333333333333333
 40
0.9333333333333333
 40
0.9333333333333333
 40
0.9333333333333333
 40
1.0
 40
1.0
 40
1.0
 40
1.0
 10
-10.4474
 20
23.7096
 30
0.0
 10
-10.4474
 20
23.7096
 30
0.0
 10
-10.4474
 20
23.9462
 30
0.0
 10
-10.4474
 20
23.9462
 30
0.0
 10
-10.4474
 20
23.9462
 30
0.0
 10
-10.4474
 20
23.9462
 30
0.0
 10
-9.5918
 20
23.9476
 30
0.0
 10
-9.5918
 20
23.9476
 30
0.0
 10
-9.5918
 20
23.9476
 30
0.0
 10
-9.5918
 20
23.9476
 30
0.0
 10
-9.5918
 20
23.1983
 30
0.0
 10
-9.5918
 20
23.1983
 30
0.0
 10
-9.5918
 20
23.1983
 30
0.0
 10
-9.723
 20
23.0934
 30
0.0
 10
-9.8585
 20
23.0148
 30
0.0
 10
-9.9982
 20
22.9617
 30
0.0
 10
-9.9982
 20
22.9617
 30
0.0
 10
-10.1379
 20
22.909
 30
0.0
 10
-10.2813
 20
22.8827
 30
0.0
 10
-10.4281
 20
22.8827
 30
0.0
 10
-10.4281
 20
22.8827
 30
0.0
 10
-10.6266
 20
22.8827
 30
0.0
 10
-10.8072
 20
22.925
 30
0.0
 10
-10.969
 20
23.0101
 30
0.0
 10
-10.969
 20
23.0101
 30
0.0
 10
-11.1313
 20
23.0948
 30
0.0
 10
-11.2536
 20
23.218
 30
0.0
 10
-11.3364
 20
23.3784
 30
0.0
 10
-11.3364
 20
23.3784
 30
0.0
 10
-11.4192
 20
23.5393
 30
0.0
 10
-11.4606
 20
23.719
 30
0.0
 10
-11.4606
 20
23.9175
 30
0.0
 10
-11.4606
 20
23.9175
 30
0.0
 10
-11.4606
 20
24.1141
 30
0.0
 10
-11.4192
 20
24.2975
 30
0.0
 10
-11.3368
 20
24.4678
 30
0.0
 10
-11.3368
 20
24.4678
 30
0.0
 10
-11.255
 20
24.6385
 30
0.0
 10
-11.1365
 20
24.7651
 30
0.0
 10
-10.9822
 20
24.8479
 30
0.0
 10
-10.9822
 20
24.8479
 30
0.0
 10
-10.8279
 20
24.9302
 30
0.0
 10
-10.6501
 20
24.9716
 30
0.0
 10
-10.4488
 20
24.9716
 30
0.0
 10
-10.4488
 20
24.9716
 30
0.0
 10
-10.303
 20
24.9716
 30
0.0
 10
-10.1708
 20
24.948
 30
0.0
 10
-10.0527
 20
24.9005
 30
0.0
 10
-10.0527
 20
24.9005
 30
0.0
 10
-9.9347
 20
24.8535
 30
0.0
 10
-9.842
 20
24.7876
 30
0.0
 10
-9.7752
 20
24.703
 30
0.0
 10
-9.7752
 20
24.703
 30
0.0
 10
-9.708
 20
24.6183
 30
0.0
 10
-9.6572
 20
24.5083
 30
0.0
 10
-9.6219
 20
24.3723
 30
0.0
 10
-9.6219
 20
24.3723
 30
0.0
 10
-9.6219
 20
24.3723
 30
0.0
 10
-9.8632
 20
24.306
 30
0.0
 10
-9.8632
 20
24.306
 30
0.0
 10
-9.8632
 20
24.306
 30
0.0
 10
-9.8938
 20
24.409
 30
0.0
 10
-9.9314
 20
24.4899
 30
0.0
 10
-9.9761
 20
24.5487
 30
0.0
 10
-9.9761
 20
24.5487
 30
0.0
 10
-10.0212
 20
24.6075
 30
0.0
 10
-10.0857
 20
24.6545
 30
0.0
 10
-10.1694
 20
24.6898
 30
0.0
 10
-10.1694
 20
24.6898
 30
0.0
 10
-10.2527
 20
24.7251
 30
0.0
 10
-10.3458
 20
24.743
 30
0.0
 10
-10.4474
 20
24.743
 30
0.0
 10
-10.4474
 20
24.743
 30
0.0
 10
-10.5697
 20
24.743
 30
0.0
 10
-10.6755
 20
24.7241
 30
0.0
 10
-10.7644
 20
24.687
 30
0.0
 10
-10.7644
 20
24.687
 30
0.0
 10
-10.8538
 20
24.6498
 30
0.0
 10
-10.9253
 20
24.6009
 30
0.0
 10
-10.9803
 20
24.5402
 30
0.0
 10
-10.9803
 20
24.5402
 30
0.0
 10
-11.0349
 20
24.4796
 30
0.0
 10
-11.0772
 20
24.4132
 30
0.0
 10
-11.1078
 20
24.3403
 30
0.0
 10
-11.1078
 20
24.3403
 30
0.0
 10
-11.159
 20
24.2157
 30
0.0
 10
-11.1849
 20
24.0802
 30
0.0
 10
-11.1849
 20
23.9339
 30
0.0
 10
-11.1849
 20
23.9339
 30
0.0
 10
-11.1849
 20
23.7538
 30
0.0
 10
-11.1539
 20
23.6033
 30
0.0
 10
-11.0918
 20
23.4819
 30
0.0
 10
-11.0918
 20
23.4819
 30
0.0
 10
-11.0297
 20
23.3606
 30
0.0
 10
-10.9394
 20
23.2707
 30
0.0
 10
-10.8209
 20
23.2119
 30
0.0
 10
-10.8209
 20
23.2119
 30
0.0
 10
-10.7023
 20
23.1531
 30
0.0
 10
-10.5767
 20
23.1235
 30
0.0
 10
-10.4436
 20
23.1235
 30
0.0
 10
-10.4436
 20
23.1235
 30
0.0
 10
-10.3274
 20
23.1235
 30
0.0
 10
-10.2146
 20
23.1461
 30
0.0
 10
-10.1045
 20
23.1908
 30
0.0
 10
-10.1045
 20
23.1908
 30
0.0
 10
-9.9939
 20
23.235
 30
0.0
 10
-9.9107
 20
23.2825
 30
0.0
 10
-9.8538
 20
23.3333
 30
0.0
 10
-9.8538
 20
23.3333
 30
0.0
 10
-9.8538
 20
23.3333
 30
0.0
 10
-9.8538
 20
23.7096
 30
0.0
 10
-9.8538
 20
23.7096
 30
0.0
 10
-9.8538
 20
23.7096
 30
0.0
 10
-9.8538
 20
23.7096
 30
0.0
 10
-10.4474
 20
23.7096
 30
0.0
 10
-10.4474
 20
23.7096
 30
0.0
  0
SPLINE
  5
70
330
1F
100
AcDbEntity
  8
ROUND
 62
   250
100
AcDbSpline
210
0.0
220
0.0
230
1.0
 70
    11
 71
     3
 72
    80
 73
    76
 74
     0
 42
0.0000000001
 43
0.0000000001
 40
0.0
 40
0.0
 40
0.0
 40
0.0
 40
0.05
 40
0.05
 40
0.05
 40
0.05
 40
0.1
 40
0.1
 40
0.1
 40
0.1
 40
0.15
 40
0.15
 40
0.15
 40
0.15
 40
0.2
 40
0.2
 40
0.2
 40
0.2
 40
0.25
 40
0.25
 40
0.25
 40
0.25
 40
0.3
 40
0.3
 40
0.3
 40
0.3
 40
0.35
 40
0.35
 40
0.35
 40
0.35
 40
0.4
 40
0.4
 40
0.4
 40
0.4
 40
0.45
 40
0.45
 40
0.45
 40
0.45
 40
0.5
 40
0.5
 40
0.5
 40
0.5
 40
0.55
 40
0.55
 40
0.55
 40
0.55
 40
0.6
 40
0.6
 40
0.6
 40
0.6
 40
0.65
 40
0.65
 40
0.65
 40
0.65
 40
0.7
 40
0.7
 40
0.7
 40
0.7
 40
0.75
 40
0.75
 40
0.75
 40
0.75
 40
0.8
 40
0.8
 40
0.8
 40
0.8
 40
0.85
 40
0.85
 40
0.85
 40
0.85
 40
0.9
 40
0.9
 40
0.9
 40
0.9
 40
1.0
 40
1.0
 40
1.0
 40
1.0
 10
-8.0114
 20
24.4424
 30
0.0
 10
-8.0114
 20
24.4424
 30
0.0
 10
-8.2578
 20
24.4231
 30
0.0
 10
-8.2578
 20
24.4231
 30
0.0
 10
-8.2578
 20
24.4231
 30
0.0
 10
-8.2799
 20
24.5205
 30
0.0
 10
-8.311
 20
24.5915
 30
0.0
 10
-8.3514
 20
24.6352
 30
0.0
 10
-8.3514
 20
24.6352
 30
0.0
 10
-8.4187
 20
24.7063
 30
0.0
 10
-8.5015
 20
24.7416
 30
0.0
 10
-8.5998
 20
24.7416
 30
0.0
 10
-8.5998
 20
24.7416
 30
0.0
 10
-8.6788
 20
24.7416
 30
0.0
 10
-8.7479
 20
24.7194
 30
0.0
 10
-8.8077
 20
24.6752
 30
0.0
 10
-8.8077
 20
24.6752
 30
0.0
 10
-8.8858
 20
24.6183
 30
0.0
 10
-8.9474
 20
24.5351
 30
0.0
 10
-8.9925
 20
24.4259
 30
0.0
 10
-8.9925
 20
24.4259
 30
0.0
 10
-9.0372
 20
24.3168
 30
0.0
 10
-9.0607
 20
24.1611
 30
0.0
 10
-9.0626
 20
23.9589
 30
0.0
 10
-9.0626
 20
23.9589
 30
0.0
 10
-9.0029
 20
24.0496
 30
0.0
 10
-8.93
 20
24.1174
 30
0.0
 10
-8.8434
 20
24.1616
 30
0.0
 10
-8.8434
 20
24.1616
 30
0.0
 10
-8.7574
 20
24.2053
 30
0.0
 10
-8.6666
 20
24.2274
 30
0.0
 10
-8.572
 20
24.2274
 30
0.0
 10
-8.572
 20
24.2274
 30
0.0
 10
-8.4065
 20
24.2274
 30
0.0
 10
-8.2658
 20
24.1668
 30
0.0
 10
-8.1496
 20
24.0449
 30
0.0
 10
-8.1496
 20
24.0449
 30
0.0
 10
-8.0335
 20
23.9231
 30
0.0
 10
-7.9751
 20
23.766
 30
0.0
 10
-7.9751
 20
23.5732
 30
0.0
 10
-7.9751
 20
23.5732
 30
0.0
 10
-7.9751
 20
23.4462
 30
0.0
 10
-8.0029
 20
23.3286
 30
0.0
 10
-8.0575
 20
23.2194
 30
0.0
 10
-8.0575
 20
23.2194
 30
0.0
 10
-8.112
 20
23.1108
 30
0.0
 10
-8.1873
 20
23.0271
 30
0.0
 10
-8.2828
 20
22.9692
 30
0.0
 10
-8.2828
 20
22.9692
 30
0.0
 10
-8.3782
 20
22.9114
 30
0.0
 10
-8.4864
 20
22.8827
 30
0.0
 10
-8.6078
 20
22.8827
 30
0.0
 10
-8.6078
 20
22.8827
 30
0.0
 10
-8.8147
 20
22.8827
 30
0.0
 10
-8.9831
 20
22.9584
 30
0.0
 10
-9.1134
 20
23.1108
 30
0.0
 10
-9.1134
 20
23.1108
 30
0.0
 10
-9.2442
 20
23.2627
 30
0.0
 10
-9.3091
 20
23.5134
 30
0.0
 10
-9.3091
 20
23.8624
 30
0.0
 10
-9.3091
 20
23.8624
 30
0.0
 10
-9.3091
 20
24.2528
 30
0.0
 10
-9.2371
 20
24.5365
 30
0.0
 10
-9.0927
 20
24.7138
 30
0.0
 10
-9.0927
 20
24.7138
 30
0.0
 10
-8.9671
 20
24.8681
 30
0.0
 10
-8.7978
 20
24.9457
 30
0.0
 10
-8.5843
 20
24.9457
 30
0.0
 10
-8.5843
 20
24.9457
 30
0.0
 10
-8.4257
 20
24.9457
 30
0.0
 10
-8.2955
 20
24.901
 30
0.0
 10
-8.1939
 20
24.8116
 30
0.0
 10
-8.1939
 20
24.8116
 30
0.0
 10
-8.0923
 20
24.7227
 30
0.0
 10
-8.0316
 20
24.5995
 30
0.0
 10
-8.0114
 20
24.4424
 30
0.0
  0
SPLINE
  5
71
330
1F
100
AcDbEntity
  8
ROUND
 62
   250
100
AcDbSpline
210
0.0
220
0.0
230
1.0
 70
    11
 71
     3
 72
    40
 73
    36
 74
     0
 42
0.0000000001
 43
0.0000000001
 40
0.0
 40
0.0
 40
0.0
 40
0.0
 40
0.1
 40
0.1
 40
0.1
 40
0.1
 40
0.2
 40
0.2
 40
0.2
 40
0.2
 40
0.3
 40
0.3
 40
0.3
 40
0.3
 40
0.4
 40
0.4
 40
0.4
 40
0.4
 40
0.5
 40
0.5
 40
0.5
 40
0.5
 40
0.6
 40
0.6
 40
0.6
 40
0.6
 40
0.7
 40
0.7
 40
0.7
 40
0.7
 40
0.8
 40
0.8
 40
0.8
 40
0.8
 40
1.0
 40
1.0
 40
1.0
 40
1.0
 10
-9.0241
 20
23.5718
 30
0.0
 10
-9.0241
 20
23.4861
 30
0.0
 10
-9.0057
 20
23.4043
 30
0.0
 10
-8.9695
 20
23.3262
 30
0.0
 10
-8.9695
 20
23.3262
 30
0.0
 10
-8.9333
 20
23.2481
 30
0.0
 10
-8.8825
 20
23.1889
 30
0.0
 10
-8.8176
 20
23.148
 30
0.0
 10
-8.8176
 20
23.148
 30
0.0
 10
-8.7522
 20
23.107
 30
0.0
 10
-8.6835
 20
23.0863
 30
0.0
 10
-8.612
 20
23.0863
 30
0.0
 10
-8.612
 20
23.0863
 30
0.0
 10
-8.5071
 20
23.0863
 30
0.0
 10
-8.4173
 20
23.1287
 30
0.0
 10
-8.342
 20
23.2133
 30
0.0
 10
-8.342
 20
23.2133
 30
0.0
 10
-8.2668
 20
23.298
 30
0.0
 10
-8.2291
 20
23.4128
 30
0.0
 10
-8.2291
 20
23.5576
 30
0.0
 10
-8.2291
 20
23.5576
 30
0.0
 10
-8.2291
 20
23.6973
 30
0.0
 10
-8.2663
 20
23.8074
 30
0.0
 10
-8.3406
 20
23.8878
 30
0.0
 10
-8.3406
 20
23.8878
 30
0.0
 10
-8.4149
 20
23.9683
 30
0.0
 10
-8.5085
 20
24.0083
 30
0.0
 10
-8.6214
 20
24.0083
 30
0.0
 10
-8.6214
 20
24.0083
 30
0.0
 10
-8.7338
 20
24.0083
 30
0.0
 10
-8.8289
 20
23.9683
 30
0.0
 10
-8.9069
 20
23.8878
 30
0.0
 10
-8.9069
 20
23.8878
 30
0.0
 10
-8.985
 20
23.8074
 30
0.0
 10
-9.0241
 20
23.702
 30
0.0
 10
-9.0241
 20
23.5718
 30
0.0
  0
SPLINE
  5
72
330
1F
100
AcDbEntity
  8
ROUND
 62
   250
100
AcDbSpline
210
0.0
220
0.0
230
1.0
 70
    11
 71
     3
 72
    20
 73
    16
 74
     0
 42
0.0000000001
 43
0.0000000001
 40
0.0
 40
0.0
 40
0.0
 40
0.0
 40
0.2
 40
0.2
 40
0.2
 40
0.2
 40
0.4
 40
0.4
 40
0.4
 40
0.4
 40
0.6
 40
0.6
 40
0.6
 40
0.6
 40
1.0
 40
1.0
 40
1.0
 40
1.0
 10
-7.8458
 20
22.8827
 30
0.0
 10
-7.8458
 20
22.8827
 30
0.0
 10
-7.2602
 20
24.9716
 30
0.0
 10
-7.2602
 20
24.9716
 30
0.0
 10
-7.2602
 20
24.9716
 30
0.0
 10
-7.2602
 20
24.9716
 30
0.0
 10
-7.0617
 20
24.9716
 30
0.0
 10
-7.0617
 20
24.9716
 30
0.0
 10
-7.0617
 20
24.9716
 30
0.0
 10
-7.0617
 20
24.9716
 30
0.0
 10
-7.6459
 20
22.8827
 30
0.0
 10
-7.6459
 20
22.8827
 30
0.0
 10
-7.6459
 20
22.8827
 30
0.0
 10
-7.6459
 20
22.8827
 30
0.0
 10
-7.8458
 20
22.8827
 30
0.0
 10
-7.8458
 20
22.8827
 30
0.0
  0
SPLINE
  5
73
330
1F
100
AcDbEntity
  8
ROUND
 62
   250
100
AcDbSpline
210
0.0
220
0.0
230
1.0
 70
    11
 71
     3
 72
    48
 73
    44
 74
     0
 42
0.0000000001
 43
0.0000000001
 40
0.0
 40
0.0
 40
0.0
 40
0.0
 40
0.0833333333333333
 40
0.0833333333333333
 40
0.0833333333333333
 40
0.0833333333333333
 40
0.1666666666666667
 40
0.1666666666666667
 40
0.1666666666666667
 40
0.1666666666666667
 40
0.25
 40
0.25
 40
0.25
 40
0.25
 40
0.3333333333333333
 40
0.3333333333333333
 40
0.3333333333333333
 40
0.3333333333333333
 40
0.4166666666666667
 40
0.4166666666666667
 40
0.4166666666666667
 40
0.4166666666666667
 40
0.5
 40
0.5
 40
0.5
 40
0.5
 40
0.5833333333333334
 40
0.5833333333333334
 40
0.5833333333333334
 40
0.5833333333333334
 40
0.6666666666666666
 40
0.6666666666666666
 40
0.6666666666666666
 40
0.6666666666666666
 40
0.75
 40
0.75
 40
0.75
 40
0.75
 40
0.8333333333333334
 40
0.8333333333333334
 40
0.8333333333333334
 40
0.8333333333333334
 40
1.0
 40
1.0
 40
1.0
 40
1.0
 10
-6.1497
 20
22.917
 30
0.0
 10
-6.1497
 20
22.917
 30
0.0
 10
-6.1497
 20
23.4005
 30
0.0
 10
-6.1497
 20
23.4005
 30
0.0
 10
-6.1497
 20
23.4005
 30
0.0
 10
-6.1497
 20
23.4005
 30
0.0
 10
-7.026
 20
23.4005
 30
0.0
 10
-7.026
 20
23.4005
 30
0.0
 10
-7.026
 20
23.4005
 30
0.0
 10
-7.026
 20
23.4005
 30
0.0
 10
-7.026
 20
23.6282
 30
0.0
 10
-7.026
 20
23.6282
 30
0.0
 10
-7.026
 20
23.6282
 30
0.0
 10
-7.026
 20
23.6282
 30
0.0
 10
-6.104
 20
24.9372
 30
0.0
 10
-6.104
 20
24.9372
 30
0.0
 10
-6.104
 20
24.9372
 30
0.0
 10
-6.104
 20
24.9372
 30
0.0
 10
-5.9013
 20
24.9372
 30
0.0
 10
-5.9013
 20
24.9372
 30
0.0
 10
-5.9013
 20
24.9372
 30
0.0
 10
-5.9013
 20
24.9372
 30
0.0
 10
-5.9013
 20
23.6282
 30
0.0
 10
-5.9013
 20
23.6282
 30
0.0
 10
-5.9013
 20
23.6282
 30
0.0
 10
-5.9013
 20
23.6282
 30
0.0
 10
-5.6285
 20
23.6282
 30
0.0
 10
-5.6285
 20
23.6282
 30
0.0
 10
-5.6285
 20
23.6282
 30
0.0
 10
-5.6285
 20
23.6282
 30
0.0
 10
-5.6285
 20
23.4005
 30
0.0
 10
-5.6285
 20
23.4005
 30
0.0
 10
-5.6285
 20
23.4005
 30
0.0
 10
-5.6285
 20
23.4005
 30
0.0
 10
-5.9013
 20
23.4005
 30
0.0
 10
-5.9013
 20
23.4005
 30
0.0
 10
-5.9013
 20
23.4005
 30
0.0
 10
-5.9013
 20
23.4005
 30
0.0
 10
-5.9013
 20
22.917
 30
0.0
 10
-5.9013
 20
22.917
 30
0.0
 10
-5.9013
 20
22.917
 30
0.0
 10
-5.9013
 20
22.917
 30
0.0
 10
-6.1497
 20
22.917
 30
0.0
 10
-6.1497
 20
22.917
 30
0.0
  0
SPLINE
  5
74
330
1F
100
AcDbEntity
  8
ROUND
 62
   250
100
AcDbSpline
210
0.0
220
0.0
230
1.0
 70
    11
 71
     3
 72
    16
 73
    12
 74
     0
 42
0.0000000001
 43
0.0000000001
 40
0.0
 40
0.0
 40
0.0
 40
0.0
 40
0.25
 40
0.25
 40
0.25
 40
0.25
 40
0.5
 40
0.5
 40
0.5
 40
0.5
 40
1.0
 40
1.0
 40
1.0
 40
1.0
 10
-6.1497
 20
23.6282
 30
0.0
 10
-6.1497
 20
23.6282
 30
0.0
 10
-6.1497
 20
24.5388
 30
0.0
 10
-6.1497
 20
24.5388
 30
0.0
 10
-6.1497
 20
24.5388
 30
0.0
 10
-6.1497
 20
24.5388
 30
0.0
 10
-6.7818
 20
23.6282
 30
0.0
 10
-6.7818
 20
23.6282
 30
0.0
 10
-6.7818
 20
23.6282
 30
0.0
 10
-6.7818
 20
23.6282
 30
0.0
 10
-6.1497
 20
23.6282
 30
0.0
 10
-6.1497
 20
23.6282
 30
0.0
  0
SPLINE
  5
75
330
1F
100
AcDbEntity
  8
ROUND
 62
   250
100
AcDbSpline
210
0.0
220
0.0
230
1.0
 70
    11
 71
     3
 72
    28
 73
    24
 74
     0
 42
0.0000000001
 43
0.0000000001
 40
0.0
 40
0.0
 40
0.0
 40
0.0
 40
0.1428571428571428
 40
0.1428571428571428
 40
0.1428571428571428
 40
0.1428571428571428
 40
0.2857142857142857
 40
0.2857142857142857
 40
0.2857142857142857
 40
0.2857142857142857
 40
0.4285714285714285
 40
0.4285714285714285
 40
0.4285714285714285
 40
0.4285714285714285
 40
0.5714285714285714
 40
0.5714285714285714
 40
0.5714285714285714
 40
0.5714285714285714
 40
0.7142857142857143
 40
0.7142857142857143
 40
0.7142857142857143
 40
0.7142857142857143
 40
1.0
 40
1.0
 40
1.0
 40
1.0
 10
-5.2936
 20
24.2218
 30
0.0
 10
-5.2936
 20
24.2218
 30
0.0
 10
-5.3627
 20
24.6066
 30
0.0
 10
-5.3627
 20
24.6066
 30
0.0
 10
-5.3627
 20
24.6066
 30
0.0
 10
-5.3627
 20
24.6066
 30
0.0
 10
-5.3627
 20
24.9372
 30
0.0
 10
-5.3627
 20
24.9372
 30
0.0
 10
-5.3627
 20
24.9372
 30
0.0
 10
-5.3627
 20
24.9372
 30
0.0
 10
-5.0801
 20
24.9372
 30
0.0
 10
-5.0801
 20
24.9372
 30
0.0
 10
-5.0801
 20
24.9372
 30
0.0
 10
-5.0801
 20
24.9372
 30
0.0
 10
-5.0801
 20
24.6066
 30
0.0
 10
-5.0801
 20
24.6066
 30
0.0
 10
-5.0801
 20
24.6066
 30
0.0
 10
-5.0801
 20
24.6066
 30
0.0
 10
-5.1421
 20
24.2218
 30
0.0
 10
-5.1421
 20
24.2218
 30
0.0
 10
-5.1421
 20
24.2218
 30
0.0
 10
-5.1421
 20
24.2218
 30
0.0
 10
-5.2936
 20
24.2218
 30
0.0
 10
-5.2936
 20
24.2218
 30
0.0
  0
SPLINE
  5
76
330
1F
100
AcDbEntity
  8
ROUND
 62
   250
100
AcDbSpline
210
0.0
220
0.0
230
1.0
 70
    11
 71
     3
 72
    28
 73
    24
 74
     0
 42
0.0000000001
 43
0.0000000001
 40
0.0
 40
0.0
 40
0.0
 40
0.0
 40
0.1428571428571428
 40
0.1428571428571428
 40
0.1428571428571428
 40
0.1428571428571428
 40
0.2857142857142857
 40
0.2857142857142857
 40
0.2857142857142857
 40
0.2857142857142857
 40
0.4285714285714285
 40
0.4285714285714285
 40
0.4285714285714285
 40
0.4285714285714285
 40
0.5714285714285714
 40
0.5714285714285714
 40
0.5714285714285714
 40
0.5714285714285714
 40
0.7142857142857143
 40
0.7142857142857143
 40
0.7142857142857143
 40
0.7142857142857143
 40
1.0
 40
1.0
 40
1.0
 40
1.0
 10
-4.8373
 20
24.2218
 30
0.0
 10
-4.8373
 20
24.2218
 30
0.0
 10
-4.9051
 20
24.6066
 30
0.0
 10
-4.9051
 20
24.6066
 30
0.0
 10
-4.9051
 20
24.6066
 30
0.0
 10
-4.9051
 20
24.6066
 30
0.0
 10
-4.9051
 20
24.9372
 30
0.0
 10
-4.9051
 20
24.9372
 30
0.0
 10
-4.9051
 20
24.9372
 30
0.0
 10
-4.9051
 20
24.9372
 30
0.0
 10
-4.6224
 20
24.9372
 30
0.0
 10
-4.6224
 20
24.9372
 30
0.0
 10
-4.6224
 20
24.9372
 30
0.0
 10
-4.6224
 20
24.9372
 30
0.0
 10
-4.6224
 20
24.6066
 30
0.0
 10
-4.6224
 20
24.6066
 30
0.0
 10
-4.6224
 20
24.6066
 30
0.0
 10
-4.6224
 20
24.6066
 30
0.0
 10
-4.6887
 20
24.2218
 30
0.0
 10
-4.6887
 20
24.2218
 30
0.0
 10
-4.6887
 20
24.2218
 30
0.0
 10
-4.6887
 20
24.2218
 30
0.0
 10
-4.8373
 20
24.2218
 30
0.0
 10
-4.8373
 20
24.2218
 30
0.0
  0
SPLINE
  5
77
330
1F
100
AcDbEntity
  8
ROUND
 62
   250
100
AcDbSpline
210
0.0
220
0.0
230
1.0
 70
    11
 71
     3
 72
    44
 73
    40
 74
     0
 42
0.0000000001
 43
0.0000000001
 40
0.0
 40
0.0
 40
0.0
 40
0.0
 40
0.0909090909090909
 40
0.0909090909090909
 40
0.0909090909090909
 40
0.0909090909090909
 40
0.1818181818181818
 40
0.1818181818181818
 40
0.1818181818181818
 40
0.1818181818181818
 40
0.2727272727272727
 40
0.2727272727272727
 40
0.2727272727272727
 40
0.2727272727272727
 40
0.3636363636363636
 40
0.3636363636363636
 40
0.3636363636363636
 40
0.3636363636363636
 40
0.4545454545454545
 40
0.4545454545454545
 40
0.4545454545454545
 40
0.4545454545454545
 40
0.5454545454545454
 40
0.5454545454545454
 40
0.5454545454545454
 40
0.5454545454545454
 40
0.6363636363636364
 40
0.6363636363636364
 40
0.6363636363636364
 40
0.6363636363636364
 40
0.7272727272727273
 40
0.7272727272727273
 40
0.7272727272727273
 40
0.7272727272727273
 40
0.8181818181818182
 40
0.8181818181818182
 40
0.8181818181818182
 40
0.8181818181818182
 40
1.0
 40
1.0
 40
1.0
 40
1.0
 10
-3.0462
 20
22.3229
 30
0.0
 10
-3.1831
 20
22.4956
 30
0.0
 10
-3.2988
 20
22.6978
 30
0.0
 10
-3.3933
 20
22.9292
 30
0.0
 10
-3.3933
 20
22.9292
 30
0.0
 10
-3.4878
 20
23.1611
 30
0.0
 10
-3.5354
 20
23.4005
 30
0.0
 10
-3.5354
 20
23.6489
 30
0.0
 10
-3.5354
 20
23.6489
 30
0.0
 10
-3.5354
 20
23.8676
 30
0.0
 10
-3.5001
 20
24.0769
 30
0.0
 10
-3.4291
 20
24.2773
 30
0.0
 10
-3.4291
 20
24.2773
 30
0.0
 10
-3.3463
 20
24.5097
 30
0.0
 10
-3.2188
 20
24.7411
 30
0.0
 10
-3.0462
 20
24.9716
 30
0.0
 10
-3.0462
 20
24.9716
 30
0.0
 10
-3.0462
 20
24.9716
 30
0.0
 10
-2.8684
 20
24.9716
 30
0.0
 10
-2.8684
 20
24.9716
 30
0.0
 10
-2.8684
 20
24.9716
 30
0.0
 10
-2.9794
 20
24.7806
 30
0.0
 10
-3.0528
 20
24.6442
 30
0.0
 10
-3.0885
 20
24.5623
 30
0.0
 10
-3.0885
 20
24.5623
 30
0.0
 10
-3.145
 20
24.4358
 30
0.0
 10
-3.1887
 20
24.3032
 30
0.0
 10
-3.2212
 20
24.1654
 30
0.0
 10
-3.2212
 20
24.1654
 30
0.0
 10
-3.2607
 20
23.9937
 30
0.0
 10
-3.2804
 20
23.821
 30
0.0
 10
-3.2804
 20
23.6475
 30
0.0
 10
-3.2804
 20
23.6475
 30
0.0
 10
-3.2804
 20
23.2053
 30
0.0
 10
-3.1431
 20
22.7641
 30
0.0
 10
-2.8684
 20
22.3229
 30
0.0
 10
-2.8684
 20
22.3229
 30
0.0
 10
-2.8684
 20
22.3229
 30
0.0
 10
-3.0462
 20
22.3229
 30
0.0
 10
-3.0462
 20
22.3229
 30
0.0
  0
SPLINE
  5
78
330
1F
100
AcDbEntity
  8
ROUND
 62
   250
100
AcDbSpline
210
0.0
220
0.0
230
1.0
 70
    11
 71
     3
 72
    84
 73
    80
 74
     0
 42
0.0000000001
 43
0.0000000001
 40
0.0
 40
0.0
 40
0.0
 40
0.0
 40
0.0476190476190476
 40
0.0476190476190476
 40
0.0476190476190476
 40
0.0476190476190476
 40
0.0952380952380952
 40
0.0952380952380952
 40
0.0952380952380952
 40
0.0952380952380952
 40
0.1428571428571428
 40
0.1428571428571428
 40
0.1428571428571428
 40
0.1428571428571428
 40
0.1904761904761905
 40
0.1904761904761905
 40
0.1904761904761905
 40
0.1904761904761905
 40
0.2380952380952381
 40
0.2380952380952381
 40
0.2380952380952381
 40
0.2380952380952381
 40
0.2857142857142857
 40
0.2857142857142857
 40
0.2857142857142857
 40
0.2857142857142857
 40
0.3333333333333333
 40
0.3333333333333333
 40
0.3333333333333333
 40
0.3333333333333333
 40
0.3809523809523809
 40
0.3809523809523809
 40
0.3809523809523809
 40
0.3809523809523809
 40
0.4285714285714285
 40
0.4285714285714285
 40
0.4285714285714285
 40
0.4285714285714285
 40
0.4761904761904762
 40
0.4761904761904762
 40
0.4761904761904762
 40
0.4761904761904762
 40
0.5238095238095238
 40
0.5238095238095238
 40
0.5238095238095238
 40
0.5238095238095238
 40
0.5714285714285714
 40
0.5714285714285714
 40
0.5714285714285714
 40
0.5714285714285714
 40
0.6190476190476191
 40
0.6190476190476191
 40
0.6190476190476191
 40
0.6190476190476191
 40
0.6666666666666666
 40
0.6666666666666666
 40
0.6666666666666666
 40
0.6666666666666666
 40
0.7142857142857143
 40
0.7142857142857143
 40
0.7142857142857143
 40
0.7142857142857143
 40
0.7619047619047619
 40
0.7619047619047619
 40
0.7619047619047619
 40
0.7619047619047619
 40
0.8095238095238095
 40
0.8095238095238095
 40
0.8095238095238095
 40
0.8095238095238095
 40
0.8571428571428571
 40
0.8571428571428571
 40
0.8571428571428571
 40
0.8571428571428571
 40
0.9047619047619048
 40
0.9047619047619048
 40
0.9047619047619048
 40
0.9047619047619048
 40
1.0
 40
1.0
 40
1.0
 40
1.0
 10
-1.0438
 20
24.7524
 30
0.0
 10
-1.0438
 20
24.7524
 30
0.0
 10
-0.8124
 20
25.0115
 30
0.0
 10
-0.8124
 20
25.0115
 30
0.0
 10
-0.8124
 20
25.0115
 30
0.0
 10
-0.8124
 20
25.0115
 30
0.0
 10
-0.676
 20
24.8958
 30
0.0
 10
-0.676
 20
24.8958
 30
0.0
 10
-0.676
 20
24.8958
 30
0.0
 10
-0.676
 20
24.8958
 30
0.0
 10
-0.9182
 20
24.623
 30
0.0
 10
-0.9182
 20
24.623
 30
0.0
 10
-0.9182
 20
24.623
 30
0.0
 10
-0.8392
 20
24.5054
 30
0.0
 10
-0.7861
 20
24.4024
 30
0.0
 10
-0.7583
 20
24.3145
 30
0.0
 10
-0.7583
 20
24.3145
 30
0.0
 10
-0.7216
 20
24.1987
 30
0.0
 10
-0.7033
 20
24.0689
 30
0.0
 10
-0.7033
 20
23.9259
 30
0.0
 10
-0.7033
 20
23.9259
 30
0.0
 10
-0.7033
 20
23.719
 30
0.0
 10
-0.7451
 20
23.5346
 30
0.0
 10
-0.8289
 20
23.3733
 30
0.0
 10
-0.8289
 20
23.3733
 30
0.0
 10
-0.9126
 20
23.2114
 30
0.0
 10
-1.0297
 20
23.0892
 30
0.0
 10
-1.1807
 20
23.0064
 30
0.0
 10
-1.1807
 20
23.0064
 30
0.0
 10
-1.3322
 20
22.9241
 30
0.0
 10
-1.4925
 20
22.8827
 30
0.0
 10
-1.6623
 20
22.8827
 30
0.0
 10
-1.6623
 20
22.8827
 30
0.0
 10
-1.7893
 20
22.8827
 30
0.0
 10
-1.9041
 20
22.9005
 30
0.0
 10
-2.0071
 20
22.9363
 30
0.0
 10
-2.0071
 20
22.9363
 30
0.0
 10
-2.0861
 20
22.964
 30
0.0
 10
-2.1783
 20
23.0167
 30
0.0
 10
-2.2842
 20
23.0948
 30
0.0
 10
-2.2842
 20
23.0948
 30
0.0
 10
-2.2842
 20
23.0948
 30
0.0
 10
-2.5156
 20
22.8356
 30
0.0
 10
-2.5156
 20
22.8356
 30
0.0
 10
-2.5156
 20
22.8356
 30
0.0
 10
-2.5156
 20
22.8356
 30
0.0
 10
-2.652
 20
22.9513
 30
0.0
 10
-2.652
 20
22.9513
 30
0.0
 10
-2.652
 20
22.9513
 30
0.0
 10
-2.652
 20
22.9513
 30
0.0
 10
-2.4093
 20
23.2227
 30
0.0
 10
-2.4093
 20
23.2227
 30
0.0
 10
-2.4093
 20
23.2227
 30
0.0
 10
-2.4996
 20
23.3596
 30
0.0
 10
-2.5598
 20
23.4767
 30
0.0
 10
-2.5899
 20
23.5736
 30
0.0
 10
-2.5899
 20
23.5736
 30
0.0
 10
-2.62
 20
23.6705
 30
0.0
 10
-2.6355
 20
23.7872
 30
0.0
 10
-2.6355
 20
23.9231
 30
0.0
 10
-2.6355
 20
23.9231
 30
0.0
 10
-2.6355
 20
24.1305
 30
0.0
 10
-2.5941
 20
24.3154
 30
0.0
 10
-2.5114
 20
24.4777
 30
0.0
 10
-2.5114
 20
24.4777
 30
0.0
 10
-2.4286
 20
24.64
 30
0.0
 10
-2.3129
 20
24.7627
 30
0.0
 10
-2.1633
 20
24.8464
 30
0.0
 10
-2.1633
 20
24.8464
 30
0.0
 10
-2.0142
 20
24.9297
 30
0.0
 10
-1.8481
 20
24.9716
 30
0.0
 10
-1.6652
 20
24.9716
 30
0.0
 10
-1.6652
 20
24.9716
 30
0.0
 10
-1.5419
 20
24.9716
 30
0.0
 10
-1.4342
 20
24.9556
 30
0.0
 10
-1.342
 20
24.9226
 30
0.0
 10
-1.342
 20
24.9226
 30
0.0
 10
-1.2498
 20
24.8902
 30
0.0
 10
-1.1501
 20
24.8333
 30
0.0
 10
-1.0438
 20
24.7524
 30
0.0
  0
SPLINE
  5
79
330
1F
100
AcDbEntity
  8
ROUND
 62
   250
100
AcDbSpline
210
0.0
220
0.0
230
1.0
 70
    11
 71
     3
 72
    32
 73
    28
 74
     0
 42
0.0000000001
 43
0.0000000001
 40
0.0
 40
0.0
 40
0.0
 40
0.0
 40
0.125
 40
0.125
 40
0.125
 40
0.125
 40
0.25
 40
0.25
 40
0.25
 40
0.25
 40
0.375
 40
0.375
 40
0.375
 40
0.375
 40
0.5
 40
0.5
 40
0.5
 40
0.5
 40
0.625
 40
0.625
 40
0.625
 40
0.625
 40
0.75
 40
0.75
 40
0.75
 40
0.75
 40
1.0
 40
1.0
 40
1.0
 40
1.0
 10
-1.2089
 20
24.5666
 30
0.0
 10
-1.2955
 20
24.6343
 30
0.0
 10
-1.3712
 20
24.6809
 30
0.0
 10
-1.4356
 20
24.7058
 30
0.0
 10
-1.4356
 20
24.7058
 30
0.0
 10
-1.5005
 20
24.7303
 30
0.0
 10
-1.5767
 20
24.743
 30
0.0
 10
-1.6638
 20
24.743
 30
0.0
 10
-1.6638
 20
24.743
 30
0.0
 10
-1.8651
 20
24.743
 30
0.0
 10
-2.0311
 20
24.6748
 30
0.0
 10
-2.1628
 20
24.5384
 30
0.0
 10
-2.1628
 20
24.5384
 30
0.0
 10
-2.2941
 20
24.4019
 30
0.0
 10
-2.3599
 20
24.1983
 30
0.0
 10
-2.3599
 20
23.9269
 30
0.0
 10
-2.3599
 20
23.9269
 30
0.0
 10
-2.3599
 20
23.8206
 30
0.0
 10
-2.3496
 20
23.726
 30
0.0
 10
-2.3293
 20
23.6432
 30
0.0
 10
-2.3293
 20
23.6432
 30
0.0
 10
-2.3147
 20
23.5816
 30
0.0
 10
-2.2842
 20
23.5059
 30
0.0
 10
-2.2371
 20
23.4161
 30
0.0
 10
-2.2371
 20
23.4161
 30
0.0
 10
-2.2371
 20
23.4161
 30
0.0
 10
-1.2089
 20
24.5666
 30
0.0
 10
-1.2089
 20
24.5666
 30
0.0
  0
SPLINE
  5
7A
330
1F
100
AcDbEntity
  8
ROUND
 62
   250
100
AcDbSpline
210
0.0
220
0.0
230
1.0
 70
    11
 71
     3
 72
    28
 73
    24
 74
     0
 42
0.0000000001
 43
0.0000000001
 40
0.0
 40
0.0
 40
0.0
 40
0.0
 40
0.1428571428571428
 40
0.1428571428571428
 40
0.1428571428571428
 40
0.1428571428571428
 40
0.2857142857142857
 40
0.2857142857142857
 40
0.2857142857142857
 40
0.2857142857142857
 40
0.4285714285714285
 40
0.4285714285714285
 40
0.4285714285714285
 40
0.4285714285714285
 40
0.5714285714285714
 40
0.5714285714285714
 40
0.5714285714285714
 40
0.5714285714285714
 40
0.7142857142857143
 40
0.7142857142857143
 40
0.7142857142857143
 40
0.7142857142857143
 40
1.0
 40
1.0
 40
1.0
 40
1.0
 10
-1.096
 20
24.4245
 30
0.0
 10
-1.096
 20
24.4245
 30
0.0
 10
-2.12
 20
23.2782
 30
0.0
 10
-2.12
 20
23.2782
 30
0.0
 10
-2.12
 20
23.2782
 30
0.0
 10
-2.0495
 20
23.2204
 30
0.0
 10
-1.9841
 20
23.1799
 30
0.0
 10
-1.9243
 20
23.1569
 30
0.0
 10
-1.9243
 20
23.1569
 30
0.0
 10
-1.8463
 20
23.1263
 30
0.0
 10
-1.7616
 20
23.1113
 30
0.0
 10
-1.6708
 20
23.1113
 30
0.0
 10
-1.6708
 20
23.1113
 30
0.0
 10
-1.4704
 20
23.1113
 30
0.0
 10
-1.3053
 20
23.1818
 30
0.0
 10
-1.1746
 20
23.3234
 30
0.0
 10
-1.1746
 20
23.3234
 30
0.0
 10
-1.0443
 20
23.465
 30
0.0
 10
-0.9789
 20
23.6635
 30
0.0
 10
-0.9789
 20
23.9189
 30
0.0
 10
-0.9789
 20
23.9189
 30
0.0
 10
-0.9789
 20
24.1098
 30
0.0
 10
-1.0179
 20
24.2787
 30
0.0
 10
-1.096
 20
24.4245
 30
0.0
  0
SPLINE
  5
7B
330
1F
100
AcDbEntity
  8
ROUND
 62
   250
100
AcDbSpline
210
0.0
220
0.0
230
1.0
 70
    11
 71
     3
 72
    48
 73
    44
 74
     0
 42
0.0000000001
 43
0.0000000001
 40
0.0
 40
0.0
 40
0.0
 40
0.0
 40
0.0833333333333333
 40
0.0833333333333333
 40
0.0833333333333333
 40
0.0833333333333333
 40
0.1666666666666667
 40
0.1666666666666667
 40
0.1666666666666667
 40
0.1666666666666667
 40
0.25
 40
0.25
 40
0.25
 40
0.25
 40
0.3333333333333333
 40
0.3333333333333333
 40
0.3333333333333333
 40
0.3333333333333333
 40
0.4166666666666667
 40
0.4166666666666667
 40
0.4166666666666667
 40
0.4166666666666667
 40
0.5
 40
0.5
 40
0.5
 40
0.5
 40
0.5833333333333334
 40
0.5833333333333334
 40
0.5833333333333334
 40
0.5833333333333334
 40
0.6666666666666666
 40
0.6666666666666666
 40
0.6666666666666666
 40
0.6666666666666666
 40
0.75
 40
0.75
 40
0.75
 40
0.75
 40
0.8333333333333334
 40
0.8333333333333334
 40
0.8333333333333334
 40
0.8333333333333334
 40
1.0
 40
1.0
 40
1.0
 40
1.0
 10
0.3409
 20
22.917
 30
0.0
 10
0.3409
 20
22.917
 30
0.0
 10
0.3409
 20
23.4005
 30
0.0
 10
0.3409
 20
23.4005
 30
0.0
 10
0.3409
 20
23.4005
 30
0.0
 10
0.3409
 20
23.4005
 30
0.0
 10
-0.5354
 20
23.4005
 30
0.0
 10
-0.5354
 20
23.4005
 30
0.0
 10
-0.5354
 20
23.4005
 30
0.0
 10
-0.5354
 20
23.4005
 30
0.0
 10
-0.5354
 20
23.6282
 30
0.0
 10
-0.5354
 20
23.6282
 30
0.0
 10
-0.5354
 20
23.6282
 30
0.0
 10
-0.5354
 20
23.6282
 30
0.0
 10
0.3866
 20
24.9372
 30
0.0
 10
0.3866
 20
24.9372
 30
0.0
 10
0.3866
 20
24.9372
 30
0.0
 10
0.3866
 20
24.9372
 30
0.0
 10
0.5893
 20
24.9372
 30
0.0
 10
0.5893
 20
24.9372
 30
0.0
 10
0.5893
 20
24.9372
 30
0.0
 10
0.5893
 20
24.9372
 30
0.0
 10
0.5893
 20
23.6282
 30
0.0
 10
0.5893
 20
23.6282
 30
0.0
 10
0.5893
 20
23.6282
 30
0.0
 10
0.5893
 20
23.6282
 30
0.0
 10
0.8621
 20
23.6282
 30
0.0
 10
0.8621
 20
23.6282
 30
0.0
 10
0.8621
 20
23.6282
 30
0.0
 10
0.8621
 20
23.6282
 30
0.0
 10
0.8621
 20
23.4005
 30
0.0
 10
0.8621
 20
23.4005
 30
0.0
 10
0.8621
 20
23.4005
 30
0.0
 10
0.8621
 20
23.4005
 30
0.0
 10
0.5893
 20
23.4005
 30
0.0
 10
0.5893
 20
23.4005
 30
0.0
 10
0.5893
 20
23.4005
 30
0.0
 10
0.5893
 20
23.4005
 30
0.0
 10
0.5893
 20
22.917
 30
0.0
 10
0.5893
 20
22.917
 30
0.0
 10
0.5893
 20
22.917
 30
0.0
 10
0.5893
 20
22.917
 30
0.0
 10
0.3409
 20
22.917
 30
0.0
 10
0.3409
 20
22.917
 30
0.0
  0
SPLINE
  5
7C
330
1F
100
AcDbEntity
  8
ROUND
 62
   250
100
AcDbSpline
210
0.0
220
0.0
230
1.0
 70
    11
 71
     3
 72
    16
 73
    12
 74
     0
 42
0.0000000001
 43
0.0000000001
 40
0.0
 40
0.0
 40
0.0
 40
0.0
 40
0.25
 40
0.25
 40
0.25
 40
0.25
 40
0.5
 40
0.5
 40
0.5
 40
0.5
 40
1.0
 40
1.0
 40
1.0
 40
1.0
 10
0.3409
 20
23.6282
 30
0.0
 10
0.3409
 20
23.6282
 30
0.0
 10
0.3409
 20
24.5388
 30
0.0
 10
0.3409
 20
24.5388
 30
0.0
 10
0.3409
 20
24.5388
 30
0.0
 10
0.3409
 20
24.5388
 30
0.0
 10
-0.2912
 20
23.6282
 30
0.0
 10
-0.2912
 20
23.6282
 30
0.0
 10
-0.2912
 20
23.6282
 30
0.0
 10
-0.2912
 20
23.6282
 30
0.0
 10
0.3409
 20
23.6282
 30
0.0
 10
0.3409
 20
23.6282
 30
0.0
  0
SPLINE
  5
7D
330
1F
100
AcDbEntity
  8
ROUND
 62
   250
100
AcDbSpline
210
0.0
220
0.0
230
1.0
 70
    11
 71
     3
 72
    68
 73
    64
 74
     0
 42
0.0000000001
 43
0.0000000001
 40
0.0
 40
0.0
 40
0.0
 40
0.0
 40
0.0588235294117647
 40
0.0588235294117647
 40
0.0588235294117647
 40
0.0588235294117647
 40
0.1176470588235294
 40
0.1176470588235294
 40
0.1176470588235294
 40
0.1176470588235294
 40
0.1764705882352941
 40
0.1764705882352941
 40
0.1764705882352941
 40
0.1764705882352941
 40
0.2352941176470588
 40
0.2352941176470588
 40
0.2352941176470588
 40
0.2352941176470588
 40
0.2941176470588235
 40
0.2941176470588235
 40
0.2941176470588235
 40
0.2941176470588235
 40
0.3529411764705883
 40
0.3529411764705883
 40
0.3529411764705883
 40
0.3529411764705883
 40
0.4117647058823529
 40
0.4117647058823529
 40
0.4117647058823529
 40
0.4117647058823529
 40
0.4705882352941176
 40
0.4705882352941176
 40
0.4705882352941176
 40
0.4705882352941176
 40
0.5294117647058824
 40
0.5294117647058824
 40
0.5294117647058824
 40
0.5294117647058824
 40
0.5882352941176471
 40
0.5882352941176471
 40
0.5882352941176471
 40
0.5882352941176471
 40
0.6470588235294118
 40
0.6470588235294118
 40
0.6470588235294118
 40
0.6470588235294118
 40
0.7058823529411765
 40
0.7058823529411765
 40
0.7058823529411765
 40
0.7058823529411765
 40
0.7647058823529411
 40
0.7647058823529411
 40
0.7647058823529411
 40
0.7647058823529411
 40
0.8235294117647058
 40
0.8235294117647058
 40
0.8235294117647058
 40
0.8235294117647058
 40
0.8823529411764706
 40
0.8823529411764706
 40
0.8823529411764706
 40
0.8823529411764706
 40
1.0
 40
1.0
 40
1.0
 40
1.0
 10
1.4976
 20
24.0125
 30
0.0
 10
1.3945
 20
24.0501
 30
0.0
 10
1.3183
 20
24.1037
 30
0.0
 10
1.2685
 20
24.1738
 30
0.0
 10
1.2685
 20
24.1738
 30
0.0
 10
1.2191
 20
24.2434
 30
0.0
 10
1.1942
 20
24.3272
 30
0.0
 10
1.1942
 20
24.4245
 30
0.0
 10
1.1942
 20
24.4245
 30
0.0
 10
1.1942
 20
24.5717
 30
0.0
 10
1.2469
 20
24.695
 30
0.0
 10
1.3527
 20
24.7952
 30
0.0
 10
1.3527
 20
24.7952
 30
0.0
 10
1.4585
 20
24.8954
 30
0.0
 10
1.5987
 20
24.9457
 30
0.0
 10
1.7741
 20
24.9457
 30
0.0
 10
1.7741
 20
24.9457
 30
0.0
 10
1.9505
 20
24.9457
 30
0.0
 10
2.0926
 20
24.8944
 30
0.0
 10
2.2003
 20
24.7919
 30
0.0
 10
2.2003
 20
24.7919
 30
0.0
 10
2.3075
 20
24.6893
 30
0.0
 10
2.3612
 20
24.5647
 30
0.0
 10
2.3612
 20
24.4175
 30
0.0
 10
2.3612
 20
24.4175
 30
0.0
 10
2.3612
 20
24.3239
 30
0.0
 10
2.3367
 20
24.2425
 30
0.0
 10
2.2878
 20
24.1729
 30
0.0
 10
2.2878
 20
24.1729
 30
0.0
 10
2.2384
 20
24.1037
 30
0.0
 10
2.1641
 20
24.0501
 30
0.0
 10
2.0639
 20
24.0125
 30
0.0
 10
2.0639
 20
24.0125
 30
0.0
 10
2.1876
 20
23.972
 30
0.0
 10
2.2821
 20
23.9071
 30
0.0
 10
2.347
 20
23.8168
 30
0.0
 10
2.347
 20
23.8168
 30
0.0
 10
2.4115
 20
23.727
 30
0.0
 10
2.4439
 20
23.6193
 30
0.0
 10
2.4439
 20
23.4946
 30
0.0
 10
2.4439
 20
23.4946
 30
0.0
 10
2.4439
 20
23.3215
 30
0.0
 10
2.3828
 20
23.1766
 30
0.0
 10
2.261
 20
23.0591
 30
0.0
 10
2.261
 20
23.0591
 30
0.0
 10
2.1387
 20
22.9415
 30
0.0
 10
1.9778
 20
22.8827
 30
0.0
 10
1.7784
 20
22.8827
 30
0.0
 10
1.7784
 20
22.8827
 30
0.0
 10
1.5789
 20
22.8827
 30
0.0
 10
1.4185
 20
22.9415
 30
0.0
 10
1.2962
 20
23.0595
 30
0.0
 10
1.2962
 20
23.0595
 30
0.0
 10
1.1739
 20
23.1776
 30
0.0
 10
1.1128
 20
23.3248
 30
0.0
 10
1.1128
 20
23.5012
 30
0.0
 10
1.1128
 20
23.5012
 30
0.0
 10
1.1128
 20
23.6324
 30
0.0
 10
1.1462
 20
23.7425
 30
0.0
 10
1.213
 20
23.8314
 30
0.0
 10
1.213
 20
23.8314
 30
0.0
 10
1.2793
 20
23.9198
 30
0.0
 10
1.3743
 20
23.9805
 30
0.0
 10
1.4976
 20
24.0125
 30
0.0
  0
SPLINE
  5
7E
330
1F
100
AcDbEntity
  8
ROUND
 62
   250
100
AcDbSpline
210
0.0
220
0.0
230
1.0
 70
    11
 71
     3
 72
    36
 73
    32
 74
     0
 42
0.0000000001
 43
0.0000000001
 40
0.0
 40
0.0
 40
0.0
 40
0.0
 40
0.1111111111111111
 40
0.1111111111111111
 40
0.1111111111111111
 40
0.1111111111111111
 40
0.2222222222222222
 40
0.2222222222222222
 40
0.2222222222222222
 40
0.2222222222222222
 40
0.3333333333333333
 40
0.3333333333333333
 40
0.3333333333333333
 40
0.3333333333333333
 40
0.4444444444444444
 40
0.4444444444444444
 40
0.4444444444444444
 40
0.4444444444444444
 40
0.5555555555555556
 40
0.5555555555555556
 40
0.5555555555555556
 40
0.5555555555555556
 40
0.6666666666666666
 40
0.6666666666666666
 40
0.6666666666666666
 40
0.6666666666666666
 40
0.7777777777777778
 40
0.7777777777777778
 40
0.7777777777777778
 40
0.7777777777777778
 40
1.0
 40
1.0
 40
1.0
 40
1.0
 10
1.4477
 20
24.433
 30
0.0
 10
1.4477
 20
24.3375
 30
0.0
 10
1.4787
 20
24.2594
 30
0.0
 10
1.5399
 20
24.1987
 30
0.0
 10
1.5399
 20
24.1987
 30
0.0
 10
1.6015
 20
24.1381
 30
0.0
 10
1.6815
 20
24.1075
 30
0.0
 10
1.7798
 20
24.1075
 30
0.0
 10
1.7798
 20
24.1075
 30
0.0
 10
1.8753
 20
24.1075
 30
0.0
 10
1.9538
 20
24.1376
 30
0.0
 10
2.015
 20
24.1978
 30
0.0
 10
2.015
 20
24.1978
 30
0.0
 10
2.0761
 20
24.258
 30
0.0
 10
2.1062
 20
24.3319
 30
0.0
 10
2.1062
 20
24.4189
 30
0.0
 10
2.1062
 20
24.4189
 30
0.0
 10
2.1062
 20
24.5101
 30
0.0
 10
2.0752
 20
24.5863
 30
0.0
 10
2.0121
 20
24.6484
 30
0.0
 10
2.0121
 20
24.6484
 30
0.0
 10
1.9491
 20
24.7105
 30
0.0
 10
1.871
 20
24.7416
 30
0.0
 10
1.777
 20
24.7416
 30
0.0
 10
1.777
 20
24.7416
 30
0.0
 10
1.6824
 20
24.7416
 30
0.0
 10
1.6039
 20
24.711
 30
0.0
 10
1.5413
 20
24.6508
 30
0.0
 10
1.5413
 20
24.6508
 30
0.0
 10
1.4787
 20
24.5901
 30
0.0
 10
1.4477
 20
24.5172
 30
0.0
 10
1.4477
 20
24.433
 30
0.0
  0
SPLINE
  5
7F
330
1F
100
AcDbEntity
  8
ROUND
 62
   250
100
AcDbSpline
210
0.0
220
0.0
230
1.0
 70
    11
 71
     3
 72
    40
 73
    36
 74
     0
 42
0.0000000001
 43
0.0000000001
 40
0.0
 40
0.0
 40
0.0
 40
0.0
 40
0.1
 40
0.1
 40
0.1
 40
0.1
 40
0.2
 40
0.2
 40
0.2
 40
0.2
 40
0.3
 40
0.3
 40
0.3
 40
0.3
 40
0.4
 40
0.4
 40
0.4
 40
0.4
 40
0.5
 40
0.5
 40
0.5
 40
0.5
 40
0.6
 40
0.6
 40
0.6
 40
0.6
 40
0.7
 40
0.7
 40
0.7
 40
0.7
 40
0.8
 40
0.8
 40
0.8
 40
0.8
 40
1.0
 40
1.0
 40
1.0
 40
1.0
 10
1.3677
 20
23.4998
 30
0.0
 10
1.3677
 20
23.4292
 30
0.0
 10
1.3847
 20
23.3606
 30
0.0
 10
1.4181
 20
23.2947
 30
0.0
 10
1.4181
 20
23.2947
 30
0.0
 10
1.4515
 20
23.2284
 30
0.0
 10
1.5013
 20
23.1771
 30
0.0
 10
1.5676
 20
23.1409
 30
0.0
 10
1.5676
 20
23.1409
 30
0.0
 10
1.634
 20
23.1047
 30
0.0
 10
1.705
 20
23.0863
 30
0.0
 10
1.7812
 20
23.0863
 30
0.0
 10
1.7812
 20
23.0863
 30
0.0
 10
1.8997
 20
23.0863
 30
0.0
 10
1.9976
 20
23.1244
 30
0.0
 10
2.0747
 20
23.2011
 30
0.0
 10
2.0747
 20
23.2011
 30
0.0
 10
2.1518
 20
23.2773
 30
0.0
 10
2.1904
 20
23.3742
 30
0.0
 10
2.1904
 20
23.4918
 30
0.0
 10
2.1904
 20
23.4918
 30
0.0
 10
2.1904
 20
23.6113
 30
0.0
 10
2.1509
 20
23.71
 30
0.0
 10
2.0714
 20
23.7881
 30
0.0
 10
2.0714
 20
23.7881
 30
0.0
 10
1.9919
 20
23.8662
 30
0.0
 10
1.8922
 20
23.9052
 30
0.0
 10
1.7727
 20
23.9052
 30
0.0
 10
1.7727
 20
23.9052
 30
0.0
 10
1.6561
 20
23.9052
 30
0.0
 10
1.5596
 20
23.8667
 30
0.0
 10
1.483
 20
23.7895
 30
0.0
 10
1.483
 20
23.7895
 30
0.0
 10
1.4063
 20
23.7119
 30
0.0
 10
1.3677
 20
23.6155
 30
0.0
 10
1.3677
 20
23.4998
 30
0.0
  0
SPLINE
  5
80
330
1F
100
AcDbEntity
  8
ROUND
 62
   250
100
AcDbSpline
210
0.0
220
0.0
230
1.0
 70
    11
 71
     3
 72
    44
 73
    40
 74
     0
 42
0.0000000001
 43
0.0000000001
 40
0.0
 40
0.0
 40
0.0
 40
0.0
 40
0.0909090909090909
 40
0.0909090909090909
 40
0.0909090909090909
 40
0.0909090909090909
 40
0.1818181818181818
 40
0.1818181818181818
 40
0.1818181818181818
 40
0.1818181818181818
 40
0.2727272727272727
 40
0.2727272727272727
 40
0.2727272727272727
 40
0.2727272727272727
 40
0.3636363636363636
 40
0.3636363636363636
 40
0.3636363636363636
 40
0.3636363636363636
 40
0.4545454545454545
 40
0.4545454545454545
 40
0.4545454545454545
 40
0.4545454545454545
 40
0.5454545454545454
 40
0.5454545454545454
 40
0.5454545454545454
 40
0.5454545454545454
 40
0.6363636363636364
 40
0.6363636363636364
 40
0.6363636363636364
 40
0.6363636363636364
 40
0.7272727272727273
 40
0.7272727272727273
 40
0.7272727272727273
 40
0.7272727272727273
 40
0.8181818181818182
 40
0.8181818181818182
 40
0.8181818181818182
 40
0.8181818181818182
 40
1.0
 40
1.0
 40
1.0
 40
1.0
 10
2.9166
 20
22.3229
 30
0.0
 10
2.9166
 20
22.3229
 30
0.0
 10
2.7388
 20
22.3229
 30
0.0
 10
2.7388
 20
22.3229
 30
0.0
 10
2.7388
 20
22.3229
 30
0.0
 10
3.0135
 20
22.7641
 30
0.0
 10
3.1509
 20
23.2053
 30
0.0
 10
3.1509
 20
23.6475
 30
0.0
 10
3.1509
 20
23.6475
 30
0.0
 10
3.1509
 20
23.8201
 30
0.0
 10
3.1311
 20
23.9913
 30
0.0
 10
3.0916
 20
24.1616
 30
0.0
 10
3.0916
 20
24.1616
 30
0.0
 10
3.0606
 20
24.2989
 30
0.0
 10
3.0168
 20
24.4316
 30
0.0
 10
2.9609
 20
24.5581
 30
0.0
 10
2.9609
 20
24.5581
 30
0.0
 10
2.9251
 20
24.6409
 30
0.0
 10
2.8513
 20
24.7787
 30
0.0
 10
2.7388
 20
24.9716
 30
0.0
 10
2.7388
 20
24.9716
 30
0.0
 10
2.7388
 20
24.9716
 30
0.0
 10
2.9166
 20
24.9716
 30
0.0
 10
2.9166
 20
24.9716
 30
0.0
 10
2.9166
 20
24.9716
 30
0.0
 10
3.0893
 20
24.7411
 30
0.0
 10
3.2172
 20
24.5097
 30
0.0
 10
3.3
 20
24.2773
 30
0.0
 10
3.3
 20
24.2773
 30
0.0
 10
3.3705
 20
24.0769
 30
0.0
 10
3.4058
 20
23.8676
 30
0.0
 10
3.4058
 20
23.6489
 30
0.0
 10
3.4058
 20
23.6489
 30
0.0
 10
3.4058
 20
23.4005
 30
0.0
 10
3.3583
 20
23.1611
 30
0.0
 10
3.2633
 20
22.9292
 30
0.0
 10
3.2633
 20
22.9292
 30
0.0
 10
3.1683
 20
22.6978
 30
0.0
 10
3.0526
 20
22.4956
 30
0.0
 10
2.9166
 20
22.3229
 30
0.0
  0
SPLINE
  5
81
330
1F
100
AcDbEntity
  8
ROUND
 62
   250
100
AcDbSpline
210
0.0
220
0.0
230
1.0
 70
    11
 71
     3
 72
    20
 73
    16
 74
     0
 42
0.0000000001
 43
0.0000000001
 40
0.0
 40
0.0
 40
0.0
 40
0.0
 40
0.2
 40
0.2
 40
0.2
 40
0.2
 40
0.4
 40
0.4
 40
0.4
 40
0.4
 40
0.6
 40
0.6
 40
0.6
 40
0.6
 40
1.0
 40
1.0
 40
1.0
 40
1.0
 10
-40.4471
 20
22.6134
 30
0.0
 10
-40.4471
 20
22.6134
 30
0.0
 10
-37.4471
 20
22.19
 30
0.0
 10
-37.4471
 20
22.19
 30
0.0
 10
-37.4471
 20
22.19
 30
0.0
 10
-37.4471
 20
22.19
 30
0.0
 10
-37.4471
 20
22.096
 30
0.0
 10
-37.4471
 20
22.096
 30
0.0
 10
-37.4471
 20
22.096
 30
0.0
 10
-37.4471
 20
22.096
 30
0.0
 10
-40.4471
 20
21.6445
 30
0.0
 10
-40.4471
 20
21.6445
 30
0.0
 10
-40.4471
 20
21.6445
 30
0.0
 10
-40.4471
 20
21.6445
 30
0.0
 10
-40.4471
 20
22.6134
 30
0.0
 10
-40.4471
 20
22.6134
 30
0.0
  0
SPLINE
  5
82
330
1F
100
AcDbEntity
  8
ROUND
 62
   250
100
AcDbSpline
210
0.0
220
0.0
230
1.0
 70
    11
 71
     3
 72
    20
 73
    16
 74
     0
 42
0.0000000001
 43
0.0000000001
 40
0.0
 40
0.0
 40
0.0
 40
0.0
 40
0.2
 40
0.2
 40
0.2
 40
0.2
 40
0.4
 40
0.4
 40
0.4
 40
0.4
 40
0.6
 40
0.6
 40
0.6
 40
0.6
 40
1.0
 40
1.0
 40
1.0
 40
1.0
 10
-14.2284
 20
21.6691
 30
0.0
 10
-14.2284
 20
21.6691
 30
0.0
 10
-17.2284
 20
22.0925
 30
0.0
 10
-17.2284
 20
22.0925
 30
0.0
 10
-17.2284
 20
22.0925
 30
0.0
 10
-17.2284
 20
22.0925
 30
0.0
 10
-17.2284
 20
22.1865
 30
0.0
 10
-17.2284
 20
22.1865
 30
0.0
 10
-17.2284
 20
22.1865
 30
0.0
 10
-17.2284
 20
22.1865
 30
0.0
 10
-14.2284
 20
22.6381
 30
0.0
 10
-14.2284
 20
22.6381
 30
0.0
 10
-14.2284
 20
22.6381
 30
0.0
 10
-14.2284
 20
22.6381
 30
0.0
 10
-14.2284
 20
21.6691
 30
0.0
 10
-14.2284
 20
21.6691
 30
0.0
  0
SPLINE
  5
83
330
1F
100
AcDbEntity
  8
ROUND
 62
   250
100
AcDbSpline
210
0.0
220
0.0
230
1.0
 70
    24
 71
     3
 72
     8
 73
     4
 74
     0
 42
0.0000000001
 43
0.0000000001
 40
0.0
 40
0.0
 40
0.0
 40
0.0
 40
1.0
 40
1.0
 40
1.0
 40
1.0
 10
-48.9397
 20
15.4182
 30
0.0
 10
-48.9397
 20
15.4182
 30
0.0
 10
-48.9397
 20
14.5591
 30
0.0
 10
-48.9397
 20
14.5591
 30
0.0
  0
SPLINE
  5
84
330
1F
100
AcDbEntity
  8
ROUND
 62
   250
100
AcDbSpline
210
0.0
220
0.0
230
1.0
 70
    24
 71
     3
 72
     8
 73
     4
 74
     0
 42
0.0000000001
 43
0.0000000001
 40
0.0
 40
0.0
 40
0.0
 40
0.0
 40
1.0
 40
1.0
 40
1.0
 40
1.0
 10
-48.917
 20
16.0702
 30
0.0
 10
-48.917
 20
16.0702
 30
0.0
 10
-48.9397
 20
15.4182
 30
0.0
 10
-48.9397
 20
15.4182
 30
0.0
  0
SPLINE
  5
85
330
1F
100
AcDbEntity
  8
ROUND
 62
   250
100
AcDbSpline
210
0.0
220
0.0
230
1.0
 70
    24
 71
     3
 72
     8
 73
     4
 74
     0
 42
0.0000000001
 43
0.0000000001
 40
0.0
 40
0.0
 40
0.0
 40
0.0
 40
1.0
 40
1.0
 40
1.0
 40
1.0
 10
-47.651
 20
13.6999
 30
0.0
 10
-47.651
 20
13.6999
 30
0.0
 10
-47.651
 20
2.2162
 30
0.0
 10
-47.651
 20
2.2162
 30
0.0
  0
SPLINE
  5
86
330
1F
100
AcDbEntity
  8
ROUND
 62
   250
100
AcDbSpline
210
0.0
220
0.0
230
1.0
 70
    24
 71
     3
 72
     8
 73
     4
 74
     0
 42
0.0000000001
 43
0.0000000001
 40
0.0
 40
0.0
 40
0.0
 40
0.0
 40
1.0
 40
1.0
 40
1.0
 40
1.0
 10
-45.503
 20
19.2846
 30
0.0
 10
-45.503
 20
19.2846
 30
0.0
 10
-45.503
 20
16.2774
 30
0.0
 10
-45.503
 20
16.2774
 30
0.0
  0
SPLINE
  5
87
330
1F
100
AcDbEntity
  8
ROUND
 62
   250
100
AcDbSpline
210
0.0
220
0.0
230
1.0
 70
    24
 71
     3
 72
     8
 73
     4
 74
     0
 42
0.0000000001
 43
0.0000000001
 40
0.0
 40
0.0
 40
0.0
 40
0.0
 40
1.0
 40
1.0
 40
1.0
 40
1.0
 10
-43.355
 20
-7.3501
 30
0.0
 10
-43.355
 20
-7.3501
 30
0.0
 10
-43.355
 20
0.0168
 30
0.0
 10
-43.355
 20
0.0168
 30
0.0
  0
SPLINE
  5
88
330
1F
100
AcDbEntity
  8
ROUND
 62
   250
100
AcDbSpline
210
0.0
220
0.0
230
1.0
 70
    24
 71
     3
 72
     8
 73
     4
 74
     0
 42
0.0000000001
 43
0.0000000001
 40
0.0
 40
0.0
 40
0.0
 40
0.0
 40
1.0
 40
1.0
 40
1.0
 40
1.0
 10
-42.2811
 20
27.8764
 30
0.0
 10
-42.2811
 20
27.8764
 30
0.0
 10
-42.2811
 20
27.54
 30
0.0
 10
-42.2811
 20
27.54
 30
0.0
  0
SPLINE
  5
89
330
1F
100
AcDbEntity
  8
ROUND
 62
   250
100
AcDbSpline
210
0.0
220
0.0
230
1.0
 70
    24
 71
     3
 72
     8
 73
     4
 74
     0
 42
0.0000000001
 43
0.0000000001
 40
0.0
 40
0.0
 40
0.0
 40
0.0
 40
1.0
 40
1.0
 40
1.0
 40
1.0
 10
-12.4244
 20
-8.6389
 30
0.0
 10
-12.4244
 20
-8.6389
 30
0.0
 10
-42.0663
 20
-8.6389
 30
0.0
 10
-42.0663
 20
-8.6389
 30
0.0
  0
SPLINE
  5
8A
330
1F
100
AcDbEntity
  8
ROUND
 62
   250
100
AcDbSpline
210
0.0
220
0.0
230
1.0
 70
    24
 71
     3
 72
     8
 73
     4
 74
     0
 42
0.0000000001
 43
0.0000000001
 40
0.0
 40
0.0
 40
0.0
 40
0.0
 40
1.0
 40
1.0
 40
1.0
 40
1.0
 10
-37.3408
 20
25.7285
 30
0.0
 10
-37.3408
 20
25.7285
 30
0.0
 10
-37.3408
 20
19.2846
 30
0.0
 10
-37.3408
 20
19.2846
 30
0.0
  0
SPLINE
  5
8B
330
1F
100
AcDbEntity
  8
ROUND
 62
   250
100
AcDbSpline
210
0.0
220
0.0
230
1.0
 70
     8
 71
     3
 72
    24
 73
    20
 74
     0
 42
0.0000000001
 43
0.0000000001
 40
0.0
 40
0.0
 40
0.0
 40
0.0
 40
0.1666666666666667
 40
0.1666666666666667
 40
0.1666666666666667
 40
0.1666666666666667
 40
0.3333333333333333
 40
0.3333333333333333
 40
0.3333333333333333
 40
0.3333333333333333
 40
0.5
 40
0.5
 40
0.5
 40
0.5
 40
0.6666666666666666
 40
0.6666666666666666
 40
0.6666666666666666
 40
0.6666666666666666
 40
1.0
 40
1.0
 40
1.0
 40
1.0
 10
-43.71
 20
0.4399
 30
0.0
 10
-43.71
 20
0.4399
 30
0.0
 10
-43.5781
 20
0.3935
 30
0.0
 10
-43.5781
 20
0.3935
 30
0.0
 10
-43.5781
 20
0.3935
 30
0.0
 10
-43.5781
 20
0.3935
 30
0.0
 10
-43.4676
 20
0.3068
 30
0.0
 10
-43.4676
 20
0.3068
 30
0.0
 10
-43.4676
 20
0.3068
 30
0.0
 10
-43.4676
 20
0.3068
 30
0.0
 10
-43.391
 20
0.1889
 30
0.0
 10
-43.391
 20
0.1889
 30
0.0
 10
-43.391
 20
0.1889
 30
0.0
 10
-43.391
 20
0.1889
 30
0.0
 10
-43.3565
 20
0.0526
 30
0.0
 10
-43.3565
 20
0.0526
 30
0.0
 10
-43.3565
 20
0.0526
 30
0.0
 10
-43.3565
 20
0.0526
 30
0.0
 10
-43.355
 20
0.0168
 30
0.0
 10
-43.355
 20
0.0168
 30
0.0
  0
SPLINE
  5
8C
330
1F
100
AcDbEntity
  8
ROUND
 62
   250
100
AcDbSpline
210
0.0
220
0.0
230
1.0
 70
     8
 71
     3
 72
    16
 73
    12
 74
     0
 42
0.0000000001
 43
0.0000000001
 40
0.0
 40
0.0
 40
0.0
 40
0.0
 40
0.25
 40
0.25
 40
0.25
 40
0.25
 40
0.5
 40
0.5
 40
0.5
 40
0.5
 40
1.0
 40
1.0
 40
1.0
 40
1.0
 10
-4.6198
 20
-6.3713
 30
0.0
 10
-4.6198
 20
-6.3713
 30
0.0
 10
-4.5328
 20
-6.3807
 30
0.0
 10
-4.5328
 20
-6.3807
 30
0.0
 10
-4.5328
 20
-6.3807
 30
0.0
 10
-4.5328
 20
-6.3807
 30
0.0
 10
-4.4636
 20
-6.3423
 30
0.0
 10
-4.4636
 20
-6.3423
 30
0.0
 10
-4.4636
 20
-6.3423
 30
0.0
 10
-4.4636
 20
-6.3423
 30
0.0
 10
-4.4371
 20
-6.3064
 30
0.0
 10
-4.4371
 20
-6.3064
 30
0.0
  0
SPLINE
  5
8D
330
1F
100
AcDbEntity
  8
ROUND
 62
   250
100
AcDbSpline
210
0.0
220
0.0
230
1.0
 70
    24
 71
     3
 72
     8
 73
     4
 74
     0
 42
0.0000000001
 43
0.0000000001
 40
0.0
 40
0.0
 40
0.0
 40
0.0
 40
1.0
 40
1.0
 40
1.0
 40
1.0
 10
-8.3523
 20
-5.7946
 30
0.0
 10
-8.3523
 20
-5.7946
 30
0.0
 10
-46.586
 20
0.947
 30
0.0
 10
-46.586
 20
0.947
 30
0.0
  0
SPLINE
  5
8E
330
1F
100
AcDbEntity
  8
ROUND
 62
   250
100
AcDbSpline
210
0.0
220
0.0
230
1.0
 70
    24
 71
     3
 72
     8
 73
     4
 74
     0
 42
0.0000000001
 43
0.0000000001
 40
0.0
 40
0.0
 40
0.0
 40
0.0
 40
1.0
 40
1.0
 40
1.0
 40
1.0
 10
-4.6724
 20
-6.3304
 30
0.0
 10
-4.6724
 20
-6.3304
 30
0.0
 10
-4.6198
 20
-6.3713
 30
0.0
 10
-4.6198
 20
-6.3713
 30
0.0
  0
SPLINE
  5
8F
330
1F
100
AcDbEntity
  8
ROUND
 62
   250
100
AcDbSpline
210
0.0
220
0.0
230
1.0
 70
     8
 71
     3
 72
    24
 73
    20
 74
     0
 42
0.0000000001
 43
0.0000000001
 40
0.0
 40
0.0
 40
0.0
 40
0.0
 40
0.1666666666666667
 40
0.1666666666666667
 40
0.1666666666666667
 40
0.1666666666666667
 40
0.3333333333333333
 40
0.3333333333333333
 40
0.3333333333333333
 40
0.3333333333333333
 40
0.5
 40
0.5
 40
0.5
 40
0.5
 40
0.6666666666666666
 40
0.6666666666666666
 40
0.6666666666666666
 40
0.6666666666666666
 40
1.0
 40
1.0
 40
1.0
 40
1.0
 10
-6.4101
 20
13.2703
 30
0.0
 10
-6.4101
 20
13.2703
 30
0.0
 10
-6.4639
 20
13.2737
 30
0.0
 10
-6.4639
 20
13.2737
 30
0.0
 10
-6.4639
 20
13.2737
 30
0.0
 10
-6.4639
 20
13.2737
 30
0.0
 10
-6.6142
 20
13.3219
 30
0.0
 10
-6.6142
 20
13.3219
 30
0.0
 10
-6.6142
 20
13.3219
 30
0.0
 10
-6.6142
 20
13.3219
 30
0.0
 10
-6.737
 20
13.4212
 30
0.0
 10
-6.737
 20
13.4212
 30
0.0
 10
-6.737
 20
13.4212
 30
0.0
 10
-6.737
 20
13.4212
 30
0.0
 10
-6.8156
 20
13.5581
 30
0.0
 10
-6.8156
 20
13.5581
 30
0.0
 10
-6.8156
 20
13.5581
 30
0.0
 10
-6.8156
 20
13.5581
 30
0.0
 10
-6.8397
 20
13.6999
 30
0.0
 10
-6.8397
 20
13.6999
 30
0.0
  0
SPLINE
  5
90
330
1F
100
AcDbEntity
  8
ROUND
 62
   250
100
AcDbSpline
210
0.0
220
0.0
230
1.0
 70
    24
 71
     3
 72
     8
 73
     4
 74
     0
 42
0.0000000001
 43
0.0000000001
 40
0.0
 40
0.0
 40
0.0
 40
0.0
 40
1.0
 40
1.0
 40
1.0
 40
1.0
 10
-38.0815
 20
27.9818
 30
0.0
 10
-38.0815
 20
27.9818
 30
0.0
 10
-37.9559
 20
27.8764
 30
0.0
 10
-37.9559
 20
27.8764
 30
0.0
  0
SPLINE
  5
91
330
1F
100
AcDbEntity
  8
ROUND
 62
   250
100
AcDbSpline
210
0.0
220
0.0
230
1.0
 70
    24
 71
     3
 72
     8
 73
     4
 74
     0
 42
0.0000000001
 43
0.0000000001
 40
0.0
 40
0.0
 40
0.0
 40
0.0
 40
1.0
 40
1.0
 40
1.0
 40
1.0
 10
-17.1499
 20
25.7285
 30
0.0
 10
-17.1499
 20
25.7285
 30
0.0
 10
-17.1499
 20
19.2846
 30
0.0
 10
-17.1499
 20
19.2846
 30
0.0
  0
SPLINE
  5
92
330
1F
100
AcDbEntity
  8
ROUND
 62
   250
100
AcDbSpline
210
0.0
220
0.0
230
1.0
 70
    24
 71
     3
 72
     8
 73
     4
 74
     0
 42
0.0000000001
 43
0.0000000001
 40
0.0
 40
0.0
 40
0.0
 40
0.0
 40
1.0
 40
1.0
 40
1.0
 40
1.0
 10
-48.9397
 20
15.4182
 30
0.0
 10
-48.9397
 20
15.4182
 30
0.0
 10
-5.5509
 20
15.4182
 30
0.0
 10
-5.5509
 20
15.4182
 30
0.0
  0
SPLINE
  5
93
330
1F
100
AcDbEntity
  8
ROUND
 62
   250
100
AcDbSpline
210
0.0
220
0.0
230
1.0
 70
     8
 71
     3
 72
    24
 73
    20
 74
     0
 42
0.0000000001
 43
0.0000000001
 40
0.0
 40
0.0
 40
0.0
 40
0.0
 40
0.1666666666666667
 40
0.1666666666666667
 40
0.1666666666666667
 40
0.1666666666666667
 40
0.3333333333333333
 40
0.3333333333333333
 40
0.3333333333333333
 40
0.3333333333333333
 40
0.5
 40
0.5
 40
0.5
 40
0.5
 40
0.6666666666666666
 40
0.6666666666666666
 40
0.6666666666666666
 40
0.6666666666666666
 40
1.0
 40
1.0
 40
1.0
 40
1.0
 10
-3.6963
 20
-6.3063
 30
0.0
 10
-3.6963
 20
-6.3063
 30
0.0
 10
-3.6802
 20
-6.3307
 30
0.0
 10
-3.6802
 20
-6.3307
 30
0.0
 10
-3.6802
 20
-6.3307
 30
0.0
 10
-3.6802
 20
-6.3307
 30
0.0
 10
-3.6271
 20
-6.3716
 30
0.0
 10
-3.6271
 20
-6.3716
 30
0.0
 10
-3.6271
 20
-6.3716
 30
0.0
 10
-3.6271
 20
-6.3716
 30
0.0
 10
-3.5397
 20
-6.3804
 30
0.0
 10
-3.5397
 20
-6.3804
 30
0.0
 10
-3.5397
 20
-6.3804
 30
0.0
 10
-3.5397
 20
-6.3804
 30
0.0
 10
-3.471
 20
-6.3416
 30
0.0
 10
-3.471
 20
-6.3416
 30
0.0
 10
-3.471
 20
-6.3416
 30
0.0
 10
-3.471
 20
-6.3416
 30
0.0
 10
-3.4452
 20
-6.3064
 30
0.0
 10
-3.4452
 20
-6.3064
 30
0.0
  0
SPLINE
  5
94
330
1F
100
AcDbEntity
  8
ROUND
 62
   250
100
AcDbSpline
210
0.0
220
0.0
230
1.0
 70
    24
 71
     3
 72
     8
 73
     4
 74
     0
 42
0.0000000001
 43
0.0000000001
 40
0.0
 40
0.0
 40
0.0
 40
0.0
 40
1.0
 40
1.0
 40
1.0
 40
1.0
 10
-4.6882
 20
-6.3063
 30
0.0
 10
-4.6882
 20
-6.3063
 30
0.0
 10
-4.6724
 20
-6.3304
 30
0.0
 10
-4.6724
 20
-6.3304
 30
0.0
  0
SPLINE
  5
95
330
1F
100
AcDbEntity
  8
ROUND
 62
   250
100
AcDbSpline
210
0.0
220
0.0
230
1.0
 70
    24
 71
     3
 72
     8
 73
     4
 74
     0
 42
0.0000000001
 43
0.0000000001
 40
0.0
 40
0.0
 40
0.0
 40
0.0
 40
1.0
 40
1.0
 40
1.0
 40
1.0
 10
-4.6918
 20
-6.2995
 30
0.0
 10
-4.6918
 20
-6.2995
 30
0.0
 10
-4.6882
 20
-6.3064
 30
0.0
 10
-4.6882
 20
-6.3064
 30
0.0
  0
SPLINE
  5
96
330
1F
100
AcDbEntity
  8
ROUND
 62
   250
100
AcDbSpline
210
0.0
220
0.0
230
1.0
 70
    24
 71
     3
 72
     8
 73
     4
 74
     0
 42
0.0000000001
 43
0.0000000001
 40
0.0
 40
0.0
 40
0.0
 40
0.0
 40
1.0
 40
1.0
 40
1.0
 40
1.0
 10
-3.951
 20
-5.8173
 30
0.0
 10
-3.951
 20
-5.8173
 30
0.0
 10
-3.6962
 20
-6.3064
 30
0.0
 10
-3.6962
 20
-6.3064
 30
0.0
  0
SPLINE
  5
97
330
1F
100
AcDbEntity
  8
ROUND
 62
   250
100
AcDbSpline
210
0.0
220
0.0
230
1.0
 70
    24
 71
     3
 72
     8
 73
     4
 74
     0
 42
0.0000000001
 43
0.0000000001
 40
0.0
 40
0.0
 40
0.0
 40
0.0
 40
1.0
 40
1.0
 40
1.0
 40
1.0
 10
-12.2096
 20
27.8764
 30
0.0
 10
-12.2096
 20
27.8764
 30
0.0
 10
-12.2096
 20
27.54
 30
0.0
 10
-12.2096
 20
27.54
 30
0.0
  0
SPLINE
  5
98
330
1F
100
AcDbEntity
  8
ROUND
 62
   250
100
AcDbSpline
210
0.0
220
0.0
230
1.0
 70
    24
 71
     3
 72
     8
 73
     4
 74
     0
 42
0.0000000001
 43
0.0000000001
 40
0.0
 40
0.0
 40
0.0
 40
0.0
 40
1.0
 40
1.0
 40
1.0
 40
1.0
 10
-11.1356
 20
-7.3501
 30
0.0
 10
-11.1356
 20
-7.3501
 30
0.0
 10
-11.1356
 20
-5.8158
 30
0.0
 10
-11.1356
 20
-5.8158
 30
0.0
  0
SPLINE
  5
99
330
1F
100
AcDbEntity
  8
ROUND
 62
   250
100
AcDbSpline
210
0.0
220
0.0
230
1.0
 70
    24
 71
     3
 72
     8
 73
     4
 74
     0
 42
0.0000000001
 43
0.0000000001
 40
0.0
 40
0.0
 40
0.0
 40
0.0
 40
1.0
 40
1.0
 40
1.0
 40
1.0
 10
-8.9877
 20
19.2846
 30
0.0
 10
-8.9877
 20
19.2846
 30
0.0
 10
-45.503
 20
19.2846
 30
0.0
 10
-45.503
 20
19.2846
 30
0.0
  0
SPLINE
  5
9A
330
1F
100
AcDbEntity
  8
ROUND
 62
   250
100
AcDbSpline
210
0.0
220
0.0
230
1.0
 70
    24
 71
     3
 72
     8
 73
     4
 74
     0
 42
0.0000000001
 43
0.0000000001
 40
0.0
 40
0.0
 40
0.0
 40
0.0
 40
1.0
 40
1.0
 40
1.0
 40
1.0
 10
-4.6882
 20
-6.3063
 30
0.0
 10
-4.6882
 20
-6.3063
 30
0.0
 10
-4.6918
 20
-6.2969
 30
0.0
 10
-4.6918
 20
-6.2969
 30
0.0
  0
SPLINE
  5
9B
330
1F
100
AcDbEntity
  8
ROUND
 62
   250
100
AcDbSpline
210
0.0
220
0.0
230
1.0
 70
    24
 71
     3
 72
     8
 73
     4
 74
     0
 42
0.0000000001
 43
0.0000000001
 40
0.0
 40
0.0
 40
0.0
 40
0.0
 40
1.0
 40
1.0
 40
1.0
 40
1.0
 10
-8.9877
 20
19.2846
 30
0.0
 10
-8.9877
 20
19.2846
 30
0.0
 10
-8.9877
 20
16.2774
 30
0.0
 10
-8.9877
 20
16.2774
 30
0.0
  0
SPLINE
  5
9C
330
1F
100
AcDbEntity
  8
ROUND
 62
   250
100
AcDbSpline
210
0.0
220
0.0
230
1.0
 70
    24
 71
     3
 72
     8
 73
     4
 74
     0
 42
0.0000000001
 43
0.0000000001
 40
0.0
 40
0.0
 40
0.0
 40
0.0
 40
1.0
 40
1.0
 40
1.0
 40
1.0
 10
-42.2811
 20
27.54
 30
0.0
 10
-42.2811
 20
27.54
 30
0.0
 10
-37.9851
 20
26.5876
 30
0.0
 10
-37.9851
 20
26.5876
 30
0.0
  0
SPLINE
  5
9D
330
1F
100
AcDbEntity
  8
ROUND
 62
   250
100
AcDbSpline
210
0.0
220
0.0
230
1.0
 70
    27
 71
     3
 72
     8
 73
     4
 74
     0
 42
0.0000000001
 43
0.0000000001
 40
0.0
 40
0.0
 40
0.0
 40
0.0
 40
1.0
 40
1.0
 40
1.0
 40
1.0
 10
-4.4469
 20
13.4558
 30
0.0
 10
-4.4469
 20
13.4558
 30
0.0
 10
-4.4469
 20
13.4558
 30
0.0
 10
-4.4469
 20
13.4558
 30
0.0
  0
SPLINE
  5
9E
330
1F
100
AcDbEntity
  8
ROUND
 62
   250
100
AcDbSpline
210
0.0
220
0.0
230
1.0
 70
    24
 71
     3
 72
     8
 73
     4
 74
     0
 42
0.0000000001
 43
0.0000000001
 40
0.0
 40
0.0
 40
0.0
 40
0.0
 40
1.0
 40
1.0
 40
1.0
 40
1.0
 10
-4.1922
 20
13.9449
 30
0.0
 10
-4.1922
 20
13.9449
 30
0.0
 10
-4.4469
 20
13.4558
 30
0.0
 10
-4.4469
 20
13.4558
 30
0.0
  0
SPLINE
  5
9F
330
1F
100
AcDbEntity
  8
ROUND
 62
   250
100
AcDbSpline
210
0.0
220
0.0
230
1.0
 70
    24
 71
     3
 72
     8
 73
     4
 74
     0
 42
0.0000000001
 43
0.0000000001
 40
0.0
 40
0.0
 40
0.0
 40
0.0
 40
1.0
 40
1.0
 40
1.0
 40
1.0
 10
-3.2003
 20
13.9449
 30
0.0
 10
-3.2003
 20
13.9449
 30
0.0
 10
-3.455
 20
13.4558
 30
0.0
 10
-3.455
 20
13.4558
 30
0.0
  0
SPLINE
  5
A0
330
1F
100
AcDbEntity
  8
ROUND
 62
   250
100
AcDbSpline
210
0.0
220
0.0
230
1.0
 70
    24
 71
     3
 72
     8
 73
     4
 74
     0
 42
0.0000000001
 43
0.0000000001
 40
0.0
 40
0.0
 40
0.0
 40
0.0
 40
1.0
 40
1.0
 40
1.0
 40
1.0
 10
-3.1882
 20
13.963
 30
0.0
 10
-3.1882
 20
13.963
 30
0.0
 10
-3.2003
 20
13.9448
 30
0.0
 10
-3.2003
 20
13.9448
 30
0.0
  0
SPLINE
  5
A1
330
1F
100
AcDbEntity
  8
ROUND
 62
   250
100
AcDbSpline
210
0.0
220
0.0
230
1.0
 70
    24
 71
     3
 72
     8
 73
     4
 74
     0
 42
0.0000000001
 43
0.0000000001
 40
0.0
 40
0.0
 40
0.0
 40
0.0
 40
1.0
 40
1.0
 40
1.0
 40
1.0
 10
-12.2096
 20
27.54
 30
0.0
 10
-12.2096
 20
27.54
 30
0.0
 10
-16.5055
 20
26.5876
 30
0.0
 10
-16.5055
 20
26.5876
 30
0.0
  0
SPLINE
  5
A2
330
1F
100
AcDbEntity
  8
ROUND
 62
   250
100
AcDbSpline
210
0.0
220
0.0
230
1.0
 70
    24
 71
     3
 72
     8
 73
     4
 74
     0
 42
0.0000000001
 43
0.0000000001
 40
0.0
 40
0.0
 40
0.0
 40
0.0
 40
1.0
 40
1.0
 40
1.0
 40
1.0
 10
-5.5737
 20
16.0702
 30
0.0
 10
-5.5737
 20
16.0702
 30
0.0
 10
-5.5509
 20
15.4182
 30
0.0
 10
-5.5509
 20
15.4182
 30
0.0
  0
SPLINE
  5
A3
330
1F
100
AcDbEntity
  8
ROUND
 62
   250
100
AcDbSpline
210
0.0
220
0.0
230
1.0
 70
    24
 71
     3
 72
     8
 73
     4
 74
     0
 42
0.0000000001
 43
0.0000000001
 40
0.0
 40
0.0
 40
0.0
 40
0.0
 40
1.0
 40
1.0
 40
1.0
 40
1.0
 10
-5.5509
 20
15.4182
 30
0.0
 10
-5.5509
 20
15.4182
 30
0.0
 10
-5.5509
 20
14.5591
 30
0.0
 10
-5.5509
 20
14.5591
 30
0.0
  0
SPLINE
  5
A4
330
1F
100
AcDbEntity
  8
ROUND
 62
   250
100
AcDbSpline
210
0.0
220
0.0
230
1.0
 70
    24
 71
     3
 72
     8
 73
     4
 74
     0
 42
0.0000000001
 43
0.0000000001
 40
0.0
 40
0.0
 40
0.0
 40
0.0
 40
1.0
 40
1.0
 40
1.0
 40
1.0
 10
-4.6918
 20
13.4813
 30
0.0
 10
-4.6918
 20
13.4813
 30
0.0
 10
-4.6918
 20
-6.2992
 30
0.0
 10
-4.6918
 20
-6.2992
 30
0.0
  0
SPLINE
  5
A5
330
1F
100
AcDbEntity
  8
ROUND
 62
   250
100
AcDbSpline
210
0.0
220
0.0
230
1.0
 70
    24
 71
     3
 72
     8
 73
     4
 74
     0
 42
0.0000000001
 43
0.0000000001
 40
0.0
 40
0.0
 40
0.0
 40
0.0
 40
1.0
 40
1.0
 40
1.0
 40
1.0
 10
-42.2811
 20
27.54
 30
0.0
 10
-42.2811
 20
27.54
 30
0.0
 10
-12.2096
 20
27.54
 30
0.0
 10
-12.2096
 20
27.54
 30
0.0
  0
SPLINE
  5
A6
330
1F
100
AcDbEntity
  8
ROUND
 62
   250
100
AcDbSpline
210
0.0
220
0.0
230
1.0
 70
    24
 71
     3
 72
     8
 73
     4
 74
     0
 42
0.0000000001
 43
0.0000000001
 40
0.0
 40
0.0
 40
0.0
 40
0.0
 40
1.0
 40
1.0
 40
1.0
 40
1.0
 10
-42.2811
 20
27.8764
 30
0.0
 10
-42.2811
 20
27.8764
 30
0.0
 10
-12.2096
 20
27.8764
 30
0.0
 10
-12.2096
 20
27.8764
 30
0.0
  0
SPLINE
  5
A7
330
1F
100
AcDbEntity
  8
ROUND
 62
   250
100
AcDbSpline
210
0.0
220
0.0
230
1.0
 70
     8
 71
     3
 72
    24
 73
    20
 74
     0
 42
0.0000000001
 43
0.0000000001
 40
0.0
 40
0.0
 40
0.0
 40
0.0
 40
0.1666666666666667
 40
0.1666666666666667
 40
0.1666666666666667
 40
0.1666666666666667
 40
0.3333333333333333
 40
0.3333333333333333
 40
0.3333333333333333
 40
0.3333333333333333
 40
0.5
 40
0.5
 40
0.5
 40
0.5
 40
0.6666666666666666
 40
0.6666666666666666
 40
0.6666666666666666
 40
0.6666666666666666
 40
1.0
 40
1.0
 40
1.0
 40
1.0
 10
-3.9412
 20
13.9449
 30
0.0
 10
-3.9412
 20
13.9449
 30
0.0
 10
-3.9645
 20
13.9776
 30
0.0
 10
-3.9645
 20
13.9776
 30
0.0
 10
-3.9645
 20
13.9776
 30
0.0
 10
-3.9645
 20
13.9776
 30
0.0
 10
-4.0321
 20
14.018
 30
0.0
 10
-4.0321
 20
14.018
 30
0.0
 10
-4.0321
 20
14.018
 30
0.0
 10
-4.0321
 20
14.018
 30
0.0
 10
-4.1202
 20
14.0114
 30
0.0
 10
-4.1202
 20
14.0114
 30
0.0
 10
-4.1202
 20
14.0114
 30
0.0
 10
-4.1202
 20
14.0114
 30
0.0
 10
-4.1753
 20
13.9704
 30
0.0
 10
-4.1753
 20
13.9704
 30
0.0
 10
-4.1753
 20
13.9704
 30
0.0
 10
-4.1753
 20
13.9704
 30
0.0
 10
-4.1922
 20
13.9448
 30
0.0
 10
-4.1922
 20
13.9448
 30
0.0
  0
SPLINE
  5
A8
330
1F
100
AcDbEntity
  8
ROUND
 62
   250
100
AcDbSpline
210
0.0
220
0.0
230
1.0
 70
    24
 71
     3
 72
     8
 73
     4
 74
     0
 42
0.0000000001
 43
0.0000000001
 40
0.0
 40
0.0
 40
0.0
 40
0.0
 40
1.0
 40
1.0
 40
1.0
 40
1.0
 10
-4.6784
 20
13.4558
 30
0.0
 10
-4.6784
 20
13.4558
 30
0.0
 10
-4.6918
 20
13.4815
 30
0.0
 10
-4.6918
 20
13.4815
 30
0.0
  0
SPLINE
  5
A9
330
1F
100
AcDbEntity
  8
ROUND
 62
   250
100
AcDbSpline
210
0.0
220
0.0
230
1.0
 70
    24
 71
     3
 72
     8
 73
     4
 74
     0
 42
0.0000000001
 43
0.0000000001
 40
0.0
 40
0.0
 40
0.0
 40
0.0
 40
1.0
 40
1.0
 40
1.0
 40
1.0
 10
-3.6865
 20
13.4558
 30
0.0
 10
-3.6865
 20
13.4558
 30
0.0
 10
-3.9412
 20
13.9449
 30
0.0
 10
-3.9412
 20
13.9449
 30
0.0
  0
SPLINE
  5
AA
330
1F
100
AcDbEntity
  8
ROUND
 62
   250
100
AcDbSpline
210
0.0
220
0.0
230
1.0
 70
     8
 71
     3
 72
    12
 73
     8
 74
     0
 42
0.0000000001
 43
0.0000000001
 40
0.0
 40
0.0
 40
0.0
 40
0.0
 40
0.3333333333333333
 40
0.3333333333333333
 40
0.3333333333333333
 40
0.3333333333333333
 40
1.0
 40
1.0
 40
1.0
 40
1.0
 10
-7.5506
 20
-5.6774
 30
0.0
 10
-7.5506
 20
-5.6774
 30
0.0
 10
-7.4731
 20
-5.6475
 30
0.0
 10
-7.4731
 20
-5.6475
 30
0.0
 10
-7.4731
 20
-5.6475
 30
0.0
 10
-7.4731
 20
-5.6475
 30
0.0
 10
-7.3579
 20
-5.6318
 30
0.0
 10
-7.3579
 20
-5.6318
 30
0.0
  0
SPLINE
  5
AB
330
1F
100
AcDbEntity
  8
ROUND
 62
   250
100
AcDbSpline
210
0.0
220
0.0
230
1.0
 70
    24
 71
     3
 72
     8
 73
     4
 74
     0
 42
0.0000000001
 43
0.0000000001
 40
0.0
 40
0.0
 40
0.0
 40
0.0
 40
1.0
 40
1.0
 40
1.0
 40
1.0
 10
-4.4371
 20
-6.3064
 30
0.0
 10
-4.4371
 20
-6.3064
 30
0.0
 10
-4.1824
 20
-5.8173
 30
0.0
 10
-4.1824
 20
-5.8173
 30
0.0
  0
SPLINE
  5
AC
330
1F
100
AcDbEntity
  8
ROUND
 62
   250
100
AcDbSpline
210
0.0
220
0.0
230
1.0
 70
    24
 71
     3
 72
     8
 73
     4
 74
     0
 42
0.0000000001
 43
0.0000000001
 40
0.0
 40
0.0
 40
0.0
 40
0.0
 40
1.0
 40
1.0
 40
1.0
 40
1.0
 10
-3.4452
 20
-6.3064
 30
0.0
 10
-3.4452
 20
-6.3064
 30
0.0
 10
-3.1905
 20
-5.8173
 30
0.0
 10
-3.1905
 20
-5.8173
 30
0.0
  0
SPLINE
  5
AD
330
1F
100
AcDbEntity
  8
ROUND
 62
   250
100
AcDbSpline
210
0.0
220
0.0
230
1.0
 70
     8
 71
     3
 72
     8
 73
     4
 74
     0
 42
0.0000000001
 43
0.0000000001
 40
0.0
 40
0.0
 40
0.0
 40
0.0
 40
1.0
 40
1.0
 40
1.0
 40
1.0
 10
-47.6509
 20
2.2162
 30
0.0
 10
-47.6509
 20
1.5908
 30
0.0
 10
-47.2019
 20
1.0556
 30
0.0
 10
-46.586
 20
0.947
 30
0.0
  0
SPLINE
  5
AE
330
1F
100
AcDbEntity
  8
ROUND
 62
   250
100
AcDbSpline
210
0.0
220
0.0
230
1.0
 70
     8
 71
     3
 72
     8
 73
     4
 74
     0
 42
0.0000000001
 43
0.0000000001
 40
0.0
 40
0.0
 40
0.0
 40
0.0
 40
1.0
 40
1.0
 40
1.0
 40
1.0
 10
-43.355
 20
-7.3501
 30
0.0
 10
-43.355
 20
-8.0619
 30
0.0
 10
-42.778
 20
-8.6389
 30
0.0
 10
-42.0663
 20
-8.6389
 30
0.0
  0
SPLINE
  5
AF
330
1F
100
AcDbEntity
  8
ROUND
 62
   250
100
AcDbSpline
210
0.0
220
0.0
230
1.0
 70
     8
 71
     3
 72
     8
 73
     4
 74
     0
 42
0.0000000001
 43
0.0000000001
 40
0.0
 40
0.0
 40
0.0
 40
0.0
 40
1.0
 40
1.0
 40
1.0
 40
1.0
 10
-8.3523
 20
-5.7946
 30
0.0
 10
-8.0794
 20
-5.8427
 30
0.0
 10
-7.7982
 20
-5.8016
 30
0.0
 10
-7.5506
 20
-5.6774
 30
0.0
  0
SPLINE
  5
B0
330
1F
100
AcDbEntity
  8
ROUND
 62
   250
100
AcDbSpline
210
0.0
220
0.0
230
1.0
 70
     8
 71
     3
 72
     8
 73
     4
 74
     0
 42
0.0000000001
 43
0.0000000001
 40
0.0
 40
0.0
 40
0.0
 40
0.0
 40
1.0
 40
1.0
 40
1.0
 40
1.0
 10
-12.4244
 20
-8.6389
 30
0.0
 10
-11.7126
 20
-8.6389
 30
0.0
 10
-11.1356
 20
-8.0619
 30
0.0
 10
-11.1356
 20
-7.3501
 30
0.0
  0
SPLINE
  5
B1
330
1F
100
AcDbEntity
  8
ROUND
 62
   250
100
AcDbSpline
210
0.0
220
0.0
230
1.0
 70
     8
 71
     3
 72
     8
 73
     4
 74
     0
 42
0.0000000001
 43
0.0000000001
 40
0.0
 40
0.0
 40
0.0
 40
0.0
 40
1.0
 40
1.0
 40
1.0
 40
1.0
 10
-4.6646
 20
13.3926
 30
0.0
 10
-4.6648
 20
13.3941
 30
0.0
 10
-4.665
 20
13.3956
 30
0.0
 10
-4.6652
 20
13.397
 30
0.0
  0
SPLINE
  5
B2
330
1F
100
AcDbEntity
  8
ROUND
 62
   250
100
AcDbSpline
210
0.0
220
0.0
230
1.0
 70
     8
 71
     3
 72
     8
 73
     4
 74
     0
 42
0.0000000001
 43
0.0000000001
 40
0.0
 40
0.0
 40
0.0
 40
0.0
 40
1.0
 40
1.0
 40
1.0
 40
1.0
 10
-10.6315
 20
-5.3927
 30
0.0
 10
-10.7566
 20
-5.3707
 30
0.0
 10
-10.885
 20
-5.4052
 30
0.0
 10
-10.9822
 20
-5.4868
 30
0.0
  0
SPLINE
  5
B3
330
1F
100
AcDbEntity
  8
ROUND
 62
   250
100
AcDbSpline
210
0.0
220
0.0
230
1.0
 70
     8
 71
     3
 72
     8
 73
     4
 74
     0
 42
0.0000000001
 43
0.0000000001
 40
0.0
 40
0.0
 40
0.0
 40
0.0
 40
1.0
 40
1.0
 40
1.0
 40
1.0
 10
-10.9822
 20
-5.4868
 30
0.0
 10
-11.0794
 20
-5.5684
 30
0.0
 10
-11.1356
 20
-5.6889
 30
0.0
 10
-11.1356
 20
-5.8158
 30
0.0
  0
SPLINE
  5
B4
330
1F
100
AcDbEntity
  8
ROUND
 62
   250
100
AcDbSpline
210
0.0
220
0.0
230
1.0
 70
     8
 71
     3
 72
    44
 73
    40
 74
     0
 42
0.0000000001
 43
0.0000000001
 40
0.0
 40
0.0
 40
0.0
 40
0.0
 40
0.0909090909090909
 40
0.0909090909090909
 40
0.0909090909090909
 40
0.0909090909090909
 40
0.1818181818181818
 40
0.1818181818181818
 40
0.1818181818181818
 40
0.1818181818181818
 40
0.2727272727272727
 40
0.2727272727272727
 40
0.2727272727272727
 40
0.2727272727272727
 40
0.3636363636363636
 40
0.3636363636363636
 40
0.3636363636363636
 40
0.3636363636363636
 40
0.4545454545454545
 40
0.4545454545454545
 40
0.4545454545454545
 40
0.4545454545454545
 40
0.5454545454545454
 40
0.5454545454545454
 40
0.5454545454545454
 40
0.5454545454545454
 40
0.6363636363636364
 40
0.6363636363636364
 40
0.6363636363636364
 40
0.6363636363636364
 40
0.7272727272727273
 40
0.7272727272727273
 40
0.7272727272727273
 40
0.7272727272727273
 40
0.8181818181818182
 40
0.8181818181818182
 40
0.8181818181818182
 40
0.8181818181818182
 40
1.0
 40
1.0
 40
1.0
 40
1.0
 10
-4.6898
 20
3.8193
 30
0.0
 10
-4.6898
 20
3.8193
 30
0.0
 10
-4.69
 20
3.8315
 30
0.0
 10
-4.69
 20
3.8315
 30
0.0
 10
-4.69
 20
3.8315
 30
0.0
 10
-4.69
 20
3.8315
 30
0.0
 10
-4.6902
 20
3.8437
 30
0.0
 10
-4.6902
 20
3.8437
 30
0.0
 10
-4.6902
 20
3.8437
 30
0.0
 10
-4.6902
 20
3.8437
 30
0.0
 10
-4.6904
 20
3.8559
 30
0.0
 10
-4.6904
 20
3.8559
 30
0.0
 10
-4.6904
 20
3.8559
 30
0.0
 10
-4.6904
 20
3.8559
 30
0.0
 10
-4.6906
 20
3.8681
 30
0.0
 10
-4.6906
 20
3.8681
 30
0.0
 10
-4.6906
 20
3.8681
 30
0.0
 10
-4.6906
 20
3.8681
 30
0.0
 10
-4.6908
 20
3.8804
 30
0.0
 10
-4.6908
 20
3.8804
 30
0.0
 10
-4.6908
 20
3.8804
 30
0.0
 10
-4.6908
 20
3.8804
 30
0.0
 10
-4.691
 20
3.8926
 30
0.0
 10
-4.691
 20
3.8926
 30
0.0
 10
-4.691
 20
3.8926
 30
0.0
 10
-4.691
 20
3.8926
 30
0.0
 10
-4.6912
 20
3.9048
 30
0.0
 10
-4.6912
 20
3.9048
 30
0.0
 10
-4.6912
 20
3.9048
 30
0.0
 10
-4.6912
 20
3.9048
 30
0.0
 10
-4.6914
 20
3.917
 30
0.0
 10
-4.6914
 20
3.917
 30
0.0
 10
-4.6914
 20
3.917
 30
0.0
 10
-4.6914
 20
3.917
 30
0.0
 10
-4.6915
 20
3.9292
 30
0.0
 10
-4.6915
 20
3.9292
 30
0.0
 10
-4.6915
 20
3.9292
 30
0.0
 10
-4.6915
 20
3.9292
 30
0.0
 10
-4.6918
 20
3.9414
 30
0.0
 10
-4.6918
 20
3.9414
 30
0.0
  0
SPLINE
  5
B5
330
1F
100
AcDbEntity
  8
ROUND
 62
   250
100
AcDbSpline
210
0.0
220
0.0
230
1.0
 70
     8
 71
     3
 72
    52
 73
    48
 74
     0
 42
0.0000000001
 43
0.0000000001
 40
0.0
 40
0.0
 40
0.0
 40
0.0
 40
0.0769230769230769
 40
0.0769230769230769
 40
0.0769230769230769
 40
0.0769230769230769
 40
0.1538461538461539
 40
0.1538461538461539
 40
0.1538461538461539
 40
0.1538461538461539
 40
0.2307692307692308
 40
0.2307692307692308
 40
0.2307692307692308
 40
0.2307692307692308
 40
0.3076923076923077
 40
0.3076923076923077
 40
0.3076923076923077
 40
0.3076923076923077
 40
0.3846153846153846
 40
0.3846153846153846
 40
0.3846153846153846
 40
0.3846153846153846
 40
0.4615384615384616
 40
0.4615384615384616
 40
0.4615384615384616
 40
0.4615384615384616
 40
0.5384615384615384
 40
0.5384615384615384
 40
0.5384615384615384
 40
0.5384615384615384
 40
0.6153846153846154
 40
0.6153846153846154
 40
0.6153846153846154
 40
0.6153846153846154
 40
0.6923076923076923
 40
0.6923076923076923
 40
0.6923076923076923
 40
0.6923076923076923
 40
0.7692307692307693
 40
0.7692307692307693
 40
0.7692307692307693
 40
0.7692307692307693
 40
0.8461538461538461
 40
0.8461538461538461
 40
0.8461538461538461
 40
0.8461538461538461
 40
1.0
 40
1.0
 40
1.0
 40
1.0
 10
-3.1882
 20
13.9383
 30
0.0
 10
-3.1882
 20
13.9383
 30
0.0
 10
-3.1887
 20
13.9399
 30
0.0
 10
-3.1887
 20
13.9399
 30
0.0
 10
-3.1887
 20
13.9399
 30
0.0
 10
-3.1887
 20
13.9399
 30
0.0
 10
-3.1894
 20
13.9418
 30
0.0
 10
-3.1894
 20
13.9418
 30
0.0
 10
-3.1894
 20
13.9418
 30
0.0
 10
-3.1894
 20
13.9418
 30
0.0
 10
-3.1902
 20
13.9436
 30
0.0
 10
-3.1902
 20
13.9436
 30
0.0
 10
-3.1902
 20
13.9436
 30
0.0
 10
-3.1902
 20
13.9436
 30
0.0
 10
-3.1912
 20
13.9456
 30
0.0
 10
-3.1912
 20
13.9456
 30
0.0
 10
-3.1912
 20
13.9456
 30
0.0
 10
-3.1912
 20
13.9456
 30
0.0
 10
-3.1915
 20
13.946
 30
0.0
 10
-3.1915
 20
13.946
 30
0.0
 10
-3.1915
 20
13.946
 30
0.0
 10
-3.1915
 20
13.946
 30
0.0
 10
-3.1926
 20
13.9479
 30
0.0
 10
-3.1926
 20
13.9479
 30
0.0
 10
-3.1926
 20
13.9479
 30
0.0
 10
-3.1926
 20
13.9479
 30
0.0
 10
-3.1942
 20
13.949
 30
0.0
 10
-3.1942
 20
13.949
 30
0.0
 10
-3.1942
 20
13.949
 30
0.0
 10
-3.1942
 20
13.949
 30
0.0
 10
-3.1952
 20
13.9492
 30
0.0
 10
-3.1952
 20
13.9492
 30
0.0
 10
-3.1952
 20
13.9492
 30
0.0
 10
-3.1952
 20
13.9492
 30
0.0
 10
-3.1973
 20
13.9488
 30
0.0
 10
-3.1973
 20
13.9488
 30
0.0
 10
-3.1973
 20
13.9488
 30
0.0
 10
-3.1973
 20
13.9488
 30
0.0
 10
-3.198
 20
13.9484
 30
0.0
 10
-3.198
 20
13.9484
 30
0.0
 10
-3.198
 20
13.9484
 30
0.0
 10
-3.198
 20
13.9484
 30
0.0
 10
-3.1993
 20
13.9467
 30
0.0
 10
-3.1993
 20
13.9467
 30
0.0
 10
-3.1993
 20
13.9467
 30
0.0
 10
-3.1993
 20
13.9467
 30
0.0
 10
-3.2003
 20
13.9449
 30
0.0
 10
-3.2003
 20
13.9449
 30
0.0
  0
SPLINE
  5
B6
330
1F
100
AcDbEntity
  8
ROUND
 62
   250
100
AcDbSpline
210
0.0
220
0.0
230
1.0
 70
     8
 71
     3
 72
    52
 73
    48
 74
     0
 42
0.0000000001
 43
0.0000000001
 40
0.0
 40
0.0
 40
0.0
 40
0.0
 40
0.0769230769230769
 40
0.0769230769230769
 40
0.0769230769230769
 40
0.0769230769230769
 40
0.1538461538461539
 40
0.1538461538461539
 40
0.1538461538461539
 40
0.1538461538461539
 40
0.2307692307692308
 40
0.2307692307692308
 40
0.2307692307692308
 40
0.2307692307692308
 40
0.3076923076923077
 40
0.3076923076923077
 40
0.3076923076923077
 40
0.3076923076923077
 40
0.3846153846153846
 40
0.3846153846153846
 40
0.3846153846153846
 40
0.3846153846153846
 40
0.4615384615384616
 40
0.4615384615384616
 40
0.4615384615384616
 40
0.4615384615384616
 40
0.5384615384615384
 40
0.5384615384615384
 40
0.5384615384615384
 40
0.5384615384615384
 40
0.6153846153846154
 40
0.6153846153846154
 40
0.6153846153846154
 40
0.6153846153846154
 40
0.6923076923076923
 40
0.6923076923076923
 40
0.6923076923076923
 40
0.6923076923076923
 40
0.7692307692307693
 40
0.7692307692307693
 40
0.7692307692307693
 40
0.7692307692307693
 40
0.8461538461538461
 40
0.8461538461538461
 40
0.8461538461538461
 40
0.8461538461538461
 40
1.0
 40
1.0
 40
1.0
 40
1.0
 10
-3.9509
 20
-5.8173
 30
0.0
 10
-3.9509
 20
-5.8173
 30
0.0
 10
-3.9541
 20
-5.8096
 30
0.0
 10
-3.9541
 20
-5.8096
 30
0.0
 10
-3.9541
 20
-5.8096
 30
0.0
 10
-3.9541
 20
-5.8096
 30
0.0
 10
-3.9564
 20
-5.8012
 30
0.0
 10
-3.9564
 20
-5.8012
 30
0.0
 10
-3.9564
 20
-5.8012
 30
0.0
 10
-3.9564
 20
-5.8012
 30
0.0
 10
-3.9566
 20
-5.8001
 30
0.0
 10
-3.9566
 20
-5.8001
 30
0.0
 10
-3.9566
 20
-5.8001
 30
0.0
 10
-3.9566
 20
-5.8001
 30
0.0
 10
-3.9594
 20
-5.7869
 30
0.0
 10
-3.9594
 20
-5.7869
 30
0.0
 10
-3.9594
 20
-5.7869
 30
0.0
 10
-3.9594
 20
-5.7869
 30
0.0
 10
-3.9618
 20
-5.7737
 30
0.0
 10
-3.9618
 20
-5.7737
 30
0.0
 10
-3.9618
 20
-5.7737
 30
0.0
 10
-3.9618
 20
-5.7737
 30
0.0
 10
-3.9637
 20
-5.7616
 30
0.0
 10
-3.9637
 20
-5.7616
 30
0.0
 10
-3.9637
 20
-5.7616
 30
0.0
 10
-3.9637
 20
-5.7616
 30
0.0
 10
-3.9655
 20
-5.7482
 30
0.0
 10
-3.9655
 20
-5.7482
 30
0.0
 10
-3.9655
 20
-5.7482
 30
0.0
 10
-3.9655
 20
-5.7482
 30
0.0
 10
-3.9672
 20
-5.7349
 30
0.0
 10
-3.9672
 20
-5.7349
 30
0.0
 10
-3.9672
 20
-5.7349
 30
0.0
 10
-3.9672
 20
-5.7349
 30
0.0
 10
-3.9684
 20
-5.7249
 30
0.0
 10
-3.9684
 20
-5.7249
 30
0.0
 10
-3.9684
 20
-5.7249
 30
0.0
 10
-3.9684
 20
-5.7249
 30
0.0
 10
-3.9699
 20
-5.7116
 30
0.0
 10
-3.9699
 20
-5.7116
 30
0.0
 10
-3.9699
 20
-5.7116
 30
0.0
 10
-3.9699
 20
-5.7116
 30
0.0
 10
-3.9713
 20
-5.6982
 30
0.0
 10
-3.9713
 20
-5.6982
 30
0.0
 10
-3.9713
 20
-5.6982
 30
0.0
 10
-3.9713
 20
-5.6982
 30
0.0
 10
-3.9726
 20
-5.6848
 30
0.0
 10
-3.9726
 20
-5.6848
 30
0.0
  0
SPLINE
  5
B7
330
1F
100
AcDbEntity
  8
ROUND
 62
   250
100
AcDbSpline
210
0.0
220
0.0
230
1.0
 70
     8
 71
     3
 72
   132
 73
   128
 74
     0
 42
0.0000000001
 43
0.0000000001
 40
0.0
 40
0.0
 40
0.0
 40
0.0
 40
0.0303030303030303
 40
0.0303030303030303
 40
0.0303030303030303
 40
0.0303030303030303
 40
0.0606060606060606
 40
0.0606060606060606
 40
0.0606060606060606
 40
0.0606060606060606
 40
0.0909090909090909
 40
0.0909090909090909
 40
0.0909090909090909
 40
0.0909090909090909
 40
0.1212121212121212
 40
0.1212121212121212
 40
0.1212121212121212
 40
0.1212121212121212
 40
0.1515151515151515
 40
0.1515151515151515
 40
0.1515151515151515
 40
0.1515151515151515
 40
0.1818181818181818
 40
0.1818181818181818
 40
0.1818181818181818
 40
0.1818181818181818
 40
0.2121212121212121
 40
0.2121212121212121
 40
0.2121212121212121
 40
0.2121212121212121
 40
0.2424242424242424
 40
0.2424242424242424
 40
0.2424242424242424
 40
0.2424242424242424
 40
0.2727272727272727
 40
0.2727272727272727
 40
0.2727272727272727
 40
0.2727272727272727
 40
0.303030303030303
 40
0.303030303030303
 40
0.303030303030303
 40
0.303030303030303
 40
0.3333333333333333
 40
0.3333333333333333
 40
0.3333333333333333
 40
0.3333333333333333
 40
0.3636363636363636
 40
0.3636363636363636
 40
0.3636363636363636
 40
0.3636363636363636
 40
0.3939393939393939
 40
0.3939393939393939
 40
0.3939393939393939
 40
0.3939393939393939
 40
0.4242424242424243
 40
0.4242424242424243
 40
0.4242424242424243
 40
0.4242424242424243
 40
0.4545454545454545
 40
0.4545454545454545
 40
0.4545454545454545
 40
0.4545454545454545
 40
0.4848484848484849
 40
0.4848484848484849
 40
0.4848484848484849
 40
0.4848484848484849
 40
0.5151515151515151
 40
0.5151515151515151
 40
0.5151515151515151
 40
0.5151515151515151
 40
0.5454545454545454
 40
0.5454545454545454
 40
0.5454545454545454
 40
0.5454545454545454
 40
0.5757575757575758
 40
0.5757575757575758
 40
0.5757575757575758
 40
0.5757575757575758
 40
0.6060606060606061
 40
0.6060606060606061
 40
0.6060606060606061
 40
0.6060606060606061
 40
0.6363636363636364
 40
0.6363636363636364
 40
0.6363636363636364
 40
0.6363636363636364
 40
0.6666666666666666
 40
0.6666666666666666
 40
0.6666666666666666
 40
0.6666666666666666
 40
0.696969696969697
 40
0.696969696969697
 40
0.696969696969697
 40
0.696969696969697
 40
0.7272727272727273
 40
0.7272727272727273
 40
0.7272727272727273
 40
0.7272727272727273
 40
0.7575757575757576
 40
0.7575757575757576
 40
0.7575757575757576
 40
0.7575757575757576
 40
0.7878787878787878
 40
0.7878787878787878
 40
0.7878787878787878
 40
0.7878787878787878
 40
0.8181818181818182
 40
0.8181818181818182
 40
0.8181818181818182
 40
0.8181818181818182
 40
0.8484848484848485
 40
0.8484848484848485
 40
0.8484848484848485
 40
0.8484848484848485
 40
0.8787878787878788
 40
0.8787878787878788
 40
0.8787878787878788
 40
0.8787878787878788
 40
0.9090909090909091
 40
0.9090909090909091
 40
0.9090909090909091
 40
0.9090909090909091
 40
0.9393939393939394
 40
0.9393939393939394
 40
0.9393939393939394
 40
0.9393939393939394
 40
1.0
 40
1.0
 40
1.0
 40
1.0
 10
-3.9726
 20
-5.6848
 30
0.0
 10
-3.9726
 20
-5.6848
 30
0.0
 10
-3.9875
 20
-5.491
 30
0.0
 10
-3.9875
 20
-5.491
 30
0.0
 10
-3.9875
 20
-5.491
 30
0.0
 10
-3.9875
 20
-5.491
 30
0.0
 10
-4.0023
 20
-5.2152
 30
0.0
 10
-4.0023
 20
-5.2152
 30
0.0
 10
-4.0023
 20
-5.2152
 30
0.0
 10
-4.0023
 20
-5.2152
 30
0.0
 10
-4.0288
 20
-4.5268
 30
0.0
 10
-4.0288
 20
-4.5268
 30
0.0
 10
-4.0288
 20
-4.5268
 30
0.0
 10
-4.0288
 20
-4.5268
 30
0.0
 10
-4.0319
 20
-4.4281
 30
0.0
 10
-4.0319
 20
-4.4281
 30
0.0
 10
-4.0319
 20
-4.4281
 30
0.0
 10
-4.0319
 20
-4.4281
 30
0.0
 10
-4.0616
 20
-3.3511
 30
0.0
 10
-4.0616
 20
-3.3511
 30
0.0
 10
-4.0616
 20
-3.3511
 30
0.0
 10
-4.0616
 20
-3.3511
 30
0.0
 10
-4.0912
 20
-2.022
 30
0.0
 10
-4.0912
 20
-2.022
 30
0.0
 10
-4.0912
 20
-2.022
 30
0.0
 10
-4.0912
 20
-2.022
 30
0.0
 10
-4.1209
 20
-0.4876
 30
0.0
 10
-4.1209
 20
-0.4876
 30
0.0
 10
-4.1209
 20
-0.4876
 30
0.0
 10
-4.1209
 20
-0.4876
 30
0.0
 10
-4.1505
 20
1.1981
 30
0.0
 10
-4.1505
 20
1.1981
 30
0.0
 10
-4.1505
 20
1.1981
 30
0.0
 10
-4.1505
 20
1.1981
 30
0.0
 10
-4.1802
 20
2.9761
 30
0.0
 10
-4.1802
 20
2.9761
 30
0.0
 10
-4.1802
 20
2.9761
 30
0.0
 10
-4.1802
 20
2.9761
 30
0.0
 10
-4.2098
 20
4.7836
 30
0.0
 10
-4.2098
 20
4.7836
 30
0.0
 10
-4.2098
 20
4.7836
 30
0.0
 10
-4.2098
 20
4.7836
 30
0.0
 10
-4.2394
 20
6.5572
 30
0.0
 10
-4.2394
 20
6.5572
 30
0.0
 10
-4.2394
 20
6.5572
 30
0.0
 10
-4.2394
 20
6.5572
 30
0.0
 10
-4.2691
 20
8.2346
 30
0.0
 10
-4.2691
 20
8.2346
 30
0.0
 10
-4.2691
 20
8.2346
 30
0.0
 10
-4.2691
 20
8.2346
 30
0.0
 10
-4.2987
 20
9.7568
 30
0.0
 10
-4.2987
 20
9.7568
 30
0.0
 10
-4.2987
 20
9.7568
 30
0.0
 10
-4.2987
 20
9.7568
 30
0.0
 10
-4.3284
 20
11.0703
 30
0.0
 10
-4.3284
 20
11.0703
 30
0.0
 10
-4.3284
 20
11.0703
 30
0.0
 10
-4.3284
 20
11.0703
 30
0.0
 10
-4.3432
 20
11.6341
 30
0.0
 10
-4.3432
 20
11.6341
 30
0.0
 10
-4.3432
 20
11.6341
 30
0.0
 10
-4.3432
 20
11.6341
 30
0.0
 10
-4.358
 20
12.1289
 30
0.0
 10
-4.358
 20
12.1289
 30
0.0
 10
-4.358
 20
12.1289
 30
0.0
 10
-4.358
 20
12.1289
 30
0.0
 10
-4.3654
 20
12.3492
 30
0.0
 10
-4.3654
 20
12.3492
 30
0.0
 10
-4.3654
 20
12.3492
 30
0.0
 10
-4.3654
 20
12.3492
 30
0.0
 10
-4.3728
 20
12.5507
 30
0.0
 10
-4.3728
 20
12.5507
 30
0.0
 10
-4.3728
 20
12.5507
 30
0.0
 10
-4.3728
 20
12.5507
 30
0.0
 10
-4.3802
 20
12.7329
 30
0.0
 10
-4.3802
 20
12.7329
 30
0.0
 10
-4.3802
 20
12.7329
 30
0.0
 10
-4.3802
 20
12.7329
 30
0.0
 10
-4.3877
 20
12.8955
 30
0.0
 10
-4.3877
 20
12.8955
 30
0.0
 10
-4.3877
 20
12.8955
 30
0.0
 10
-4.3877
 20
12.8955
 30
0.0
 10
-4.395
 20
13.0381
 30
0.0
 10
-4.395
 20
13.0381
 30
0.0
 10
-4.395
 20
13.0381
 30
0.0
 10
-4.395
 20
13.0381
 30
0.0
 10
-4.4025
 20
13.1604
 30
0.0
 10
-4.4025
 20
13.1604
 30
0.0
 10
-4.4025
 20
13.1604
 30
0.0
 10
-4.4025
 20
13.1604
 30
0.0
 10
-4.4099
 20
13.2621
 30
0.0
 10
-4.4099
 20
13.2621
 30
0.0
 10
-4.4099
 20
13.2621
 30
0.0
 10
-4.4099
 20
13.2621
 30
0.0
 10
-4.4173
 20
13.343
 30
0.0
 10
-4.4173
 20
13.343
 30
0.0
 10
-4.4173
 20
13.343
 30
0.0
 10
-4.4173
 20
13.343
 30
0.0
 10
-4.421
 20
13.3756
 30
0.0
 10
-4.421
 20
13.3756
 30
0.0
 10
-4.421
 20
13.3756
 30
0.0
 10
-4.421
 20
13.3756
 30
0.0
 10
-4.4247
 20
13.403
 30
0.0
 10
-4.4247
 20
13.403
 30
0.0
 10
-4.4247
 20
13.403
 30
0.0
 10
-4.4247
 20
13.403
 30
0.0
 10
-4.4284
 20
13.425
 30
0.0
 10
-4.4284
 20
13.425
 30
0.0
 10
-4.4284
 20
13.425
 30
0.0
 10
-4.4284
 20
13.425
 30
0.0
 10
-4.4321
 20
13.4418
 30
0.0
 10
-4.4321
 20
13.4418
 30
0.0
 10
-4.4321
 20
13.4418
 30
0.0
 10
-4.4321
 20
13.4418
 30
0.0
 10
-4.4358
 20
13.4532
 30
0.0
 10
-4.4358
 20
13.4532
 30
0.0
 10
-4.4358
 20
13.4532
 30
0.0
 10
-4.4358
 20
13.4532
 30
0.0
 10
-4.4395
 20
13.4594
 30
0.0
 10
-4.4395
 20
13.4594
 30
0.0
 10
-4.4395
 20
13.4594
 30
0.0
 10
-4.4395
 20
13.4594
 30
0.0
 10
-4.4432
 20
13.4603
 30
0.0
 10
-4.4432
 20
13.4603
 30
0.0
 10
-4.4432
 20
13.4603
 30
0.0
 10
-4.4432
 20
13.4603
 30
0.0
 10
-4.4469
 20
13.4558
 30
0.0
 10
-4.4469
 20
13.4558
 30
0.0
  0
SPLINE
  5
B8
330
1F
100
AcDbEntity
  8
ROUND
 62
   250
100
AcDbSpline
210
0.0
220
0.0
230
1.0
 70
     8
 71
     3
 72
   136
 73
   132
 74
     0
 42
0.0000000001
 43
0.0000000001
 40
0.0
 40
0.0
 40
0.0
 40
0.0
 40
0.0294117647058824
 40
0.0294117647058824
 40
0.0294117647058824
 40
0.0294117647058824
 40
0.0588235294117647
 40
0.0588235294117647
 40
0.0588235294117647
 40
0.0588235294117647
 40
0.0882352941176471
 40
0.0882352941176471
 40
0.0882352941176471
 40
0.0882352941176471
 40
0.1176470588235294
 40
0.1176470588235294
 40
0.1176470588235294
 40
0.1176470588235294
 40
0.1470588235294118
 40
0.1470588235294118
 40
0.1470588235294118
 40
0.1470588235294118
 40
0.1764705882352941
 40
0.1764705882352941
 40
0.1764705882352941
 40
0.1764705882352941
 40
0.2058823529411765
 40
0.2058823529411765
 40
0.2058823529411765
 40
0.2058823529411765
 40
0.2352941176470588
 40
0.2352941176470588
 40
0.2352941176470588
 40
0.2352941176470588
 40
0.2647058823529412
 40
0.2647058823529412
 40
0.2647058823529412
 40
0.2647058823529412
 40
0.2941176470588235
 40
0.2941176470588235
 40
0.2941176470588235
 40
0.2941176470588235
 40
0.3235294117647059
 40
0.3235294117647059
 40
0.3235294117647059
 40
0.3235294117647059
 40
0.3529411764705883
 40
0.3529411764705883
 40
0.3529411764705883
 40
0.3529411764705883
 40
0.3823529411764706
 40
0.3823529411764706
 40
0.3823529411764706
 40
0.3823529411764706
 40
0.4117647058823529
 40
0.4117647058823529
 40
0.4117647058823529
 40
0.4117647058823529
 40
0.4411764705882353
 40
0.4411764705882353
 40
0.4411764705882353
 40
0.4411764705882353
 40
0.4705882352941176
 40
0.4705882352941176
 40
0.4705882352941176
 40
0.4705882352941176
 40
0.5
 40
0.5
 40
0.5
 40
0.5
 40
0.5294117647058824
 40
0.5294117647058824
 40
0.5294117647058824
 40
0.5294117647058824
 40
0.5588235294117647
 40
0.5588235294117647
 40
0.5588235294117647
 40
0.5588235294117647
 40
0.5882352941176471
 40
0.5882352941176471
 40
0.5882352941176471
 40
0.5882352941176471
 40
0.6176470588235294
 40
0.6176470588235294
 40
0.6176470588235294
 40
0.6176470588235294
 40
0.6470588235294118
 40
0.6470588235294118
 40
0.6470588235294118
 40
0.6470588235294118
 40
0.6764705882352942
 40
0.6764705882352942
 40
0.6764705882352942
 40
0.6764705882352942
 40
0.7058823529411765
 40
0.7058823529411765
 40
0.7058823529411765
 40
0.7058823529411765
 40
0.7352941176470589
 40
0.7352941176470589
 40
0.7352941176470589
 40
0.7352941176470589
 40
0.7647058823529411
 40
0.7647058823529411
 40
0.7647058823529411
 40
0.7647058823529411
 40
0.7941176470588235
 40
0.7941176470588235
 40
0.7941176470588235
 40
0.7941176470588235
 40
0.8235294117647058
 40
0.8235294117647058
 40
0.8235294117647058
 40
0.8235294117647058
 40
0.8529411764705882
 40
0.8529411764705882
 40
0.8529411764705882
 40
0.8529411764705882
 40
0.8823529411764706
 40
0.8823529411764706
 40
0.8823529411764706
 40
0.8823529411764706
 40
0.9117647058823529
 40
0.9117647058823529
 40
0.9117647058823529
 40
0.9117647058823529
 40
0.9411764705882353
 40
0.9411764705882353
 40
0.9411764705882353
 40
0.9411764705882353
 40
1.0
 40
1.0
 40
1.0
 40
1.0
 10
-7.5563
 20
-4.4071
 30
0.0
 10
-7.5563
 20
-4.4071
 30
0.0
 10
-7.5491
 20
-4.421
 30
0.0
 10
-7.5491
 20
-4.421
 30
0.0
 10
-7.5491
 20
-4.421
 30
0.0
 10
-7.5491
 20
-4.421
 30
0.0
 10
-7.5211
 20
-4.4768
 30
0.0
 10
-7.5211
 20
-4.4768
 30
0.0
 10
-7.5211
 20
-4.4768
 30
0.0
 10
-7.5211
 20
-4.4768
 30
0.0
 10
-7.4954
 20
-4.532
 30
0.0
 10
-7.4954
 20
-4.532
 30
0.0
 10
-7.4954
 20
-4.532
 30
0.0
 10
-7.4954
 20
-4.532
 30
0.0
 10
-7.4718
 20
-4.5864
 30
0.0
 10
-7.4718
 20
-4.5864
 30
0.0
 10
-7.4718
 20
-4.5864
 30
0.0
 10
-7.4718
 20
-4.5864
 30
0.0
 10
-7.4503
 20
-4.6402
 30
0.0
 10
-7.4503
 20
-4.6402
 30
0.0
 10
-7.4503
 20
-4.6402
 30
0.0
 10
-7.4503
 20
-4.6402
 30
0.0
 10
-7.431
 20
-4.6934
 30
0.0
 10
-7.431
 20
-4.6934
 30
0.0
 10
-7.431
 20
-4.6934
 30
0.0
 10
-7.431
 20
-4.6934
 30
0.0
 10
-7.4136
 20
-4.7459
 30
0.0
 10
-7.4136
 20
-4.7459
 30
0.0
 10
-7.4136
 20
-4.7459
 30
0.0
 10
-7.4136
 20
-4.7459
 30
0.0
 10
-7.3982
 20
-4.7978
 30
0.0
 10
-7.3982
 20
-4.7978
 30
0.0
 10
-7.3982
 20
-4.7978
 30
0.0
 10
-7.3982
 20
-4.7978
 30
0.0
 10
-7.3848
 20
-4.8492
 30
0.0
 10
-7.3848
 20
-4.8492
 30
0.0
 10
-7.3848
 20
-4.8492
 30
0.0
 10
-7.3848
 20
-4.8492
 30
0.0
 10
-7.3733
 20
-4.9
 30
0.0
 10
-7.3733
 20
-4.9
 30
0.0
 10
-7.3733
 20
-4.9
 30
0.0
 10
-7.3733
 20
-4.9
 30
0.0
 10
-7.3672
 20
-4.9305
 30
0.0
 10
-7.3672
 20
-4.9305
 30
0.0
 10
-7.3672
 20
-4.9305
 30
0.0
 10
-7.3672
 20
-4.9305
 30
0.0
 10
-7.359
 20
-4.9784
 30
0.0
 10
-7.359
 20
-4.9784
 30
0.0
 10
-7.359
 20
-4.9784
 30
0.0
 10
-7.359
 20
-4.9784
 30
0.0
 10
-7.3527
 20
-5.0247
 30
0.0
 10
-7.3527
 20
-5.0247
 30
0.0
 10
-7.3527
 20
-5.0247
 30
0.0
 10
-7.3527
 20
-5.0247
 30
0.0
 10
-7.3483
 20
-5.0697
 30
0.0
 10
-7.3483
 20
-5.0697
 30
0.0
 10
-7.3483
 20
-5.0697
 30
0.0
 10
-7.3483
 20
-5.0697
 30
0.0
 10
-7.3457
 20
-5.1132
 30
0.0
 10
-7.3457
 20
-5.1132
 30
0.0
 10
-7.3457
 20
-5.1132
 30
0.0
 10
-7.3457
 20
-5.1132
 30
0.0
 10
-7.3449
 20
-5.1556
 30
0.0
 10
-7.3449
 20
-5.1556
 30
0.0
 10
-7.3449
 20
-5.1556
 30
0.0
 10
-7.3449
 20
-5.1556
 30
0.0
 10
-7.3457
 20
-5.1967
 30
0.0
 10
-7.3457
 20
-5.1967
 30
0.0
 10
-7.3457
 20
-5.1967
 30
0.0
 10
-7.3457
 20
-5.1967
 30
0.0
 10
-7.3482
 20
-5.2367
 30
0.0
 10
-7.3482
 20
-5.2367
 30
0.0
 10
-7.3482
 20
-5.2367
 30
0.0
 10
-7.3482
 20
-5.2367
 30
0.0
 10
-7.3523
 20
-5.2757
 30
0.0
 10
-7.3523
 20
-5.2757
 30
0.0
 10
-7.3523
 20
-5.2757
 30
0.0
 10
-7.3523
 20
-5.2757
 30
0.0
 10
-7.3558
 20
-5.3
 30
0.0
 10
-7.3558
 20
-5.3
 30
0.0
 10
-7.3558
 20
-5.3
 30
0.0
 10
-7.3558
 20
-5.3
 30
0.0
 10
-7.3624
 20
-5.3368
 30
0.0
 10
-7.3624
 20
-5.3368
 30
0.0
 10
-7.3624
 20
-5.3368
 30
0.0
 10
-7.3624
 20
-5.3368
 30
0.0
 10
-7.3704
 20
-5.3722
 30
0.0
 10
-7.3704
 20
-5.3722
 30
0.0
 10
-7.3704
 20
-5.3722
 30
0.0
 10
-7.3704
 20
-5.3722
 30
0.0
 10
-7.3798
 20
-5.4061
 30
0.0
 10
-7.3798
 20
-5.4061
 30
0.0
 10
-7.3798
 20
-5.4061
 30
0.0
 10
-7.3798
 20
-5.4061
 30
0.0
 10
-7.3906
 20
-5.4385
 30
0.0
 10
-7.3906
 20
-5.4385
 30
0.0
 10
-7.3906
 20
-5.4385
 30
0.0
 10
-7.3906
 20
-5.4385
 30
0.0
 10
-7.4027
 20
-5.4695
 30
0.0
 10
-7.4027
 20
-5.4695
 30
0.0
 10
-7.4027
 20
-5.4695
 30
0.0
 10
-7.4027
 20
-5.4695
 30
0.0
 10
-7.4159
 20
-5.4989
 30
0.0
 10
-7.4159
 20
-5.4989
 30
0.0
 10
-7.4159
 20
-5.4989
 30
0.0
 10
-7.4159
 20
-5.4989
 30
0.0
 10
-7.4303
 20
-5.527
 30
0.0
 10
-7.4303
 20
-5.527
 30
0.0
 10
-7.4303
 20
-5.527
 30
0.0
 10
-7.4303
 20
-5.527
 30
0.0
 10
-7.4336
 20
-5.5328
 30
0.0
 10
-7.4336
 20
-5.5328
 30
0.0
 10
-7.4336
 20
-5.5328
 30
0.0
 10
-7.4336
 20
-5.5328
 30
0.0
 10
-7.4499
 20
-5.5599
 30
0.0
 10
-7.4499
 20
-5.5599
 30
0.0
 10
-7.4499
 20
-5.5599
 30
0.0
 10
-7.4499
 20
-5.5599
 30
0.0
 10
-7.4676
 20
-5.5859
 30
0.0
 10
-7.4676
 20
-5.5859
 30
0.0
 10
-7.4676
 20
-5.5859
 30
0.0
 10
-7.4676
 20
-5.5859
 30
0.0
 10
-7.4866
 20
-5.6108
 30
0.0
 10
-7.4866
 20
-5.6108
 30
0.0
 10
-7.4866
 20
-5.6108
 30
0.0
 10
-7.4866
 20
-5.6108
 30
0.0
 10
-7.5069
 20
-5.6344
 30
0.0
 10
-7.5069
 20
-5.6344
 30
0.0
 10
-7.5069
 20
-5.6344
 30
0.0
 10
-7.5069
 20
-5.6344
 30
0.0
 10
-7.5281
 20
-5.6566
 30
0.0
 10
-7.5281
 20
-5.6566
 30
0.0
  0
SPLINE
  5
B9
330
1F
100
AcDbEntity
  8
ROUND
 62
   250
100
AcDbSpline
210
0.0
220
0.0
230
1.0
 70
     8
 71
     3
 72
    44
 73
    40
 74
     0
 42
0.0000000001
 43
0.0000000001
 40
0.0
 40
0.0
 40
0.0
 40
0.0
 40
0.0909090909090909
 40
0.0909090909090909
 40
0.0909090909090909
 40
0.0909090909090909
 40
0.1818181818181818
 40
0.1818181818181818
 40
0.1818181818181818
 40
0.1818181818181818
 40
0.2727272727272727
 40
0.2727272727272727
 40
0.2727272727272727
 40
0.2727272727272727
 40
0.3636363636363636
 40
0.3636363636363636
 40
0.3636363636363636
 40
0.3636363636363636
 40
0.4545454545454545
 40
0.4545454545454545
 40
0.4545454545454545
 40
0.4545454545454545
 40
0.5454545454545454
 40
0.5454545454545454
 40
0.5454545454545454
 40
0.5454545454545454
 40
0.6363636363636364
 40
0.6363636363636364
 40
0.6363636363636364
 40
0.6363636363636364
 40
0.7272727272727273
 40
0.7272727272727273
 40
0.7272727272727273
 40
0.7272727272727273
 40
0.8181818181818182
 40
0.8181818181818182
 40
0.8181818181818182
 40
0.8181818181818182
 40
1.0
 40
1.0
 40
1.0
 40
1.0
 10
-7.5281
 20
-5.6566
 30
0.0
 10
-7.5281
 20
-5.6566
 30
0.0
 10
-7.5304
 20
-5.6587
 30
0.0
 10
-7.5304
 20
-5.6587
 30
0.0
 10
-7.5304
 20
-5.6587
 30
0.0
 10
-7.5304
 20
-5.6587
 30
0.0
 10
-7.5326
 20
-5.6608
 30
0.0
 10
-7.5326
 20
-5.6608
 30
0.0
 10
-7.5326
 20
-5.6608
 30
0.0
 10
-7.5326
 20
-5.6608
 30
0.0
 10
-7.5348
 20
-5.6628
 30
0.0
 10
-7.5348
 20
-5.6628
 30
0.0
 10
-7.5348
 20
-5.6628
 30
0.0
 10
-7.5348
 20
-5.6628
 30
0.0
 10
-7.5371
 20
-5.6649
 30
0.0
 10
-7.5371
 20
-5.6649
 30
0.0
 10
-7.5371
 20
-5.6649
 30
0.0
 10
-7.5371
 20
-5.6649
 30
0.0
 10
-7.5394
 20
-5.667
 30
0.0
 10
-7.5394
 20
-5.667
 30
0.0
 10
-7.5394
 20
-5.667
 30
0.0
 10
-7.5394
 20
-5.667
 30
0.0
 10
-7.5416
 20
-5.6691
 30
0.0
 10
-7.5416
 20
-5.6691
 30
0.0
 10
-7.5416
 20
-5.6691
 30
0.0
 10
-7.5416
 20
-5.6691
 30
0.0
 10
-7.5438
 20
-5.6712
 30
0.0
 10
-7.5438
 20
-5.6712
 30
0.0
 10
-7.5438
 20
-5.6712
 30
0.0
 10
-7.5438
 20
-5.6712
 30
0.0
 10
-7.5461
 20
-5.6732
 30
0.0
 10
-7.5461
 20
-5.6732
 30
0.0
 10
-7.5461
 20
-5.6732
 30
0.0
 10
-7.5461
 20
-5.6732
 30
0.0
 10
-7.5483
 20
-5.6753
 30
0.0
 10
-7.5483
 20
-5.6753
 30
0.0
 10
-7.5483
 20
-5.6753
 30
0.0
 10
-7.5483
 20
-5.6753
 30
0.0
 10
-7.5506
 20
-5.6774
 30
0.0
 10
-7.5506
 20
-5.6774
 30
0.0
  0
SPLINE
  5
BA
330
1F
100
AcDbEntity
  8
ROUND
 62
   250
100
AcDbSpline
210
0.0
220
0.0
230
1.0
 70
     8
 71
     3
 72
    64
 73
    60
 74
     0
 42
0.0000000001
 43
0.0000000001
 40
0.0
 40
0.0
 40
0.0
 40
0.0
 40
0.0625
 40
0.0625
 40
0.0625
 40
0.0625
 40
0.125
 40
0.125
 40
0.125
 40
0.125
 40
0.1875
 40
0.1875
 40
0.1875
 40
0.1875
 40
0.25
 40
0.25
 40
0.25
 40
0.25
 40
0.3125
 40
0.3125
 40
0.3125
 40
0.3125
 40
0.375
 40
0.375
 40
0.375
 40
0.375
 40
0.4375
 40
0.4375
 40
0.4375
 40
0.4375
 40
0.5
 40
0.5
 40
0.5
 40
0.5
 40
0.5625
 40
0.5625
 40
0.5625
 40
0.5625
 40
0.625
 40
0.625
 40
0.625
 40
0.625
 40
0.6875
 40
0.6875
 40
0.6875
 40
0.6875
 40
0.75
 40
0.75
 40
0.75
 40
0.75
 40
0.8125
 40
0.8125
 40
0.8125
 40
0.8125
 40
0.875
 40
0.875
 40
0.875
 40
0.875
 40
1.0
 40
1.0
 40
1.0
 40
1.0
 10
-4.1873
 20
-5.8221
 30
0.0
 10
-4.1873
 20
-5.8221
 30
0.0
 10
-4.1893
 20
-5.8213
 30
0.0
 10
-4.1893
 20
-5.8213
 30
0.0
 10
-4.1893
 20
-5.8213
 30
0.0
 10
-4.1893
 20
-5.8213
 30
0.0
 10
-4.1907
 20
-5.82
 30
0.0
 10
-4.1907
 20
-5.82
 30
0.0
 10
-4.1907
 20
-5.82
 30
0.0
 10
-4.1907
 20
-5.82
 30
0.0
 10
-4.1931
 20
-5.8159
 30
0.0
 10
-4.1931
 20
-5.8159
 30
0.0
 10
-4.1931
 20
-5.8159
 30
0.0
 10
-4.1931
 20
-5.8159
 30
0.0
 10
-4.194
 20
-5.8136
 30
0.0
 10
-4.194
 20
-5.8136
 30
0.0
 10
-4.194
 20
-5.8136
 30
0.0
 10
-4.194
 20
-5.8136
 30
0.0
 10
-4.1979
 20
-5.8009
 30
0.0
 10
-4.1979
 20
-5.8009
 30
0.0
 10
-4.1979
 20
-5.8009
 30
0.0
 10
-4.1979
 20
-5.8009
 30
0.0
 10
-4.2006
 20
-5.7881
 30
0.0
 10
-4.2006
 20
-5.7881
 30
0.0
 10
-4.2006
 20
-5.7881
 30
0.0
 10
-4.2006
 20
-5.7881
 30
0.0
 10
-4.2008
 20
-5.7872
 30
0.0
 10
-4.2008
 20
-5.7872
 30
0.0
 10
-4.2008
 20
-5.7872
 30
0.0
 10
-4.2008
 20
-5.7872
 30
0.0
 10
-4.2033
 20
-5.7734
 30
0.0
 10
-4.2033
 20
-5.7734
 30
0.0
 10
-4.2033
 20
-5.7734
 30
0.0
 10
-4.2033
 20
-5.7734
 30
0.0
 10
-4.2054
 20
-5.7595
 30
0.0
 10
-4.2054
 20
-5.7595
 30
0.0
 10
-4.2054
 20
-5.7595
 30
0.0
 10
-4.2054
 20
-5.7595
 30
0.0
 10
-4.2073
 20
-5.7457
 30
0.0
 10
-4.2073
 20
-5.7457
 30
0.0
 10
-4.2073
 20
-5.7457
 30
0.0
 10
-4.2073
 20
-5.7457
 30
0.0
 10
-4.2077
 20
-5.742
 30
0.0
 10
-4.2077
 20
-5.742
 30
0.0
 10
-4.2077
 20
-5.742
 30
0.0
 10
-4.2077
 20
-5.742
 30
0.0
 10
-4.2094
 20
-5.7282
 30
0.0
 10
-4.2094
 20
-5.7282
 30
0.0
 10
-4.2094
 20
-5.7282
 30
0.0
 10
-4.2094
 20
-5.7282
 30
0.0
 10
-4.211
 20
-5.7142
 30
0.0
 10
-4.211
 20
-5.7142
 30
0.0
 10
-4.211
 20
-5.7142
 30
0.0
 10
-4.211
 20
-5.7142
 30
0.0
 10
-4.2125
 20
-5.7003
 30
0.0
 10
-4.2125
 20
-5.7003
 30
0.0
 10
-4.2125
 20
-5.7003
 30
0.0
 10
-4.2125
 20
-5.7003
 30
0.0
 10
-4.2139
 20
-5.6864
 30
0.0
 10
-4.2139
 20
-5.6864
 30
0.0
  0
SPLINE
  5
BB
330
1F
100
AcDbEntity
  8
ROUND
 62
   250
100
AcDbSpline
210
0.0
220
0.0
230
1.0
 70
     8
 71
     3
 72
    48
 73
    44
 74
     0
 42
0.0000000001
 43
0.0000000001
 40
0.0
 40
0.0
 40
0.0
 40
0.0
 40
0.0833333333333333
 40
0.0833333333333333
 40
0.0833333333333333
 40
0.0833333333333333
 40
0.1666666666666667
 40
0.1666666666666667
 40
0.1666666666666667
 40
0.1666666666666667
 40
0.25
 40
0.25
 40
0.25
 40
0.25
 40
0.3333333333333333
 40
0.3333333333333333
 40
0.3333333333333333
 40
0.3333333333333333
 40
0.4166666666666667
 40
0.4166666666666667
 40
0.4166666666666667
 40
0.4166666666666667
 40
0.5
 40
0.5
 40
0.5
 40
0.5
 40
0.5833333333333334
 40
0.5833333333333334
 40
0.5833333333333334
 40
0.5833333333333334
 40
0.6666666666666666
 40
0.6666666666666666
 40
0.6666666666666666
 40
0.6666666666666666
 40
0.75
 40
0.75
 40
0.75
 40
0.75
 40
0.8333333333333334
 40
0.8333333333333334
 40
0.8333333333333334
 40
0.8333333333333334
 40
1.0
 40
1.0
 40
1.0
 40
1.0
 10
-4.6549
 20
13.3051
 30
0.0
 10
-4.6549
 20
13.3051
 30
0.0
 10
-4.6557
 20
13.3128
 30
0.0
 10
-4.6557
 20
13.3128
 30
0.0
 10
-4.6557
 20
13.3128
 30
0.0
 10
-4.6557
 20
13.3128
 30
0.0
 10
-4.6565
 20
13.3216
 30
0.0
 10
-4.6565
 20
13.3216
 30
0.0
 10
-4.6565
 20
13.3216
 30
0.0
 10
-4.6565
 20
13.3216
 30
0.0
 10
-4.6573
 20
13.3303
 30
0.0
 10
-4.6573
 20
13.3303
 30
0.0
 10
-4.6573
 20
13.3303
 30
0.0
 10
-4.6573
 20
13.3303
 30
0.0
 10
-4.6575
 20
13.3314
 30
0.0
 10
-4.6575
 20
13.3314
 30
0.0
 10
-4.6575
 20
13.3314
 30
0.0
 10
-4.6575
 20
13.3314
 30
0.0
 10
-4.6583
 20
13.3402
 30
0.0
 10
-4.6583
 20
13.3402
 30
0.0
 10
-4.6583
 20
13.3402
 30
0.0
 10
-4.6583
 20
13.3402
 30
0.0
 10
-4.6593
 20
13.3489
 30
0.0
 10
-4.6593
 20
13.3489
 30
0.0
 10
-4.6593
 20
13.3489
 30
0.0
 10
-4.6593
 20
13.3489
 30
0.0
 10
-4.6602
 20
13.3577
 30
0.0
 10
-4.6602
 20
13.3577
 30
0.0
 10
-4.6602
 20
13.3577
 30
0.0
 10
-4.6602
 20
13.3577
 30
0.0
 10
-4.6613
 20
13.3664
 30
0.0
 10
-4.6613
 20
13.3664
 30
0.0
 10
-4.6613
 20
13.3664
 30
0.0
 10
-4.6613
 20
13.3664
 30
0.0
 10
-4.6623
 20
13.3752
 30
0.0
 10
-4.6623
 20
13.3752
 30
0.0
 10
-4.6623
 20
13.3752
 30
0.0
 10
-4.6623
 20
13.3752
 30
0.0
 10
-4.6634
 20
13.3839
 30
0.0
 10
-4.6634
 20
13.3839
 30
0.0
 10
-4.6634
 20
13.3839
 30
0.0
 10
-4.6634
 20
13.3839
 30
0.0
 10
-4.6646
 20
13.3926
 30
0.0
 10
-4.6646
 20
13.3926
 30
0.0
  0
SPLINE
  5
BC
330
1F
100
AcDbEntity
  8
ROUND
 62
   250
100
AcDbSpline
210
0.0
220
0.0
230
1.0
 70
     8
 71
     3
 72
    48
 73
    44
 74
     0
 42
0.0000000001
 43
0.0000000001
 40
0.0
 40
0.0
 40
0.0
 40
0.0
 40
0.0833333333333333
 40
0.0833333333333333
 40
0.0833333333333333
 40
0.0833333333333333
 40
0.1666666666666667
 40
0.1666666666666667
 40
0.1666666666666667
 40
0.1666666666666667
 40
0.25
 40
0.25
 40
0.25
 40
0.25
 40
0.3333333333333333
 40
0.3333333333333333
 40
0.3333333333333333
 40
0.3333333333333333
 40
0.4166666666666667
 40
0.4166666666666667
 40
0.4166666666666667
 40
0.4166666666666667
 40
0.5
 40
0.5
 40
0.5
 40
0.5
 40
0.5833333333333334
 40
0.5833333333333334
 40
0.5833333333333334
 40
0.5833333333333334
 40
0.6666666666666666
 40
0.6666666666666666
 40
0.6666666666666666
 40
0.6666666666666666
 40
0.75
 40
0.75
 40
0.75
 40
0.75
 40
0.8333333333333334
 40
0.8333333333333334
 40
0.8333333333333334
 40
0.8333333333333334
 40
1.0
 40
1.0
 40
1.0
 40
1.0
 10
-4.6652
 20
13.397
 30
0.0
 10
-4.6652
 20
13.397
 30
0.0
 10
-4.6655
 20
13.3991
 30
0.0
 10
-4.6655
 20
13.3991
 30
0.0
 10
-4.6655
 20
13.3991
 30
0.0
 10
-4.6655
 20
13.3991
 30
0.0
 10
-4.6664
 20
13.405
 30
0.0
 10
-4.6664
 20
13.405
 30
0.0
 10
-4.6664
 20
13.405
 30
0.0
 10
-4.6664
 20
13.405
 30
0.0
 10
-4.6674
 20
13.411
 30
0.0
 10
-4.6674
 20
13.411
 30
0.0
 10
-4.6674
 20
13.411
 30
0.0
 10
-4.6674
 20
13.411
 30
0.0
 10
-4.6683
 20
13.4169
 30
0.0
 10
-4.6683
 20
13.4169
 30
0.0
 10
-4.6683
 20
13.4169
 30
0.0
 10
-4.6683
 20
13.4169
 30
0.0
 10
-4.6694
 20
13.4229
 30
0.0
 10
-4.6694
 20
13.4229
 30
0.0
 10
-4.6694
 20
13.4229
 30
0.0
 10
-4.6694
 20
13.4229
 30
0.0
 10
-4.6706
 20
13.4288
 30
0.0
 10
-4.6706
 20
13.4288
 30
0.0
 10
-4.6706
 20
13.4288
 30
0.0
 10
-4.6706
 20
13.4288
 30
0.0
 10
-4.6718
 20
13.4347
 30
0.0
 10
-4.6718
 20
13.4347
 30
0.0
 10
-4.6718
 20
13.4347
 30
0.0
 10
-4.6718
 20
13.4347
 30
0.0
 10
-4.6726
 20
13.4386
 30
0.0
 10
-4.6726
 20
13.4386
 30
0.0
 10
-4.6726
 20
13.4386
 30
0.0
 10
-4.6726
 20
13.4386
 30
0.0
 10
-4.6741
 20
13.4445
 30
0.0
 10
-4.6741
 20
13.4445
 30
0.0
 10
-4.6741
 20
13.4445
 30
0.0
 10
-4.6741
 20
13.4445
 30
0.0
 10
-4.676
 20
13.4502
 30
0.0
 10
-4.676
 20
13.4502
 30
0.0
 10
-4.676
 20
13.4502
 30
0.0
 10
-4.676
 20
13.4502
 30
0.0
 10
-4.6784
 20
13.4557
 30
0.0
 10
-4.6784
 20
13.4557
 30
0.0
  0
SPLINE
  5
BD
330
1F
100
AcDbEntity
  8
ROUND
 62
   250
100
AcDbSpline
210
0.0
220
0.0
230
1.0
 70
    24
 71
     3
 72
     8
 73
     4
 74
     0
 42
0.0000000001
 43
0.0000000001
 40
0.0
 40
0.0
 40
0.0
 40
0.0
 40
1.0
 40
1.0
 40
1.0
 40
1.0
 10
-42.2811
 20
26.5876
 30
0.0
 10
-42.2811
 20
26.5876
 30
0.0
 10
-42.2811
 20
25.7285
 30
0.0
 10
-42.2811
 20
25.7285
 30
0.0
  0
SPLINE
  5
BE
330
1F
100
AcDbEntity
  8
ROUND
 62
   250
100
AcDbSpline
210
0.0
220
0.0
230
1.0
 70
    24
 71
     3
 72
     8
 73
     4
 74
     0
 42
0.0000000001
 43
0.0000000001
 40
0.0
 40
0.0
 40
0.0
 40
0.0
 40
1.0
 40
1.0
 40
1.0
 40
1.0
 10
-7.3579
 20
-5.6318
 30
0.0
 10
-7.3579
 20
-5.6318
 30
0.0
 10
-4.6918
 20
-5.6318
 30
0.0
 10
-4.6918
 20
-5.6318
 30
0.0
  0
SPLINE
  5
BF
330
1F
100
AcDbEntity
  8
ROUND
 62
   250
100
AcDbSpline
210
0.0
220
0.0
230
1.0
 70
    24
 71
     3
 72
     8
 73
     4
 74
     0
 42
0.0000000001
 43
0.0000000001
 40
0.0
 40
0.0
 40
0.0
 40
0.0
 40
1.0
 40
1.0
 40
1.0
 40
1.0
 10
-6.4101
 20
13.2703
 30
0.0
 10
-6.4101
 20
13.2703
 30
0.0
 10
-4.6918
 20
13.2703
 30
0.0
 10
-4.6918
 20
13.2703
 30
0.0
  0
SPLINE
  5
C0
330
1F
100
AcDbEntity
  8
ROUND
 62
   250
100
AcDbSpline
210
0.0
220
0.0
230
1.0
 70
    24
 71
     3
 72
     8
 73
     4
 74
     0
 42
0.0000000001
 43
0.0000000001
 40
0.0
 40
0.0
 40
0.0
 40
0.0
 40
1.0
 40
1.0
 40
1.0
 40
1.0
 10
-12.2096
 20
26.5876
 30
0.0
 10
-12.2096
 20
26.5876
 30
0.0
 10
-12.2096
 20
25.7285
 30
0.0
 10
-12.2096
 20
25.7285
 30
0.0
  0
SPLINE
  5
C1
330
1F
100
AcDbEntity
  8
ROUND
 62
   250
100
AcDbSpline
210
0.0
220
0.0
230
1.0
 70
    24
 71
     3
 72
     8
 73
     4
 74
     0
 42
0.0000000001
 43
0.0000000001
 40
0.0
 40
0.0
 40
0.0
 40
0.0
 40
1.0
 40
1.0
 40
1.0
 40
1.0
 10
-12.2096
 20
25.7285
 30
0.0
 10
-12.2096
 20
25.7285
 30
0.0
 10
-42.2811
 20
25.7285
 30
0.0
 10
-42.2811
 20
25.7285
 30
0.0
  0
SPLINE
  5
C2
330
1F
100
AcDbEntity
  8
ROUND
 62
   250
100
AcDbSpline
210
0.0
220
0.0
230
1.0
 70
    24
 71
     3
 72
     8
 73
     4
 74
     0
 42
0.0000000001
 43
0.0000000001
 40
0.0
 40
0.0
 40
0.0
 40
0.0
 40
1.0
 40
1.0
 40
1.0
 40
1.0
 10
-12.2096
 20
26.5876
 30
0.0
 10
-12.2096
 20
26.5876
 30
0.0
 10
-42.2811
 20
26.5876
 30
0.0
 10
-42.2811
 20
26.5876
 30
0.0
  0
SPLINE
  5
C3
330
1F
100
AcDbEntity
  8
ROUND
 62
   250
100
AcDbSpline
210
0.0
220
0.0
230
1.0
 70
    24
 71
     3
 72
     8
 73
     4
 74
     0
 42
0.0000000001
 43
0.0000000001
 40
0.0
 40
0.0
 40
0.0
 40
0.0
 40
1.0
 40
1.0
 40
1.0
 40
1.0
 10
-4.1329
 20
-5.7664
 30
0.0
 10
-4.1329
 20
-5.7664
 30
0.0
 10
-4.0666
 20
-5.7488
 30
0.0
 10
-4.0666
 20
-5.7488
 30
0.0
  0
SPLINE
  5
C4
330
1F
100
AcDbEntity
  8
ROUND
 62
   250
100
AcDbSpline
210
0.0
220
0.0
230
1.0
 70
     8
 71
     3
 72
    16
 73
    12
 74
     0
 42
0.0000000001
 43
0.0000000001
 40
0.0
 40
0.0
 40
0.0
 40
0.0
 40
0.25
 40
0.25
 40
0.25
 40
0.25
 40
0.5
 40
0.5
 40
0.5
 40
0.5
 40
1.0
 40
1.0
 40
1.0
 40
1.0
 10
-4.067
 20
-5.7488
 30
0.0
 10
-4.067
 20
-5.7488
 30
0.0
 10
-4.0
 20
-5.7667
 30
0.0
 10
-4.0
 20
-5.7667
 30
0.0
 10
-4.0
 20
-5.7667
 30
0.0
 10
-4.0
 20
-5.7667
 30
0.0
 10
-3.9613
 20
-5.8009
 30
0.0
 10
-3.9613
 20
-5.8009
 30
0.0
 10
-3.9613
 20
-5.8009
 30
0.0
 10
-3.9613
 20
-5.8009
 30
0.0
 10
-3.9509
 20
-5.8173
 30
0.0
 10
-3.9509
 20
-5.8173
 30
0.0
  0
SPLINE
  5
C5
330
1F
100
AcDbEntity
  8
ROUND
 62
   250
100
AcDbSpline
210
0.0
220
0.0
230
1.0
 70
    24
 71
     3
 72
     8
 73
     4
 74
     0
 42
0.0000000001
 43
0.0000000001
 40
0.0
 40
0.0
 40
0.0
 40
0.0
 40
1.0
 40
1.0
 40
1.0
 40
1.0
 10
-3.509
 20
13.4025
 30
0.0
 10
-3.509
 20
13.4025
 30
0.0
 10
-3.5711
 20
13.3874
 30
0.0
 10
-3.5711
 20
13.3874
 30
0.0
  0
SPLINE
  5
C6
330
1F
100
AcDbEntity
  8
ROUND
 62
   250
100
AcDbSpline
210
0.0
220
0.0
230
1.0
 70
    24
 71
     3
 72
     8
 73
     4
 74
     0
 42
0.0000000001
 43
0.0000000001
 40
0.0
 40
0.0
 40
0.0
 40
0.0
 40
1.0
 40
1.0
 40
1.0
 40
1.0
 10
-48.5101
 20
14.1295
 30
0.0
 10
-48.5101
 20
14.1295
 30
0.0
 10
-5.9805
 20
14.1295
 30
0.0
 10
-5.9805
 20
14.1295
 30
0.0
  0
SPLINE
  5
C7
330
1F
100
AcDbEntity
  8
ROUND
 62
   250
100
AcDbSpline
210
0.0
220
0.0
230
1.0
 70
    24
 71
     3
 72
     8
 73
     4
 74
     0
 42
0.0000000001
 43
0.0000000001
 40
0.0
 40
0.0
 40
0.0
 40
0.0
 40
1.0
 40
1.0
 40
1.0
 40
1.0
 10
-48.7023
 20
16.2774
 30
0.0
 10
-48.7023
 20
16.2774
 30
0.0
 10
-5.7884
 20
16.2774
 30
0.0
 10
-5.7884
 20
16.2774
 30
0.0
  0
SPLINE
  5
C8
330
1F
100
AcDbEntity
  8
ROUND
 62
   250
100
AcDbSpline
210
0.0
220
0.0
230
1.0
 70
     8
 71
     3
 72
    16
 73
    12
 74
     0
 42
0.0000000001
 43
0.0000000001
 40
0.0
 40
0.0
 40
0.0
 40
0.0
 40
0.25
 40
0.25
 40
0.25
 40
0.25
 40
0.5
 40
0.5
 40
0.5
 40
0.5
 40
1.0
 40
1.0
 40
1.0
 40
1.0
 10
-3.5702
 20
13.3874
 30
0.0
 10
-3.5702
 20
13.3874
 30
0.0
 10
-3.6415
 20
13.4077
 30
0.0
 10
-3.6415
 20
13.4077
 30
0.0
 10
-3.6415
 20
13.4077
 30
0.0
 10
-3.6415
 20
13.4077
 30
0.0
 10
-3.6775
 20
13.4414
 30
0.0
 10
-3.6775
 20
13.4414
 30
0.0
 10
-3.6775
 20
13.4414
 30
0.0
 10
-3.6775
 20
13.4414
 30
0.0
 10
-3.6865
 20
13.4558
 30
0.0
 10
-3.6865
 20
13.4558
 30
0.0
  0
SPLINE
  5
C9
330
1F
100
AcDbEntity
  8
ROUND
 62
   250
100
AcDbSpline
210
0.0
220
0.0
230
1.0
 70
    24
 71
     3
 72
     8
 73
     4
 74
     0
 42
0.0000000001
 43
0.0000000001
 40
0.0
 40
0.0
 40
0.0
 40
0.0
 40
1.0
 40
1.0
 40
1.0
 40
1.0
 10
-3.4501
 20
13.4606
 30
0.0
 10
-3.4501
 20
13.4606
 30
0.0
 10
-3.455
 20
13.4558
 30
0.0
 10
-3.455
 20
13.4558
 30
0.0
  0
SPLINE
  5
CA
330
1F
100
AcDbEntity
  8
ROUND
 62
   250
100
AcDbSpline
210
0.0
220
0.0
230
1.0
 70
     8
 71
     3
 72
    12
 73
     8
 74
     0
 42
0.0000000001
 43
0.0000000001
 40
0.0
 40
0.0
 40
0.0
 40
0.0
 40
0.3333333333333333
 40
0.3333333333333333
 40
0.3333333333333333
 40
0.3333333333333333
 40
1.0
 40
1.0
 40
1.0
 40
1.0
 10
-4.5856
 20
13.3893
 30
0.0
 10
-4.5856
 20
13.3893
 30
0.0
 10
-4.6464
 20
13.417
 30
0.0
 10
-4.6464
 20
13.417
 30
0.0
 10
-4.6464
 20
13.417
 30
0.0
 10
-4.6464
 20
13.417
 30
0.0
 10
-4.6725
 20
13.4458
 30
0.0
 10
-4.6725
 20
13.4458
 30
0.0
  0
SPLINE
  5
CB
330
1F
100
AcDbEntity
  8
ROUND
 62
   250
100
AcDbSpline
210
0.0
220
0.0
230
1.0
 70
     8
 71
     3
 72
    16
 73
    12
 74
     0
 42
0.0000000001
 43
0.0000000001
 40
0.0
 40
0.0
 40
0.0
 40
0.0
 40
0.25
 40
0.25
 40
0.25
 40
0.25
 40
0.5
 40
0.5
 40
0.5
 40
0.5
 40
1.0
 40
1.0
 40
1.0
 40
1.0
 10
-4.4469
 20
13.4558
 30
0.0
 10
-4.4469
 20
13.4558
 30
0.0
 10
-4.4603
 20
13.4356
 30
0.0
 10
-4.4603
 20
13.4356
 30
0.0
 10
-4.4603
 20
13.4356
 30
0.0
 10
-4.4603
 20
13.4356
 30
0.0
 10
-4.5072
 20
13.3994
 30
0.0
 10
-4.5072
 20
13.3994
 30
0.0
 10
-4.5072
 20
13.3994
 30
0.0
 10
-4.5072
 20
13.3994
 30
0.0
 10
-4.5856
 20
13.3893
 30
0.0
 10
-4.5856
 20
13.3893
 30
0.0
  0
SPLINE
  5
CC
330
1F
100
AcDbEntity
  8
ROUND
 62
   250
100
AcDbSpline
210
0.0
220
0.0
230
1.0
 70
     8
 71
     3
 72
    12
 73
     8
 74
     0
 42
0.0000000001
 43
0.0000000001
 40
0.0
 40
0.0
 40
0.0
 40
0.0
 40
0.3333333333333333
 40
0.3333333333333333
 40
0.3333333333333333
 40
0.3333333333333333
 40
1.0
 40
1.0
 40
1.0
 40
1.0
 10
-3.455
 20
13.4558
 30
0.0
 10
-3.455
 20
13.4558
 30
0.0
 10
-3.4664
 20
13.438
 30
0.0
 10
-3.4664
 20
13.438
 30
0.0
 10
-3.4664
 20
13.438
 30
0.0
 10
-3.4664
 20
13.438
 30
0.0
 10
-3.509
 20
13.4025
 30
0.0
 10
-3.509
 20
13.4025
 30
0.0
  0
SPLINE
  5
CD
330
1F
100
AcDbEntity
  8
ROUND
 62
   250
100
AcDbSpline
210
0.0
220
0.0
230
1.0
 70
    24
 71
     3
 72
     8
 73
     4
 74
     0
 42
0.0000000001
 43
0.0000000001
 40
0.0
 40
0.0
 40
0.0
 40
0.0
 40
1.0
 40
1.0
 40
1.0
 40
1.0
 10
-4.6725
 20
13.4458
 30
0.0
 10
-4.6725
 20
13.4458
 30
0.0
 10
-4.6784
 20
13.4559
 30
0.0
 10
-4.6784
 20
13.4559
 30
0.0
  0
SPLINE
  5
CE
330
1F
100
AcDbEntity
  8
ROUND
 62
   250
100
AcDbSpline
210
0.0
220
0.0
230
1.0
 70
     8
 71
     3
 72
    12
 73
     8
 74
     0
 42
0.0000000001
 43
0.0000000001
 40
0.0
 40
0.0
 40
0.0
 40
0.0
 40
0.3333333333333333
 40
0.3333333333333333
 40
0.3333333333333333
 40
0.3333333333333333
 40
1.0
 40
1.0
 40
1.0
 40
1.0
 10
-4.1824
 20
-5.8173
 30
0.0
 10
-4.1824
 20
-5.8173
 30
0.0
 10
-4.1729
 20
-5.8021
 30
0.0
 10
-4.1729
 20
-5.8021
 30
0.0
 10
-4.1729
 20
-5.8021
 30
0.0
 10
-4.1729
 20
-5.8021
 30
0.0
 10
-4.1329
 20
-5.7664
 30
0.0
 10
-4.1329
 20
-5.7664
 30
0.0
  0
SPLINE
  5
CF
330
1F
100
AcDbEntity
  8
ROUND
 62
   250
100
AcDbSpline
210
0.0
220
0.0
230
1.0
 70
    24
 71
     3
 72
     8
 73
     4
 74
     0
 42
0.0000000001
 43
0.0000000001
 40
0.0
 40
0.0
 40
0.0
 40
0.0
 40
1.0
 40
1.0
 40
1.0
 40
1.0
 10
-4.1824
 20
-5.8173
 30
0.0
 10
-4.1824
 20
-5.8173
 30
0.0
 10
-4.1873
 20
-5.8221
 30
0.0
 10
-4.1873
 20
-5.8221
 30
0.0
  0
SPLINE
  5
D0
330
1F
100
AcDbEntity
  8
ROUND
 62
   250
100
AcDbSpline
210
0.0
220
0.0
230
1.0
 70
    24
 71
     3
 72
     8
 73
     4
 74
     0
 42
0.0000000001
 43
0.0000000001
 40
0.0
 40
0.0
 40
0.0
 40
0.0
 40
1.0
 40
1.0
 40
1.0
 40
1.0
 10
-3.1905
 20
-5.8173
 30
0.0
 10
-3.1905
 20
-5.8173
 30
0.0
 10
-3.1954
 20
-5.8221
 30
0.0
 10
-3.1954
 20
-5.8221
 30
0.0
  0
SPLINE
  5
D1
330
1F
100
AcDbEntity
  8
ROUND
 62
   250
100
AcDbSpline
210
0.0
220
0.0
230
1.0
 70
     8
 71
     3
 72
     8
 73
     4
 74
     0
 42
0.0000000001
 43
0.0000000001
 40
0.0
 40
0.0
 40
0.0
 40
0.0
 40
1.0
 40
1.0
 40
1.0
 40
1.0
 10
-48.9397
 20
14.5591
 30
0.0
 10
-48.9397
 20
14.3218
 30
0.0
 10
-48.7474
 20
14.1295
 30
0.0
 10
-48.5101
 20
14.1295
 30
0.0
  0
SPLINE
  5
D2
330
1F
100
AcDbEntity
  8
ROUND
 62
   250
100
AcDbSpline
210
0.0
220
0.0
230
1.0
 70
     8
 71
     3
 72
     8
 73
     4
 74
     0
 42
0.0000000001
 43
0.0000000001
 40
0.0
 40
0.0
 40
0.0
 40
0.0
 40
1.0
 40
1.0
 40
1.0
 40
1.0
 10
-47.651
 20
13.6999
 30
0.0
 10
-47.651
 20
13.9371
 30
0.0
 10
-47.8433
 20
14.1295
 30
0.0
 10
-48.0806
 20
14.1295
 30
0.0
  0
SPLINE
  5
D3
330
1F
100
AcDbEntity
  8
ROUND
 62
   250
100
AcDbSpline
210
0.0
220
0.0
230
1.0
 70
     8
 71
     3
 72
     8
 73
     4
 74
     0
 42
0.0000000001
 43
0.0000000001
 40
0.0
 40
0.0
 40
0.0
 40
0.0
 40
1.0
 40
1.0
 40
1.0
 40
1.0
 10
-48.7023
 20
16.2774
 30
0.0
 10
-48.818
 20
16.2774
 30
0.0
 10
-48.9129
 20
16.1858
 30
0.0
 10
-48.917
 20
16.0702
 30
0.0
  0
SPLINE
  5
D4
330
1F
100
AcDbEntity
  8
ROUND
 62
   250
100
AcDbSpline
210
0.0
220
0.0
230
1.0
 70
     8
 71
     3
 72
     8
 73
     4
 74
     0
 42
0.0000000001
 43
0.0000000001
 40
0.0
 40
0.0
 40
0.0
 40
0.0
 40
1.0
 40
1.0
 40
1.0
 40
1.0
 10
-5.9805
 20
14.1295
 30
0.0
 10
-5.7433
 20
14.1295
 30
0.0
 10
-5.5509
 20
14.3218
 30
0.0
 10
-5.5509
 20
14.5591
 30
0.0
  0
SPLINE
  5
D5
330
1F
100
AcDbEntity
  8
ROUND
 62
   250
100
AcDbSpline
210
0.0
220
0.0
230
1.0
 70
     8
 71
     3
 72
     8
 73
     4
 74
     0
 42
0.0000000001
 43
0.0000000001
 40
0.0
 40
0.0
 40
0.0
 40
0.0
 40
1.0
 40
1.0
 40
1.0
 40
1.0
 10
-6.4101
 20
14.1295
 30
0.0
 10
-6.5241
 20
14.1295
 30
0.0
 10
-6.6333
 20
14.0842
 30
0.0
 10
-6.7139
 20
14.0036
 30
0.0
  0
SPLINE
  5
D6
330
1F
100
AcDbEntity
  8
ROUND
 62
   250
100
AcDbSpline
210
0.0
220
0.0
230
1.0
 70
     8
 71
     3
 72
     8
 73
     4
 74
     0
 42
0.0000000001
 43
0.0000000001
 40
0.0
 40
0.0
 40
0.0
 40
0.0
 40
1.0
 40
1.0
 40
1.0
 40
1.0
 10
-6.7139
 20
14.0036
 30
0.0
 10
-6.7944
 20
13.9231
 30
0.0
 10
-6.8397
 20
13.8138
 30
0.0
 10
-6.8397
 20
13.6999
 30
0.0
  0
SPLINE
  5
D7
330
1F
100
AcDbEntity
  8
ROUND
 62
   250
100
AcDbSpline
210
0.0
220
0.0
230
1.0
 70
     8
 71
     3
 72
     8
 73
     4
 74
     0
 42
0.0000000001
 43
0.0000000001
 40
0.0
 40
0.0
 40
0.0
 40
0.0
 40
1.0
 40
1.0
 40
1.0
 40
1.0
 10
-5.5737
 20
16.0702
 30
0.0
 10
-5.5777
 20
16.1858
 30
0.0
 10
-5.6726
 20
16.2774
 30
0.0
 10
-5.7884
 20
16.2774
 30
0.0
  0
SPLINE
  5
D8
330
1F
100
AcDbEntity
  8
ROUND
 62
   250
100
AcDbSpline
210
0.0
220
0.0
230
1.0
 70
     8
 71
     3
 72
   184
 73
   180
 74
     0
 42
0.0000000001
 43
0.0000000001
 40
0.0
 40
0.0
 40
0.0
 40
0.0
 40
0.0217391304347826
 40
0.0217391304347826
 40
0.0217391304347826
 40
0.0217391304347826
 40
0.0434782608695652
 40
0.0434782608695652
 40
0.0434782608695652
 40
0.0434782608695652
 40
0.0652173913043478
 40
0.0652173913043478
 40
0.0652173913043478
 40
0.0652173913043478
 40
0.0869565217391304
 40
0.0869565217391304
 40
0.0869565217391304
 40
0.0869565217391304
 40
0.108695652173913
 40
0.108695652173913
 40
0.108695652173913
 40
0.108695652173913
 40
0.1304347826086956
 40
0.1304347826086956
 40
0.1304347826086956
 40
0.1304347826086956
 40
0.1521739130434783
 40
0.1521739130434783
 40
0.1521739130434783
 40
0.1521739130434783
 40
0.1739130434782609
 40
0.1739130434782609
 40
0.1739130434782609
 40
0.1739130434782609
 40
0.1956521739130435
 40
0.1956521739130435
 40
0.1956521739130435
 40
0.1956521739130435
 40
0.2173913043478261
 40
0.2173913043478261
 40
0.2173913043478261
 40
0.2173913043478261
 40
0.2391304347826087
 40
0.2391304347826087
 40
0.2391304347826087
 40
0.2391304347826087
 40
0.2608695652173913
 40
0.2608695652173913
 40
0.2608695652173913
 40
0.2608695652173913
 40
0.2826086956521739
 40
0.2826086956521739
 40
0.2826086956521739
 40
0.2826086956521739
 40
0.3043478260869565
 40
0.3043478260869565
 40
0.3043478260869565
 40
0.3043478260869565
 40
0.3260869565217391
 40
0.3260869565217391
 40
0.3260869565217391
 40
0.3260869565217391
 40
0.3478260869565217
 40
0.3478260869565217
 40
0.3478260869565217
 40
0.3478260869565217
 40
0.3695652173913043
 40
0.3695652173913043
 40
0.3695652173913043
 40
0.3695652173913043
 40
0.391304347826087
 40
0.391304347826087
 40
0.391304347826087
 40
0.391304347826087
 40
0.4130434782608696
 40
0.4130434782608696
 40
0.4130434782608696
 40
0.4130434782608696
 40
0.4347826086956522
 40
0.4347826086956522
 40
0.4347826086956522
 40
0.4347826086956522
 40
0.4565217391304348
 40
0.4565217391304348
 40
0.4565217391304348
 40
0.4565217391304348
 40
0.4782608695652174
 40
0.4782608695652174
 40
0.4782608695652174
 40
0.4782608695652174
 40
0.5
 40
0.5
 40
0.5
 40
0.5
 40
0.5217391304347826
 40
0.5217391304347826
 40
0.5217391304347826
 40
0.5217391304347826
 40
0.5434782608695652
 40
0.5434782608695652
 40
0.5434782608695652
 40
0.5434782608695652
 40
0.5652173913043478
 40
0.5652173913043478
 40
0.5652173913043478
 40
0.5652173913043478
 40
0.5869565217391305
 40
0.5869565217391305
 40
0.5869565217391305
 40
0.5869565217391305
 40
0.6086956521739131
 40
0.6086956521739131
 40
0.6086956521739131
 40
0.6086956521739131
 40
0.6304347826086957
 40
0.6304347826086957
 40
0.6304347826086957
 40
0.6304347826086957
 40
0.6521739130434783
 40
0.6521739130434783
 40
0.6521739130434783
 40
0.6521739130434783
 40
0.6739130434782609
 40
0.6739130434782609
 40
0.6739130434782609
 40
0.6739130434782609
 40
0.6956521739130435
 40
0.6956521739130435
 40
0.6956521739130435
 40
0.6956521739130435
 40
0.717391304347826
 40
0.717391304347826
 40
0.717391304347826
 40
0.717391304347826
 40
0.7391304347826086
 40
0.7391304347826086
 40
0.7391304347826086
 40
0.7391304347826086
 40
0.7608695652173914
 40
0.7608695652173914
 40
0.7608695652173914
 40
0.7608695652173914
 40
0.782608695652174
 40
0.782608695652174
 40
0.782608695652174
 40
0.782608695652174
 40
0.8043478260869565
 40
0.8043478260869565
 40
0.8043478260869565
 40
0.8043478260869565
 40
0.8260869565217391
 40
0.8260869565217391
 40
0.8260869565217391
 40
0.8260869565217391
 40
0.8478260869565217
 40
0.8478260869565217
 40
0.8478260869565217
 40
0.8478260869565217
 40
0.8695652173913043
 40
0.8695652173913043
 40
0.8695652173913043
 40
0.8695652173913043
 40
0.8913043478260869
 40
0.8913043478260869
 40
0.8913043478260869
 40
0.8913043478260869
 40
0.9130434782608695
 40
0.9130434782608695
 40
0.9130434782608695
 40
0.9130434782608695
 40
0.9347826086956522
 40
0.9347826086956522
 40
0.9347826086956522
 40
0.9347826086956522
 40
0.9565217391304348
 40
0.9565217391304348
 40
0.9565217391304348
 40
0.9565217391304348
 40
1.0
 40
1.0
 40
1.0
 40
1.0
 10
-6.8397
 20
13.6999
 30
0.0
 10
-6.8397
 20
13.6999
 30
0.0
 10
-6.8436
 20
13.6915
 30
0.0
 10
-6.8436
 20
13.6915
 30
0.0
 10
-6.8436
 20
13.6915
 30
0.0
 10
-6.8436
 20
13.6915
 30
0.0
 10
-6.8552
 20
13.6665
 30
0.0
 10
-6.8552
 20
13.6665
 30
0.0
 10
-6.8552
 20
13.6665
 30
0.0
 10
-6.8552
 20
13.6665
 30
0.0
 10
-6.8744
 20
13.625
 30
0.0
 10
-6.8744
 20
13.625
 30
0.0
 10
-6.8744
 20
13.625
 30
0.0
 10
-6.8744
 20
13.625
 30
0.0
 10
-6.9011
 20
13.567
 30
0.0
 10
-6.9011
 20
13.567
 30
0.0
 10
-6.9011
 20
13.567
 30
0.0
 10
-6.9011
 20
13.567
 30
0.0
 10
-6.9351
 20
13.4929
 30
0.0
 10
-6.9351
 20
13.4929
 30
0.0
 10
-6.9351
 20
13.4929
 30
0.0
 10
-6.9351
 20
13.4929
 30
0.0
 10
-6.9761
 20
13.4027
 30
0.0
 10
-6.9761
 20
13.4027
 30
0.0
 10
-6.9761
 20
13.4027
 30
0.0
 10
-6.9761
 20
13.4027
 30
0.0
 10
-7.0781
 20
13.1756
 30
0.0
 10
-7.0781
 20
13.1756
 30
0.0
 10
-7.0781
 20
13.1756
 30
0.0
 10
-7.0781
 20
13.1756
 30
0.0
 10
-7.2044
 20
12.8883
 30
0.0
 10
-7.2044
 20
12.8883
 30
0.0
 10
-7.2044
 20
12.8883
 30
0.0
 10
-7.2044
 20
12.8883
 30
0.0
 10
-7.3516
 20
12.544
 30
0.0
 10
-7.3516
 20
12.544
 30
0.0
 10
-7.3516
 20
12.544
 30
0.0
 10
-7.3516
 20
12.544
 30
0.0
 10
-7.516
 20
12.1457
 30
0.0
 10
-7.516
 20
12.1457
 30
0.0
 10
-7.516
 20
12.1457
 30
0.0
 10
-7.516
 20
12.1457
 30
0.0
 10
-7.6936
 20
11.6968
 30
0.0
 10
-7.6936
 20
11.6968
 30
0.0
 10
-7.6936
 20
11.6968
 30
0.0
 10
-7.6936
 20
11.6968
 30
0.0
 10
-7.8621
 20
11.25
 30
0.0
 10
-7.8621
 20
11.25
 30
0.0
 10
-7.8621
 20
11.25
 30
0.0
 10
-7.8621
 20
11.25
 30
0.0
 10
-8.0718
 20
10.6593
 30
0.0
 10
-8.0718
 20
10.6593
 30
0.0
 10
-8.0718
 20
10.6593
 30
0.0
 10
-8.0718
 20
10.6593
 30
0.0
 10
-8.0909
 20
10.6033
 30
0.0
 10
-8.0909
 20
10.6033
 30
0.0
 10
-8.0909
 20
10.6033
 30
0.0
 10
-8.0909
 20
10.6033
 30
0.0
 10
-8.2801
 20
10.0245
 30
0.0
 10
-8.2801
 20
10.0245
 30
0.0
 10
-8.2801
 20
10.0245
 30
0.0
 10
-8.2801
 20
10.0245
 30
0.0
 10
-8.4512
 20
9.4556
 30
0.0
 10
-8.4512
 20
9.4556
 30
0.0
 10
-8.4512
 20
9.4556
 30
0.0
 10
-8.4512
 20
9.4556
 30
0.0
 10
-8.519
 20
9.2152
 30
0.0
 10
-8.519
 20
9.2152
 30
0.0
 10
-8.519
 20
9.2152
 30
0.0
 10
-8.519
 20
9.2152
 30
0.0
 10
-8.6656
 20
8.6582
 30
0.0
 10
-8.6656
 20
8.6582
 30
0.0
 10
-8.6656
 20
8.6582
 30
0.0
 10
-8.6656
 20
8.6582
 30
0.0
 10
-8.7954
 20
8.1091
 30
0.0
 10
-8.7954
 20
8.1091
 30
0.0
 10
-8.7954
 20
8.1091
 30
0.0
 10
-8.7954
 20
8.1091
 30
0.0
 10
-8.8787
 20
7.7189
 30
0.0
 10
-8.8787
 20
7.7189
 30
0.0
 10
-8.8787
 20
7.7189
 30
0.0
 10
-8.8787
 20
7.7189
 30
0.0
 10
-8.9812
 20
7.1796
 30
0.0
 10
-8.9812
 20
7.1796
 30
0.0
 10
-8.9812
 20
7.1796
 30
0.0
 10
-8.9812
 20
7.1796
 30
0.0
 10
-9.0681
 20
6.6461
 30
0.0
 10
-9.0681
 20
6.6461
 30
0.0
 10
-9.0681
 20
6.6461
 30
0.0
 10
-9.0681
 20
6.6461
 30
0.0
 10
-9.1355
 20
6.152
 30
0.0
 10
-9.1355
 20
6.152
 30
0.0
 10
-9.1355
 20
6.152
 30
0.0
 10
-9.1355
 20
6.152
 30
0.0
 10
-9.1934
 20
5.6242
 30
0.0
 10
-9.1934
 20
5.6242
 30
0.0
 10
-9.1934
 20
5.6242
 30
0.0
 10
-9.1934
 20
5.6242
 30
0.0
 10
-9.2364
 20
5.1001
 30
0.0
 10
-9.2364
 20
5.1001
 30
0.0
 10
-9.2364
 20
5.1001
 30
0.0
 10
-9.2364
 20
5.1001
 30
0.0
 10
-9.2375
 20
5.0842
 30
0.0
 10
-9.2375
 20
5.0842
 30
0.0
 10
-9.2375
 20
5.0842
 30
0.0
 10
-9.2375
 20
5.0842
 30
0.0
 10
-9.2655
 20
4.5601
 30
0.0
 10
-9.2655
 20
4.5601
 30
0.0
 10
-9.2655
 20
4.5601
 30
0.0
 10
-9.2655
 20
4.5601
 30
0.0
 10
-9.2789
 20
4.0365
 30
0.0
 10
-9.2789
 20
4.0365
 30
0.0
 10
-9.2789
 20
4.0365
 30
0.0
 10
-9.2789
 20
4.0365
 30
0.0
 10
-9.2777
 20
3.5143
 30
0.0
 10
-9.2777
 20
3.5143
 30
0.0
 10
-9.2777
 20
3.5143
 30
0.0
 10
-9.2777
 20
3.5143
 30
0.0
 10
-9.2619
 20
2.9923
 30
0.0
 10
-9.2619
 20
2.9923
 30
0.0
 10
-9.2619
 20
2.9923
 30
0.0
 10
-9.2619
 20
2.9923
 30
0.0
 10
-9.2315
 20
2.4681
 30
0.0
 10
-9.2315
 20
2.4681
 30
0.0
 10
-9.2315
 20
2.4681
 30
0.0
 10
-9.2315
 20
2.4681
 30
0.0
 10
-9.1863
 20
1.9421
 30
0.0
 10
-9.1863
 20
1.9421
 30
0.0
 10
-9.1863
 20
1.9421
 30
0.0
 10
-9.1863
 20
1.9421
 30
0.0
 10
-9.1859
 20
1.9382
 30
0.0
 10
-9.1859
 20
1.9382
 30
0.0
 10
-9.1859
 20
1.9382
 30
0.0
 10
-9.1859
 20
1.9382
 30
0.0
 10
-9.126
 20
1.4111
 30
0.0
 10
-9.126
 20
1.4111
 30
0.0
 10
-9.126
 20
1.4111
 30
0.0
 10
-9.126
 20
1.4111
 30
0.0
 10
-9.051
 20
0.8799
 30
0.0
 10
-9.051
 20
0.8799
 30
0.0
 10
-9.051
 20
0.8799
 30
0.0
 10
-9.051
 20
0.8799
 30
0.0
 10
-8.9742
 20
0.4195
 30
0.0
 10
-8.9742
 20
0.4195
 30
0.0
 10
-8.9742
 20
0.4195
 30
0.0
 10
-8.9742
 20
0.4195
 30
0.0
 10
-8.8708
 20
-0.1187
 30
0.0
 10
-8.8708
 20
-0.1187
 30
0.0
 10
-8.8708
 20
-0.1187
 30
0.0
 10
-8.8708
 20
-0.1187
 30
0.0
 10
-8.7512
 20
-0.6642
 30
0.0
 10
-8.7512
 20
-0.6642
 30
0.0
 10
-8.7512
 20
-0.6642
 30
0.0
 10
-8.7512
 20
-0.6642
 30
0.0
 10
-8.6152
 20
-1.2172
 30
0.0
 10
-8.6152
 20
-1.2172
 30
0.0
 10
-8.6152
 20
-1.2172
 30
0.0
 10
-8.6152
 20
-1.2172
 30
0.0
 10
-8.4623
 20
-1.778
 30
0.0
 10
-8.4623
 20
-1.778
 30
0.0
 10
-8.4623
 20
-1.778
 30
0.0
 10
-8.4623
 20
-1.778
 30
0.0
 10
-8.3079
 20
-2.297
 30
0.0
 10
-8.3079
 20
-2.297
 30
0.0
 10
-8.3079
 20
-2.297
 30
0.0
 10
-8.3079
 20
-2.297
 30
0.0
 10
-8.1219
 20
-2.8731
 30
0.0
 10
-8.1219
 20
-2.8731
 30
0.0
 10
-8.1219
 20
-2.8731
 30
0.0
 10
-8.1219
 20
-2.8731
 30
0.0
 10
-7.9173
 20
-3.4601
 30
0.0
 10
-7.9173
 20
-3.4601
 30
0.0
 10
-7.9173
 20
-3.4601
 30
0.0
 10
-7.9173
 20
-3.4601
 30
0.0
 10
-7.6932
 20
-4.0593
 30
0.0
 10
-7.6932
 20
-4.0593
 30
0.0
 10
-7.6932
 20
-4.0593
 30
0.0
 10
-7.6932
 20
-4.0593
 30
0.0
 10
-7.5563
 20
-4.4071
 30
0.0
 10
-7.5563
 20
-4.4071
 30
0.0
  0
SPLINE
  5
D9
330
1F
100
AcDbEntity
  8
ROUND
 62
   250
100
AcDbSpline
210
0.0
220
0.0
230
1.0
 70
     8
 71
     3
 72
    44
 73
    40
 74
     0
 42
0.0000000001
 43
0.0000000001
 40
0.0
 40
0.0
 40
0.0
 40
0.0
 40
0.0909090909090909
 40
0.0909090909090909
 40
0.0909090909090909
 40
0.0909090909090909
 40
0.1818181818181818
 40
0.1818181818181818
 40
0.1818181818181818
 40
0.1818181818181818
 40
0.2727272727272727
 40
0.2727272727272727
 40
0.2727272727272727
 40
0.2727272727272727
 40
0.3636363636363636
 40
0.3636363636363636
 40
0.3636363636363636
 40
0.3636363636363636
 40
0.4545454545454545
 40
0.4545454545454545
 40
0.4545454545454545
 40
0.4545454545454545
 40
0.5454545454545454
 40
0.5454545454545454
 40
0.5454545454545454
 40
0.5454545454545454
 40
0.6363636363636364
 40
0.6363636363636364
 40
0.6363636363636364
 40
0.6363636363636364
 40
0.7272727272727273
 40
0.7272727272727273
 40
0.7272727272727273
 40
0.7272727272727273
 40
0.8181818181818182
 40
0.8181818181818182
 40
0.8181818181818182
 40
0.8181818181818182
 40
1.0
 40
1.0
 40
1.0
 40
1.0
 10
-3.1882
 20
2.9733
 30
0.0
 10
-3.1882
 20
2.9733
 30
0.0
 10
-3.1896
 20
3.0579
 30
0.0
 10
-3.1896
 20
3.0579
 30
0.0
 10
-3.1896
 20
3.0579
 30
0.0
 10
-3.1896
 20
3.0579
 30
0.0
 10
-3.1909
 20
3.1424
 30
0.0
 10
-3.1909
 20
3.1424
 30
0.0
 10
-3.1909
 20
3.1424
 30
0.0
 10
-3.1909
 20
3.1424
 30
0.0
 10
-3.1924
 20
3.227
 30
0.0
 10
-3.1924
 20
3.227
 30
0.0
 10
-3.1924
 20
3.227
 30
0.0
 10
-3.1924
 20
3.227
 30
0.0
 10
-3.1937
 20
3.3116
 30
0.0
 10
-3.1937
 20
3.3116
 30
0.0
 10
-3.1937
 20
3.3116
 30
0.0
 10
-3.1937
 20
3.3116
 30
0.0
 10
-3.1951
 20
3.3962
 30
0.0
 10
-3.1951
 20
3.3962
 30
0.0
 10
-3.1951
 20
3.3962
 30
0.0
 10
-3.1951
 20
3.3962
 30
0.0
 10
-3.1965
 20
3.4807
 30
0.0
 10
-3.1965
 20
3.4807
 30
0.0
 10
-3.1965
 20
3.4807
 30
0.0
 10
-3.1965
 20
3.4807
 30
0.0
 10
-3.1979
 20
3.5653
 30
0.0
 10
-3.1979
 20
3.5653
 30
0.0
 10
-3.1979
 20
3.5653
 30
0.0
 10
-3.1979
 20
3.5653
 30
0.0
 10
-3.1993
 20
3.6499
 30
0.0
 10
-3.1993
 20
3.6499
 30
0.0
 10
-3.1993
 20
3.6499
 30
0.0
 10
-3.1993
 20
3.6499
 30
0.0
 10
-3.2006
 20
3.7345
 30
0.0
 10
-3.2006
 20
3.7345
 30
0.0
 10
-3.2006
 20
3.7345
 30
0.0
 10
-3.2006
 20
3.7345
 30
0.0
 10
-3.202
 20
3.819
 30
0.0
 10
-3.202
 20
3.819
 30
0.0
  0
SPLINE
  5
DA
330
1F
100
AcDbEntity
  8
ROUND
 62
   250
100
AcDbSpline
210
0.0
220
0.0
230
1.0
 70
     8
 71
     3
 72
    72
 73
    68
 74
     0
 42
0.0000000001
 43
0.0000000001
 40
0.0
 40
0.0
 40
0.0
 40
0.0
 40
0.0555555555555556
 40
0.0555555555555556
 40
0.0555555555555556
 40
0.0555555555555556
 40
0.1111111111111111
 40
0.1111111111111111
 40
0.1111111111111111
 40
0.1111111111111111
 40
0.1666666666666667
 40
0.1666666666666667
 40
0.1666666666666667
 40
0.1666666666666667
 40
0.2222222222222222
 40
0.2222222222222222
 40
0.2222222222222222
 40
0.2222222222222222
 40
0.2777777777777778
 40
0.2777777777777778
 40
0.2777777777777778
 40
0.2777777777777778
 40
0.3333333333333333
 40
0.3333333333333333
 40
0.3333333333333333
 40
0.3333333333333333
 40
0.3888888888888889
 40
0.3888888888888889
 40
0.3888888888888889
 40
0.3888888888888889
 40
0.4444444444444444
 40
0.4444444444444444
 40
0.4444444444444444
 40
0.4444444444444444
 40
0.5
 40
0.5
 40
0.5
 40
0.5
 40
0.5555555555555556
 40
0.5555555555555556
 40
0.5555555555555556
 40
0.5555555555555556
 40
0.6111111111111112
 40
0.6111111111111112
 40
0.6111111111111112
 40
0.6111111111111112
 40
0.6666666666666666
 40
0.6666666666666666
 40
0.6666666666666666
 40
0.6666666666666666
 40
0.7222222222222222
 40
0.7222222222222222
 40
0.7222222222222222
 40
0.7222222222222222
 40
0.7777777777777778
 40
0.7777777777777778
 40
0.7777777777777778
 40
0.7777777777777778
 40
0.8333333333333334
 40
0.8333333333333334
 40
0.8333333333333334
 40
0.8333333333333334
 40
0.8888888888888888
 40
0.8888888888888888
 40
0.8888888888888888
 40
0.8888888888888888
 40
1.0
 40
1.0
 40
1.0
 40
1.0
 10
-3.202
 20
3.819
 30
0.0
 10
-3.202
 20
3.819
 30
0.0
 10
-3.2097
 20
4.2846
 30
0.0
 10
-3.2097
 20
4.2846
 30
0.0
 10
-3.2097
 20
4.2846
 30
0.0
 10
-3.2097
 20
4.2846
 30
0.0
 10
-3.2253
 20
5.2359
 30
0.0
 10
-3.2253
 20
5.2359
 30
0.0
 10
-3.2253
 20
5.2359
 30
0.0
 10
-3.2253
 20
5.2359
 30
0.0
 10
-3.2412
 20
6.1872
 30
0.0
 10
-3.2412
 20
6.1872
 30
0.0
 10
-3.2412
 20
6.1872
 30
0.0
 10
-3.2412
 20
6.1872
 30
0.0
 10
-3.2575
 20
7.1384
 30
0.0
 10
-3.2575
 20
7.1384
 30
0.0
 10
-3.2575
 20
7.1384
 30
0.0
 10
-3.2575
 20
7.1384
 30
0.0
 10
-3.2678
 20
7.7187
 30
0.0
 10
-3.2678
 20
7.7187
 30
0.0
 10
-3.2678
 20
7.7187
 30
0.0
 10
-3.2678
 20
7.7187
 30
0.0
 10
-3.2853
 20
8.6699
 30
0.0
 10
-3.2853
 20
8.6699
 30
0.0
 10
-3.2853
 20
8.6699
 30
0.0
 10
-3.2853
 20
8.6699
 30
0.0
 10
-3.2936
 20
9.1008
 30
0.0
 10
-3.2936
 20
9.1008
 30
0.0
 10
-3.2936
 20
9.1008
 30
0.0
 10
-3.2936
 20
9.1008
 30
0.0
 10
-3.313
 20
10.052
 30
0.0
 10
-3.313
 20
10.052
 30
0.0
 10
-3.313
 20
10.052
 30
0.0
 10
-3.313
 20
10.052
 30
0.0
 10
-3.3182
 20
10.2909
 30
0.0
 10
-3.3182
 20
10.2909
 30
0.0
 10
-3.3182
 20
10.2909
 30
0.0
 10
-3.3182
 20
10.2909
 30
0.0
 10
-3.3408
 20
11.242
 30
0.0
 10
-3.3408
 20
11.242
 30
0.0
 10
-3.3408
 20
11.242
 30
0.0
 10
-3.3408
 20
11.242
 30
0.0
 10
-3.3429
 20
11.3231
 30
0.0
 10
-3.3429
 20
11.3231
 30
0.0
 10
-3.3429
 20
11.3231
 30
0.0
 10
-3.3429
 20
11.3231
 30
0.0
 10
-3.3685
 20
12.2034
 30
0.0
 10
-3.3685
 20
12.2034
 30
0.0
 10
-3.3685
 20
12.2034
 30
0.0
 10
-3.3685
 20
12.2034
 30
0.0
 10
-3.3771
 20
12.4542
 30
0.0
 10
-3.3771
 20
12.4542
 30
0.0
 10
-3.3771
 20
12.4542
 30
0.0
 10
-3.3771
 20
12.4542
 30
0.0
 10
-3.3962
 20
12.9066
 30
0.0
 10
-3.3962
 20
12.9066
 30
0.0
 10
-3.3962
 20
12.9066
 30
0.0
 10
-3.3962
 20
12.9066
 30
0.0
 10
-3.4101
 20
13.1542
 30
0.0
 10
-3.4101
 20
13.1542
 30
0.0
 10
-3.4101
 20
13.1542
 30
0.0
 10
-3.4101
 20
13.1542
 30
0.0
 10
-3.4114
 20
13.1728
 30
0.0
 10
-3.4114
 20
13.1728
 30
0.0
 10
-3.4114
 20
13.1728
 30
0.0
 10
-3.4114
 20
13.1728
 30
0.0
 10
-3.424
 20
13.3298
 30
0.0
 10
-3.424
 20
13.3298
 30
0.0
  0
SPLINE
  5
DB
330
1F
100
AcDbEntity
  8
ROUND
 62
   250
100
AcDbSpline
210
0.0
220
0.0
230
1.0
 70
     8
 71
     3
 72
    64
 73
    60
 74
     0
 42
0.0000000001
 43
0.0000000001
 40
0.0
 40
0.0
 40
0.0
 40
0.0
 40
0.0625
 40
0.0625
 40
0.0625
 40
0.0625
 40
0.125
 40
0.125
 40
0.125
 40
0.125
 40
0.1875
 40
0.1875
 40
0.1875
 40
0.1875
 40
0.25
 40
0.25
 40
0.25
 40
0.25
 40
0.3125
 40
0.3125
 40
0.3125
 40
0.3125
 40
0.375
 40
0.375
 40
0.375
 40
0.375
 40
0.4375
 40
0.4375
 40
0.4375
 40
0.4375
 40
0.5
 40
0.5
 40
0.5
 40
0.5
 40
0.5625
 40
0.5625
 40
0.5625
 40
0.5625
 40
0.625
 40
0.625
 40
0.625
 40
0.625
 40
0.6875
 40
0.6875
 40
0.6875
 40
0.6875
 40
0.75
 40
0.75
 40
0.75
 40
0.75
 40
0.8125
 40
0.8125
 40
0.8125
 40
0.8125
 40
0.875
 40
0.875
 40
0.875
 40
0.875
 40
1.0
 40
1.0
 40
1.0
 40
1.0
 10
-3.424
 20
13.3298
 30
0.0
 10
-3.424
 20
13.3298
 30
0.0
 10
-3.4243
 20
13.3334
 30
0.0
 10
-3.4243
 20
13.3334
 30
0.0
 10
-3.4243
 20
13.3334
 30
0.0
 10
-3.4243
 20
13.3334
 30
0.0
 10
-3.4258
 20
13.3468
 30
0.0
 10
-3.4258
 20
13.3468
 30
0.0
 10
-3.4258
 20
13.3468
 30
0.0
 10
-3.4258
 20
13.3468
 30
0.0
 10
-3.4272
 20
13.3601
 30
0.0
 10
-3.4272
 20
13.3601
 30
0.0
 10
-3.4272
 20
13.3601
 30
0.0
 10
-3.4272
 20
13.3601
 30
0.0
 10
-3.4288
 20
13.3735
 30
0.0
 10
-3.4288
 20
13.3735
 30
0.0
 10
-3.4288
 20
13.3735
 30
0.0
 10
-3.4288
 20
13.3735
 30
0.0
 10
-3.4305
 20
13.387
 30
0.0
 10
-3.4305
 20
13.387
 30
0.0
 10
-3.4305
 20
13.387
 30
0.0
 10
-3.4305
 20
13.387
 30
0.0
 10
-3.4306
 20
13.388
 30
0.0
 10
-3.4306
 20
13.388
 30
0.0
 10
-3.4306
 20
13.388
 30
0.0
 10
-3.4306
 20
13.388
 30
0.0
 10
-3.4326
 20
13.4016
 30
0.0
 10
-3.4326
 20
13.4016
 30
0.0
 10
-3.4326
 20
13.4016
 30
0.0
 10
-3.4326
 20
13.4016
 30
0.0
 10
-3.4347
 20
13.4151
 30
0.0
 10
-3.4347
 20
13.4151
 30
0.0
 10
-3.4347
 20
13.4151
 30
0.0
 10
-3.4347
 20
13.4151
 30
0.0
 10
-3.437
 20
13.4279
 30
0.0
 10
-3.437
 20
13.4279
 30
0.0
 10
-3.437
 20
13.4279
 30
0.0
 10
-3.437
 20
13.4279
 30
0.0
 10
-3.4394
 20
13.4388
 30
0.0
 10
-3.4394
 20
13.4388
 30
0.0
 10
-3.4394
 20
13.4388
 30
0.0
 10
-3.4394
 20
13.4388
 30
0.0
 10
-3.4435
 20
13.4525
 30
0.0
 10
-3.4435
 20
13.4525
 30
0.0
 10
-3.4435
 20
13.4525
 30
0.0
 10
-3.4435
 20
13.4525
 30
0.0
 10
-3.4437
 20
13.4528
 30
0.0
 10
-3.4437
 20
13.4528
 30
0.0
 10
-3.4437
 20
13.4528
 30
0.0
 10
-3.4437
 20
13.4528
 30
0.0
 10
-3.4457
 20
13.4575
 30
0.0
 10
-3.4457
 20
13.4575
 30
0.0
 10
-3.4457
 20
13.4575
 30
0.0
 10
-3.4457
 20
13.4575
 30
0.0
 10
-3.4477
 20
13.4598
 30
0.0
 10
-3.4477
 20
13.4598
 30
0.0
 10
-3.4477
 20
13.4598
 30
0.0
 10
-3.4477
 20
13.4598
 30
0.0
 10
-3.4501
 20
13.4606
 30
0.0
 10
-3.4501
 20
13.4606
 30
0.0
  0
SPLINE
  5
DC
330
1F
100
AcDbEntity
  8
ROUND
 62
   250
100
AcDbSpline
210
0.0
220
0.0
230
1.0
 70
     8
 71
     3
 72
    64
 73
    60
 74
     0
 42
0.0000000001
 43
0.0000000001
 40
0.0
 40
0.0
 40
0.0
 40
0.0
 40
0.0625
 40
0.0625
 40
0.0625
 40
0.0625
 40
0.125
 40
0.125
 40
0.125
 40
0.125
 40
0.1875
 40
0.1875
 40
0.1875
 40
0.1875
 40
0.25
 40
0.25
 40
0.25
 40
0.25
 40
0.3125
 40
0.3125
 40
0.3125
 40
0.3125
 40
0.375
 40
0.375
 40
0.375
 40
0.375
 40
0.4375
 40
0.4375
 40
0.4375
 40
0.4375
 40
0.5
 40
0.5
 40
0.5
 40
0.5
 40
0.5625
 40
0.5625
 40
0.5625
 40
0.5625
 40
0.625
 40
0.625
 40
0.625
 40
0.625
 40
0.6875
 40
0.6875
 40
0.6875
 40
0.6875
 40
0.75
 40
0.75
 40
0.75
 40
0.75
 40
0.8125
 40
0.8125
 40
0.8125
 40
0.8125
 40
0.875
 40
0.875
 40
0.875
 40
0.875
 40
1.0
 40
1.0
 40
1.0
 40
1.0
 10
-3.1954
 20
-5.8221
 30
0.0
 10
-3.1954
 20
-5.8221
 30
0.0
 10
-3.1973
 20
-5.8213
 30
0.0
 10
-3.1973
 20
-5.8213
 30
0.0
 10
-3.1973
 20
-5.8213
 30
0.0
 10
-3.1973
 20
-5.8213
 30
0.0
 10
-3.1987
 20
-5.82
 30
0.0
 10
-3.1987
 20
-5.82
 30
0.0
 10
-3.1987
 20
-5.82
 30
0.0
 10
-3.1987
 20
-5.82
 30
0.0
 10
-3.2011
 20
-5.8161
 30
0.0
 10
-3.2011
 20
-5.8161
 30
0.0
 10
-3.2011
 20
-5.8161
 30
0.0
 10
-3.2011
 20
-5.8161
 30
0.0
 10
-3.2019
 20
-5.8139
 30
0.0
 10
-3.2019
 20
-5.8139
 30
0.0
 10
-3.2019
 20
-5.8139
 30
0.0
 10
-3.2019
 20
-5.8139
 30
0.0
 10
-3.2058
 20
-5.8015
 30
0.0
 10
-3.2058
 20
-5.8015
 30
0.0
 10
-3.2058
 20
-5.8015
 30
0.0
 10
-3.2058
 20
-5.8015
 30
0.0
 10
-3.2085
 20
-5.7893
 30
0.0
 10
-3.2085
 20
-5.7893
 30
0.0
 10
-3.2085
 20
-5.7893
 30
0.0
 10
-3.2085
 20
-5.7893
 30
0.0
 10
-3.2086
 20
-5.7884
 30
0.0
 10
-3.2086
 20
-5.7884
 30
0.0
 10
-3.2086
 20
-5.7884
 30
0.0
 10
-3.2086
 20
-5.7884
 30
0.0
 10
-3.2111
 20
-5.775
 30
0.0
 10
-3.2111
 20
-5.775
 30
0.0
 10
-3.2111
 20
-5.775
 30
0.0
 10
-3.2111
 20
-5.775
 30
0.0
 10
-3.2131
 20
-5.7616
 30
0.0
 10
-3.2131
 20
-5.7616
 30
0.0
 10
-3.2131
 20
-5.7616
 30
0.0
 10
-3.2131
 20
-5.7616
 30
0.0
 10
-3.215
 20
-5.7482
 30
0.0
 10
-3.215
 20
-5.7482
 30
0.0
 10
-3.215
 20
-5.7482
 30
0.0
 10
-3.215
 20
-5.7482
 30
0.0
 10
-3.2155
 20
-5.7447
 30
0.0
 10
-3.2155
 20
-5.7447
 30
0.0
 10
-3.2155
 20
-5.7447
 30
0.0
 10
-3.2155
 20
-5.7447
 30
0.0
 10
-3.2171
 20
-5.7313
 30
0.0
 10
-3.2171
 20
-5.7313
 30
0.0
 10
-3.2171
 20
-5.7313
 30
0.0
 10
-3.2171
 20
-5.7313
 30
0.0
 10
-3.2187
 20
-5.7179
 30
0.0
 10
-3.2187
 20
-5.7179
 30
0.0
 10
-3.2187
 20
-5.7179
 30
0.0
 10
-3.2187
 20
-5.7179
 30
0.0
 10
-3.2201
 20
-5.7044
 30
0.0
 10
-3.2201
 20
-5.7044
 30
0.0
 10
-3.2201
 20
-5.7044
 30
0.0
 10
-3.2201
 20
-5.7044
 30
0.0
 10
-3.2215
 20
-5.6909
 30
0.0
 10
-3.2215
 20
-5.6909
 30
0.0
  0
SPLINE
  5
DD
330
1F
100
AcDbEntity
  8
ROUND
 62
   250
100
AcDbSpline
210
0.0
220
0.0
230
1.0
 70
     8
 71
     3
 72
    96
 73
    92
 74
     0
 42
0.0000000001
 43
0.0000000001
 40
0.0
 40
0.0
 40
0.0
 40
0.0
 40
0.0416666666666667
 40
0.0416666666666667
 40
0.0416666666666667
 40
0.0416666666666667
 40
0.0833333333333333
 40
0.0833333333333333
 40
0.0833333333333333
 40
0.0833333333333333
 40
0.125
 40
0.125
 40
0.125
 40
0.125
 40
0.1666666666666667
 40
0.1666666666666667
 40
0.1666666666666667
 40
0.1666666666666667
 40
0.2083333333333333
 40
0.2083333333333333
 40
0.2083333333333333
 40
0.2083333333333333
 40
0.25
 40
0.25
 40
0.25
 40
0.25
 40
0.2916666666666667
 40
0.2916666666666667
 40
0.2916666666666667
 40
0.2916666666666667
 40
0.3333333333333333
 40
0.3333333333333333
 40
0.3333333333333333
 40
0.3333333333333333
 40
0.375
 40
0.375
 40
0.375
 40
0.375
 40
0.4166666666666667
 40
0.4166666666666667
 40
0.4166666666666667
 40
0.4166666666666667
 40
0.4583333333333333
 40
0.4583333333333333
 40
0.4583333333333333
 40
0.4583333333333333
 40
0.5
 40
0.5
 40
0.5
 40
0.5
 40
0.5416666666666666
 40
0.5416666666666666
 40
0.5416666666666666
 40
0.5416666666666666
 40
0.5833333333333334
 40
0.5833333333333334
 40
0.5833333333333334
 40
0.5833333333333334
 40
0.625
 40
0.625
 40
0.625
 40
0.625
 40
0.6666666666666666
 40
0.6666666666666666
 40
0.6666666666666666
 40
0.6666666666666666
 40
0.7083333333333334
 40
0.7083333333333334
 40
0.7083333333333334
 40
0.7083333333333334
 40
0.75
 40
0.75
 40
0.75
 40
0.75
 40
0.7916666666666666
 40
0.7916666666666666
 40
0.7916666666666666
 40
0.7916666666666666
 40
0.8333333333333334
 40
0.8333333333333334
 40
0.8333333333333334
 40
0.8333333333333334
 40
0.875
 40
0.875
 40
0.875
 40
0.875
 40
0.9166666666666666
 40
0.9166666666666666
 40
0.9166666666666666
 40
0.9166666666666666
 40
1.0
 40
1.0
 40
1.0
 40
1.0
 10
-3.2215
 20
-5.6909
 30
0.0
 10
-3.2215
 20
-5.6909
 30
0.0
 10
-3.2354
 20
-5.5151
 30
0.0
 10
-3.2354
 20
-5.5151
 30
0.0
 10
-3.2354
 20
-5.5151
 30
0.0
 10
-3.2354
 20
-5.5151
 30
0.0
 10
-3.2493
 20
-5.2674
 30
0.0
 10
-3.2493
 20
-5.2674
 30
0.0
 10
-3.2493
 20
-5.2674
 30
0.0
 10
-3.2493
 20
-5.2674
 30
0.0
 10
-3.2749
 20
-4.6268
 30
0.0
 10
-3.2749
 20
-4.6268
 30
0.0
 10
-3.2749
 20
-4.6268
 30
0.0
 10
-3.2749
 20
-4.6268
 30
0.0
 10
-3.277
 20
-4.5642
 30
0.0
 10
-3.277
 20
-4.5642
 30
0.0
 10
-3.277
 20
-4.5642
 30
0.0
 10
-3.277
 20
-4.5642
 30
0.0
 10
-3.3047
 20
-3.6028
 30
0.0
 10
-3.3047
 20
-3.6028
 30
0.0
 10
-3.3047
 20
-3.6028
 30
0.0
 10
-3.3047
 20
-3.6028
 30
0.0
 10
-3.3325
 20
-2.413
 30
0.0
 10
-3.3325
 20
-2.413
 30
0.0
 10
-3.3325
 20
-2.413
 30
0.0
 10
-3.3325
 20
-2.413
 30
0.0
 10
-3.3373
 20
-2.1837
 30
0.0
 10
-3.3373
 20
-2.1837
 30
0.0
 10
-3.3373
 20
-2.1837
 30
0.0
 10
-3.3373
 20
-2.1837
 30
0.0
 10
-3.3741
 20
-0.2815
 30
0.0
 10
-3.3741
 20
-0.2815
 30
0.0
 10
-3.3741
 20
-0.2815
 30
0.0
 10
-3.3741
 20
-0.2815
 30
0.0
 10
-3.3832
 20
0.2308
 30
0.0
 10
-3.3832
 20
0.2308
 30
0.0
 10
-3.3832
 20
0.2308
 30
0.0
 10
-3.3832
 20
0.2308
 30
0.0
 10
-3.4157
 20
2.1332
 30
0.0
 10
-3.4157
 20
2.1332
 30
0.0
 10
-3.4157
 20
2.1332
 30
0.0
 10
-3.4157
 20
2.1332
 30
0.0
 10
-3.4261
 20
2.7619
 30
0.0
 10
-3.4261
 20
2.7619
 30
0.0
 10
-3.4261
 20
2.7619
 30
0.0
 10
-3.4261
 20
2.7619
 30
0.0
 10
-3.4573
 20
4.6643
 30
0.0
 10
-3.4573
 20
4.6643
 30
0.0
 10
-3.4573
 20
4.6643
 30
0.0
 10
-3.4573
 20
4.6643
 30
0.0
 10
-3.4667
 20
5.2347
 30
0.0
 10
-3.4667
 20
5.2347
 30
0.0
 10
-3.4667
 20
5.2347
 30
0.0
 10
-3.4667
 20
5.2347
 30
0.0
 10
-3.4989
 20
7.137
 30
0.0
 10
-3.4989
 20
7.137
 30
0.0
 10
-3.4989
 20
7.137
 30
0.0
 10
-3.4989
 20
7.137
 30
0.0
 10
-3.5049
 20
7.4784
 30
0.0
 10
-3.5049
 20
7.4784
 30
0.0
 10
-3.5049
 20
7.4784
 30
0.0
 10
-3.5049
 20
7.4784
 30
0.0
 10
-3.5405
 20
9.3807
 30
0.0
 10
-3.5405
 20
9.3807
 30
0.0
 10
-3.5405
 20
9.3807
 30
0.0
 10
-3.5405
 20
9.3807
 30
0.0
 10
-3.5613
 20
10.3673
 30
0.0
 10
-3.5613
 20
10.3673
 30
0.0
 10
-3.5613
 20
10.3673
 30
0.0
 10
-3.5613
 20
10.3673
 30
0.0
 10
-3.5821
 20
11.2403
 30
0.0
 10
-3.5821
 20
11.2403
 30
0.0
 10
-3.5821
 20
11.2403
 30
0.0
 10
-3.5821
 20
11.2403
 30
0.0
 10
-3.6029
 20
11.9846
 30
0.0
 10
-3.6029
 20
11.9846
 30
0.0
 10
-3.6029
 20
11.9846
 30
0.0
 10
-3.6029
 20
11.9846
 30
0.0
 10
-3.6237
 20
12.5874
 30
0.0
 10
-3.6237
 20
12.5874
 30
0.0
 10
-3.6237
 20
12.5874
 30
0.0
 10
-3.6237
 20
12.5874
 30
0.0
 10
-3.6445
 20
13.0382
 30
0.0
 10
-3.6445
 20
13.0382
 30
0.0
 10
-3.6445
 20
13.0382
 30
0.0
 10
-3.6445
 20
13.0382
 30
0.0
 10
-3.6474
 20
13.0899
 30
0.0
 10
-3.6474
 20
13.0899
 30
0.0
 10
-3.6474
 20
13.0899
 30
0.0
 10
-3.6474
 20
13.0899
 30
0.0
 10
-3.6653
 20
13.3291
 30
0.0
 10
-3.6653
 20
13.3291
 30
0.0
  0
SPLINE
  5
DE
330
1F
100
AcDbEntity
  8
ROUND
 62
   250
100
AcDbSpline
210
0.0
220
0.0
230
1.0
 70
     8
 71
     3
 72
    52
 73
    48
 74
     0
 42
0.0000000001
 43
0.0000000001
 40
0.0
 40
0.0
 40
0.0
 40
0.0
 40
0.0769230769230769
 40
0.0769230769230769
 40
0.0769230769230769
 40
0.0769230769230769
 40
0.1538461538461539
 40
0.1538461538461539
 40
0.1538461538461539
 40
0.1538461538461539
 40
0.2307692307692308
 40
0.2307692307692308
 40
0.2307692307692308
 40
0.2307692307692308
 40
0.3076923076923077
 40
0.3076923076923077
 40
0.3076923076923077
 40
0.3076923076923077
 40
0.3846153846153846
 40
0.3846153846153846
 40
0.3846153846153846
 40
0.3846153846153846
 40
0.4615384615384616
 40
0.4615384615384616
 40
0.4615384615384616
 40
0.4615384615384616
 40
0.5384615384615384
 40
0.5384615384615384
 40
0.5384615384615384
 40
0.5384615384615384
 40
0.6153846153846154
 40
0.6153846153846154
 40
0.6153846153846154
 40
0.6153846153846154
 40
0.6923076923076923
 40
0.6923076923076923
 40
0.6923076923076923
 40
0.6923076923076923
 40
0.7692307692307693
 40
0.7692307692307693
 40
0.7692307692307693
 40
0.7692307692307693
 40
0.8461538461538461
 40
0.8461538461538461
 40
0.8461538461538461
 40
0.8461538461538461
 40
1.0
 40
1.0
 40
1.0
 40
1.0
 10
-3.6653
 20
13.3291
 30
0.0
 10
-3.6653
 20
13.3291
 30
0.0
 10
-3.6663
 20
13.3385
 30
0.0
 10
-3.6663
 20
13.3385
 30
0.0
 10
-3.6663
 20
13.3385
 30
0.0
 10
-3.6663
 20
13.3385
 30
0.0
 10
-3.6677
 20
13.3513
 30
0.0
 10
-3.6677
 20
13.3513
 30
0.0
 10
-3.6677
 20
13.3513
 30
0.0
 10
-3.6677
 20
13.3513
 30
0.0
 10
-3.6691
 20
13.3641
 30
0.0
 10
-3.6691
 20
13.3641
 30
0.0
 10
-3.6691
 20
13.3641
 30
0.0
 10
-3.6691
 20
13.3641
 30
0.0
 10
-3.6706
 20
13.3769
 30
0.0
 10
-3.6706
 20
13.3769
 30
0.0
 10
-3.6706
 20
13.3769
 30
0.0
 10
-3.6706
 20
13.3769
 30
0.0
 10
-3.6721
 20
13.3885
 30
0.0
 10
-3.6721
 20
13.3885
 30
0.0
 10
-3.6721
 20
13.3885
 30
0.0
 10
-3.6721
 20
13.3885
 30
0.0
 10
-3.6739
 20
13.4012
 30
0.0
 10
-3.6739
 20
13.4012
 30
0.0
 10
-3.6739
 20
13.4012
 30
0.0
 10
-3.6739
 20
13.4012
 30
0.0
 10
-3.6759
 20
13.4139
 30
0.0
 10
-3.6759
 20
13.4139
 30
0.0
 10
-3.6759
 20
13.4139
 30
0.0
 10
-3.6759
 20
13.4139
 30
0.0
 10
-3.6761
 20
13.415
 30
0.0
 10
-3.6761
 20
13.415
 30
0.0
 10
-3.6761
 20
13.415
 30
0.0
 10
-3.6761
 20
13.415
 30
0.0
 10
-3.6784
 20
13.4277
 30
0.0
 10
-3.6784
 20
13.4277
 30
0.0
 10
-3.6784
 20
13.4277
 30
0.0
 10
-3.6784
 20
13.4277
 30
0.0
 10
-3.6812
 20
13.4403
 30
0.0
 10
-3.6812
 20
13.4403
 30
0.0
 10
-3.6812
 20
13.4403
 30
0.0
 10
-3.6812
 20
13.4403
 30
0.0
 10
-3.6834
 20
13.4483
 30
0.0
 10
-3.6834
 20
13.4483
 30
0.0
 10
-3.6834
 20
13.4483
 30
0.0
 10
-3.6834
 20
13.4483
 30
0.0
 10
-3.6865
 20
13.4558
 30
0.0
 10
-3.6865
 20
13.4558
 30
0.0
  0
SPLINE
  5
DF
330
1F
100
AcDbEntity
  8
ROUND
 62
   250
100
AcDbSpline
210
0.0
220
0.0
230
1.0
 70
    24
 71
     3
 72
     8
 73
     4
 74
     0
 42
0.0000000001
 43
0.0000000001
 40
0.0
 40
0.0
 40
0.0
 40
0.0
 40
1.0
 40
1.0
 40
1.0
 40
1.0
 10
3.9413
 20
22.1621
 30
0.0
 10
3.9413
 20
22.1621
 30
0.0
 10
-16.5258
 20
22.1621
 30
0.0
 10
-16.5258
 20
22.1621
 30
0.0
  0
SPLINE
  5
E0
330
1F
100
AcDbEntity
  8
ROUND
 62
   250
100
AcDbSpline
210
0.0
220
0.0
230
1.0
 70
    24
 71
     3
 72
     8
 73
     4
 74
     0
 42
0.0000000001
 43
0.0000000001
 40
0.0
 40
0.0
 40
0.0
 40
0.0
 40
1.0
 40
1.0
 40
1.0
 40
1.0
 10
-56.2298
 20
18.7242
 30
0.0
 10
-56.2298
 20
18.7242
 30
0.0
 10
-56.2298
 20
-8.1532
 30
0.0
 10
-56.2298
 20
-8.1532
 30
0.0
  0
SPLINE
  5
E1
330
1F
100
AcDbEntity
  8
ROUND
 62
   250
100
AcDbSpline
210
0.0
220
0.0
230
1.0
 70
    11
 71
     3
 72
    20
 73
    16
 74
     0
 42
0.0000000001
 43
0.0000000001
 40
0.0
 40
0.0
 40
0.0
 40
0.0
 40
0.2
 40
0.2
 40
0.2
 40
0.2
 40
0.4
 40
0.4
 40
0.4
 40
0.4
 40
0.6
 40
0.6
 40
0.6
 40
0.6
 40
1.0
 40
1.0
 40
1.0
 40
1.0
 10
-56.7275
 20
16.2137
 30
0.0
 10
-56.7275
 20
16.2137
 30
0.0
 10
-56.3041
 20
19.2138
 30
0.0
 10
-56.3041
 20
19.2138
 30
0.0
 10
-56.3041
 20
19.2138
 30
0.0
 10
-56.3041
 20
19.2138
 30
0.0
 10
-56.2101
 20
19.2138
 30
0.0
 10
-56.2101
 20
19.2138
 30
0.0
 10
-56.2101
 20
19.2138
 30
0.0
 10
-56.2101
 20
19.2138
 30
0.0
 10
-55.7585
 20
16.2137
 30
0.0
 10
-55.7585
 20
16.2137
 30
0.0
 10
-55.7585
 20
16.2137
 30
0.0
 10
-55.7585
 20
16.2137
 30
0.0
 10
-56.7275
 20
16.2137
 30
0.0
 10
-56.7275
 20
16.2137
 30
0.0
  0
SPLINE
  5
E2
330
1F
100
AcDbEntity
  8
ROUND
 62
   250
100
AcDbSpline
210
0.0
220
0.0
230
1.0
 70
    11
 71
     3
 72
    20
 73
    16
 74
     0
 42
0.0000000001
 43
0.0000000001
 40
0.0
 40
0.0
 40
0.0
 40
0.0
 40
0.2
 40
0.2
 40
0.2
 40
0.2
 40
0.4
 40
0.4
 40
0.4
 40
0.4
 40
0.6
 40
0.6
 40
0.6
 40
0.6
 40
1.0
 40
1.0
 40
1.0
 40
1.0
 10
-55.7453
 20
-5.6596
 30
0.0
 10
-55.7453
 20
-5.6596
 30
0.0
 10
-56.1687
 20
-8.6596
 30
0.0
 10
-56.1687
 20
-8.6596
 30
0.0
 10
-56.1687
 20
-8.6596
 30
0.0
 10
-56.1687
 20
-8.6596
 30
0.0
 10
-56.2627
 20
-8.6596
 30
0.0
 10
-56.2627
 20
-8.6596
 30
0.0
 10
-56.2627
 20
-8.6596
 30
0.0
 10
-56.2627
 20
-8.6596
 30
0.0
 10
-56.7143
 20
-5.6596
 30
0.0
 10
-56.7143
 20
-5.6596
 30
0.0
 10
-56.7143
 20
-5.6596
 30
0.0
 10
-56.7143
 20
-5.6596
 30
0.0
 10
-55.7453
 20
-5.6596
 30
0.0
 10
-55.7453
 20
-5.6596
 30
0.0
  0
SPLINE
  5
E3
330
1F
100
AcDbEntity
  8
ROUND
 62
   250
100
AcDbSpline
210
0.0
220
0.0
230
1.0
 70
    11
 71
     3
 72
    80
 73
    76
 74
     0
 42
0.0000000001
 43
0.0000000001
 40
0.0
 40
0.0
 40
0.0
 40
0.0
 40
0.05
 40
0.05
 40
0.05
 40
0.05
 40
0.1
 40
0.1
 40
0.1
 40
0.1
 40
0.15
 40
0.15
 40
0.15
 40
0.15
 40
0.2
 40
0.2
 40
0.2
 40
0.2
 40
0.25
 40
0.25
 40
0.25
 40
0.25
 40
0.3
 40
0.3
 40
0.3
 40
0.3
 40
0.35
 40
0.35
 40
0.35
 40
0.35
 40
0.4
 40
0.4
 40
0.4
 40
0.4
 40
0.45
 40
0.45
 40
0.45
 40
0.45
 40
0.5
 40
0.5
 40
0.5
 40
0.5
 40
0.55
 40
0.55
 40
0.55
 40
0.55
 40
0.6
 40
0.6
 40
0.6
 40
0.6
 40
0.65
 40
0.65
 40
0.65
 40
0.65
 40
0.7
 40
0.7
 40
0.7
 40
0.7
 40
0.75
 40
0.75
 40
0.75
 40
0.75
 40
0.8
 40
0.8
 40
0.8
 40
0.8
 40
0.85
 40
0.85
 40
0.85
 40
0.85
 40
0.9
 40
0.9
 40
0.9
 40
0.9
 40
1.0
 40
1.0
 40
1.0
 40
1.0
 10
-58.0649
 20
8.3243
 30
0.0
 10
-58.0649
 20
8.3243
 30
0.0
 10
-58.0457
 20
8.0778
 30
0.0
 10
-58.0457
 20
8.0778
 30
0.0
 10
-58.0457
 20
8.0778
 30
0.0
 10
-58.143
 20
8.0557
 30
0.0
 10
-58.214
 20
8.0247
 30
0.0
 10
-58.2578
 20
7.9842
 30
0.0
 10
-58.2578
 20
7.9842
 30
0.0
 10
-58.3288
 20
7.917
 30
0.0
 10
-58.3641
 20
7.8342
 30
0.0
 10
-58.3641
 20
7.7359
 30
0.0
 10
-58.3641
 20
7.7359
 30
0.0
 10
-58.3641
 20
7.6569
 30
0.0
 10
-58.342
 20
7.5877
 30
0.0
 10
-58.2978
 20
7.528
 30
0.0
 10
-58.2978
 20
7.528
 30
0.0
 10
-58.2409
 20
7.4499
 30
0.0
 10
-58.1576
 20
7.3883
 30
0.0
 10
-58.0485
 20
7.3431
 30
0.0
 10
-58.0485
 20
7.3431
 30
0.0
 10
-57.9394
 20
7.2985
 30
0.0
 10
-57.7837
 20
7.2749
 30
0.0
 10
-57.5814
 20
7.2731
 30
0.0
 10
-57.5814
 20
7.2731
 30
0.0
 10
-57.6722
 20
7.3328
 30
0.0
 10
-57.7399
 20
7.4057
 30
0.0
 10
-57.7841
 20
7.4922
 30
0.0
 10
-57.7841
 20
7.4922
 30
0.0
 10
-57.8279
 20
7.5783
 30
0.0
 10
-57.85
 20
7.6691
 30
0.0
 10
-57.85
 20
7.7636
 30
0.0
 10
-57.85
 20
7.7636
 30
0.0
 10
-57.85
 20
7.9292
 30
0.0
 10
-57.7893
 20
8.0698
 30
0.0
 10
-57.6675
 20
8.186
 30
0.0
 10
-57.6675
 20
8.186
 30
0.0
 10
-57.5457
 20
8.3022
 30
0.0
 10
-57.3886
 20
8.3605
 30
0.0
 10
-57.1957
 20
8.3605
 30
0.0
 10
-57.1957
 20
8.3605
 30
0.0
 10
-57.0687
 20
8.3605
 30
0.0
 10
-56.9512
 20
8.3328
 30
0.0
 10
-56.842
 20
8.2782
 30
0.0
 10
-56.842
 20
8.2782
 30
0.0
 10
-56.7334
 20
8.2236
 30
0.0
 10
-56.6497
 20
8.1484
 30
0.0
 10
-56.5918
 20
8.0529
 30
0.0
 10
-56.5918
 20
8.0529
 30
0.0
 10
-56.534
 20
7.9574
 30
0.0
 10
-56.5053
 20
7.8492
 30
0.0
 10
-56.5053
 20
7.7279
 30
0.0
 10
-56.5053
 20
7.7279
 30
0.0
 10
-56.5053
 20
7.5209
 30
0.0
 10
-56.581
 20
7.3526
 30
0.0
 10
-56.7334
 20
7.2223
 30
0.0
 10
-56.7334
 20
7.2223
 30
0.0
 10
-56.8853
 20
7.0915
 30
0.0
 10
-57.136
 20
7.0266
 30
0.0
 10
-57.485
 20
7.0266
 30
0.0
 10
-57.485
 20
7.0266
 30
0.0
 10
-57.8754
 20
7.0266
 30
0.0
 10
-58.159
 20
7.0986
 30
0.0
 10
-58.3363
 20
7.243
 30
0.0
 10
-58.3363
 20
7.243
 30
0.0
 10
-58.4906
 20
7.3685
 30
0.0
 10
-58.5682
 20
7.5379
 30
0.0
 10
-58.5682
 20
7.7514
 30
0.0
 10
-58.5682
 20
7.7514
 30
0.0
 10
-58.5682
 20
7.9099
 30
0.0
 10
-58.5235
 20
8.0402
 30
0.0
 10
-58.4342
 20
8.1418
 30
0.0
 10
-58.4342
 20
8.1418
 30
0.0
 10
-58.3453
 20
8.2434
 30
0.0
 10
-58.222
 20
8.3041
 30
0.0
 10
-58.0649
 20
8.3243
 30
0.0
  0
SPLINE
  5
E4
330
1F
100
AcDbEntity
  8
ROUND
 62
   250
100
AcDbSpline
210
0.0
220
0.0
230
1.0
 70
    11
 71
     3
 72
    40
 73
    36
 74
     0
 42
0.0000000001
 43
0.0000000001
 40
0.0
 40
0.0
 40
0.0
 40
0.0
 40
0.1
 40
0.1
 40
0.1
 40
0.1
 40
0.2
 40
0.2
 40
0.2
 40
0.2
 40
0.3
 40
0.3
 40
0.3
 40
0.3
 40
0.4
 40
0.4
 40
0.4
 40
0.4
 40
0.5
 40
0.5
 40
0.5
 40
0.5
 40
0.6
 40
0.6
 40
0.6
 40
0.6
 40
0.7
 40
0.7
 40
0.7
 40
0.7
 40
0.8
 40
0.8
 40
0.8
 40
0.8
 40
1.0
 40
1.0
 40
1.0
 40
1.0
 10
-57.1943
 20
7.3116
 30
0.0
 10
-57.1087
 20
7.3116
 30
0.0
 10
-57.0269
 20
7.33
 30
0.0
 10
-56.9488
 20
7.3662
 30
0.0
 10
-56.9488
 20
7.3662
 30
0.0
 10
-56.8707
 20
7.4024
 30
0.0
 10
-56.8115
 20
7.4532
 30
0.0
 10
-56.7705
 20
7.5181
 30
0.0
 10
-56.7705
 20
7.5181
 30
0.0
 10
-56.7296
 20
7.5835
 30
0.0
 10
-56.7089
 20
7.6522
 30
0.0
 10
-56.7089
 20
7.7237
 30
0.0
 10
-56.7089
 20
7.7237
 30
0.0
 10
-56.7089
 20
7.8285
 30
0.0
 10
-56.7513
 20
7.9184
 30
0.0
 10
-56.8359
 20
7.9936
 30
0.0
 10
-56.8359
 20
7.9936
 30
0.0
 10
-56.9206
 20
8.0689
 30
0.0
 10
-57.0353
 20
8.1065
 30
0.0
 10
-57.1802
 20
8.1065
 30
0.0
 10
-57.1802
 20
8.1065
 30
0.0
 10
-57.3199
 20
8.1065
 30
0.0
 10
-57.43
 20
8.0694
 30
0.0
 10
-57.5104
 20
7.995
 30
0.0
 10
-57.5104
 20
7.995
 30
0.0
 10
-57.5908
 20
7.9207
 30
0.0
 10
-57.6308
 20
7.8271
 30
0.0
 10
-57.6308
 20
7.7143
 30
0.0
 10
-57.6308
 20
7.7143
 30
0.0
 10
-57.6308
 20
7.6018
 30
0.0
 10
-57.5908
 20
7.5068
 30
0.0
 10
-57.5104
 20
7.4287
 30
0.0
 10
-57.5104
 20
7.4287
 30
0.0
 10
-57.43
 20
7.3507
 30
0.0
 10
-57.3246
 20
7.3116
 30
0.0
 10
-57.1943
 20
7.3116
 30
0.0
  0
SPLINE
  5
E5
330
1F
100
AcDbEntity
  8
ROUND
 62
   250
100
AcDbSpline
210
0.0
220
0.0
230
1.0
 70
    11
 71
     3
 72
    92
 73
    88
 74
     0
 42
0.0000000001
 43
0.0000000001
 40
0.0
 40
0.0
 40
0.0
 40
0.0
 40
0.0434782608695652
 40
0.0434782608695652
 40
0.0434782608695652
 40
0.0434782608695652
 40
0.0869565217391304
 40
0.0869565217391304
 40
0.0869565217391304
 40
0.0869565217391304
 40
0.1304347826086956
 40
0.1304347826086956
 40
0.1304347826086956
 40
0.1304347826086956
 40
0.1739130434782609
 40
0.1739130434782609
 40
0.1739130434782609
 40
0.1739130434782609
 40
0.2173913043478261
 40
0.2173913043478261
 40
0.2173913043478261
 40
0.2173913043478261
 40
0.2608695652173913
 40
0.2608695652173913
 40
0.2608695652173913
 40
0.2608695652173913
 40
0.3043478260869565
 40
0.3043478260869565
 40
0.3043478260869565
 40
0.3043478260869565
 40
0.3478260869565217
 40
0.3478260869565217
 40
0.3478260869565217
 40
0.3478260869565217
 40
0.391304347826087
 40
0.391304347826087
 40
0.391304347826087
 40
0.391304347826087
 40
0.4347826086956522
 40
0.4347826086956522
 40
0.4347826086956522
 40
0.4347826086956522
 40
0.4782608695652174
 40
0.4782608695652174
 40
0.4782608695652174
 40
0.4782608695652174
 40
0.5217391304347826
 40
0.5217391304347826
 40
0.5217391304347826
 40
0.5217391304347826
 40
0.5652173913043478
 40
0.5652173913043478
 40
0.5652173913043478
 40
0.5652173913043478
 40
0.6086956521739131
 40
0.6086956521739131
 40
0.6086956521739131
 40
0.6086956521739131
 40
0.6521739130434783
 40
0.6521739130434783
 40
0.6521739130434783
 40
0.6521739130434783
 40
0.6956521739130435
 40
0.6956521739130435
 40
0.6956521739130435
 40
0.6956521739130435
 40
0.7391304347826086
 40
0.7391304347826086
 40
0.7391304347826086
 40
0.7391304347826086
 40
0.782608695652174
 40
0.782608695652174
 40
0.782608695652174
 40
0.782608695652174
 40
0.8260869565217391
 40
0.8260869565217391
 40
0.8260869565217391
 40
0.8260869565217391
 40
0.8695652173913043
 40
0.8695652173913043
 40
0.8695652173913043
 40
0.8695652173913043
 40
0.9130434782608695
 40
0.9130434782608695
 40
0.9130434782608695
 40
0.9130434782608695
 40
1.0
 40
1.0
 40
1.0
 40
1.0
 10
-57.0687
 20
8.607
 30
0.0
 10
-57.0687
 20
8.607
 30
0.0
 10
-57.0909
 20
8.8676
 30
0.0
 10
-57.0909
 20
8.8676
 30
0.0
 10
-57.0909
 20
8.8676
 30
0.0
 10
-56.9639
 20
8.8869
 30
0.0
 10
-56.8688
 20
8.9316
 30
0.0
 10
-56.8049
 20
9.0016
 30
0.0
 10
-56.8049
 20
9.0016
 30
0.0
 10
-56.7409
 20
9.0722
 30
0.0
 10
-56.7089
 20
9.1569
 30
0.0
 10
-56.7089
 20
9.2561
 30
0.0
 10
-56.7089
 20
9.2561
 30
0.0
 10
-56.7089
 20
9.3756
 30
0.0
 10
-56.7541
 20
9.4767
 30
0.0
 10
-56.8439
 20
9.559
 30
0.0
 10
-56.8439
 20
9.559
 30
0.0
 10
-56.9342
 20
9.6418
 30
0.0
 10
-57.0537
 20
9.6832
 30
0.0
 10
-57.2023
 20
9.6832
 30
0.0
 10
-57.2023
 20
9.6832
 30
0.0
 10
-57.3439
 20
9.6832
 30
0.0
 10
-57.4554
 20
9.6437
 30
0.0
 10
-57.5372
 20
9.5642
 30
0.0
 10
-57.5372
 20
9.5642
 30
0.0
 10
-57.6191
 20
9.4847
 30
0.0
 10
-57.66
 20
9.3807
 30
0.0
 10
-57.66
 20
9.2519
 30
0.0
 10
-57.66
 20
9.2519
 30
0.0
 10
-57.66
 20
9.1719
 30
0.0
 10
-57.6416
 20
9.0999
 30
0.0
 10
-57.6054
 20
9.0355
 30
0.0
 10
-57.6054
 20
9.0355
 30
0.0
 10
-57.5692
 20
8.9711
 30
0.0
 10
-57.5222
 20
8.9207
 30
0.0
 10
-57.4643
 20
8.8841
 30
0.0
 10
-57.4643
 20
8.8841
 30
0.0
 10
-57.4643
 20
8.8841
 30
0.0
 10
-57.4944
 20
8.6512
 30
0.0
 10
-57.4944
 20
8.6512
 30
0.0
 10
-57.4944
 20
8.6512
 30
0.0
 10
-57.4944
 20
8.6512
 30
0.0
 10
-58.532
 20
8.8469
 30
0.0
 10
-58.532
 20
8.8469
 30
0.0
 10
-58.532
 20
8.8469
 30
0.0
 10
-58.532
 20
8.8469
 30
0.0
 10
-58.532
 20
9.8516
 30
0.0
 10
-58.532
 20
9.8516
 30
0.0
 10
-58.532
 20
9.8516
 30
0.0
 10
-58.532
 20
9.8516
 30
0.0
 10
-58.2949
 20
9.8516
 30
0.0
 10
-58.2949
 20
9.8516
 30
0.0
 10
-58.2949
 20
9.8516
 30
0.0
 10
-58.2949
 20
9.8516
 30
0.0
 10
-58.2949
 20
9.0454
 30
0.0
 10
-58.2949
 20
9.0454
 30
0.0
 10
-58.2949
 20
9.0454
 30
0.0
 10
-58.2949
 20
9.0454
 30
0.0
 10
-57.7522
 20
8.9363
 30
0.0
 10
-57.7522
 20
8.9363
 30
0.0
 10
-57.7522
 20
8.9363
 30
0.0
 10
-57.8368
 20
9.0576
 30
0.0
 10
-57.8792
 20
9.1851
 30
0.0
 10
-57.8792
 20
9.3182
 30
0.0
 10
-57.8792
 20
9.3182
 30
0.0
 10
-57.8792
 20
9.4946
 30
0.0
 10
-57.818
 20
9.6432
 30
0.0
 10
-57.6957
 20
9.7645
 30
0.0
 10
-57.6957
 20
9.7645
 30
0.0
 10
-57.5734
 20
9.8859
 30
0.0
 10
-57.4163
 20
9.9466
 30
0.0
 10
-57.2244
 20
9.9466
 30
0.0
 10
-57.2244
 20
9.9466
 30
0.0
 10
-57.0415
 20
9.9466
 30
0.0
 10
-56.8834
 20
9.893
 30
0.0
 10
-56.7503
 20
9.7867
 30
0.0
 10
-56.7503
 20
9.7867
 30
0.0
 10
-56.5871
 20
9.6568
 30
0.0
 10
-56.5053
 20
9.48
 30
0.0
 10
-56.5053
 20
9.2561
 30
0.0
 10
-56.5053
 20
9.2561
 30
0.0
 10
-56.5053
 20
9.0722
 30
0.0
 10
-56.5565
 20
8.9222
 30
0.0
 10
-56.6595
 20
8.806
 30
0.0
 10
-56.6595
 20
8.806
 30
0.0
 10
-56.7625
 20
8.6898
 30
0.0
 10
-56.8989
 20
8.6235
 30
0.0
 10
-57.0687
 20
8.607
 30
0.0
  0
SPLINE
  5
E6
330
1F
100
AcDbEntity
  8
ROUND
 62
   250
100
AcDbSpline
210
0.0
220
0.0
230
1.0
 70
    24
 71
     3
 72
     8
 73
     4
 74
     0
 42
0.0000000001
 43
0.0000000001
 40
0.0
 40
0.0
 40
0.0
 40
0.0
 40
1.0
 40
1.0
 40
1.0
 40
1.0
 10
-49.2052
 20
16.2607
 30
0.0
 10
-49.2052
 20
16.2607
 30
0.0
 10
-51.7105
 20
16.2607
 30
0.0
 10
-51.7105
 20
16.2607
 30
0.0
  0
SPLINE
  5
E7
330
1F
100
AcDbEntity
  8
ROUND
 62
   250
100
AcDbSpline
210
0.0
220
0.0
230
1.0
 70
     8
 71
     3
 72
    16
 73
    12
 74
     0
 42
0.0000000001
 43
0.0000000001
 40
0.0
 40
0.0
 40
0.0
 40
0.0
 40
0.25
 40
0.25
 40
0.25
 40
0.25
 40
0.5
 40
0.5
 40
0.5
 40
0.5
 40
1.0
 40
1.0
 40
1.0
 40
1.0
 10
2.9201
 20
15.6068
 30
0.0
 10
2.9201
 20
15.6068
 30
0.0
 10
-3.0679
 20
15.6068
 30
0.0
 10
-3.0679
 20
15.6068
 30
0.0
 10
-3.0679
 20
15.6068
 30
0.0
 10
-3.0679
 20
15.6068
 30
0.0
 10
-3.0855
 20
-8.0063
 30
0.0
 10
-3.0855
 20
-8.0063
 30
0.0
 10
-3.0855
 20
-8.0063
 30
0.0
 10
-3.0855
 20
-8.0063
 30
0.0
 10
2.9816
 20
-8.0063
 30
0.0
 10
2.9816
 20
-8.0063
 30
0.0
  0
SPLINE
  5
E8
330
1F
100
AcDbEntity
  8
ROUND
 62
   250
100
AcDbSpline
210
0.0
220
0.0
230
1.0
 70
     8
 71
     3
 72
   124
 73
   120
 74
     0
 42
0.0000000001
 43
0.0000000001
 40
0.0
 40
0.0
 40
0.0
 40
0.0
 40
0.032258064516129
 40
0.032258064516129
 40
0.032258064516129
 40
0.032258064516129
 40
0.0645161290322581
 40
0.0645161290322581
 40
0.0645161290322581
 40
0.0645161290322581
 40
0.0967741935483871
 40
0.0967741935483871
 40
0.0967741935483871
 40
0.0967741935483871
 40
0.1290322580645161
 40
0.1290322580645161
 40
0.1290322580645161
 40
0.1290322580645161
 40
0.1612903225806452
 40
0.1612903225806452
 40
0.1612903225806452
 40
0.1612903225806452
 40
0.1935483870967742
 40
0.1935483870967742
 40
0.1935483870967742
 40
0.1935483870967742
 40
0.2258064516129032
 40
0.2258064516129032
 40
0.2258064516129032
 40
0.2258064516129032
 40
0.2580645161290323
 40
0.2580645161290323
 40
0.2580645161290323
 40
0.2580645161290323
 40
0.2903225806451613
 40
0.2903225806451613
 40
0.2903225806451613
 40
0.2903225806451613
 40
0.3225806451612903
 40
0.3225806451612903
 40
0.3225806451612903
 40
0.3225806451612903
 40
0.3548387096774194
 40
0.3548387096774194
 40
0.3548387096774194
 40
0.3548387096774194
 40
0.3870967741935484
 40
0.3870967741935484
 40
0.3870967741935484
 40
0.3870967741935484
 40
0.4193548387096774
 40
0.4193548387096774
 40
0.4193548387096774
 40
0.4193548387096774
 40
0.4516129032258064
 40
0.4516129032258064
 40
0.4516129032258064
 40
0.4516129032258064
 40
0.4838709677419355
 40
0.4838709677419355
 40
0.4838709677419355
 40
0.4838709677419355
 40
0.5161290322580645
 40
0.5161290322580645
 40
0.5161290322580645
 40
0.5161290322580645
 40
0.5483870967741935
 40
0.5483870967741935
 40
0.5483870967741935
 40
0.5483870967741935
 40
0.5806451612903226
 40
0.5806451612903226
 40
0.5806451612903226
 40
0.5806451612903226
 40
0.6129032258064516
 40
0.6129032258064516
 40
0.6129032258064516
 40
0.6129032258064516
 40
0.6451612903225806
 40
0.6451612903225806
 40
0.6451612903225806
 40
0.6451612903225806
 40
0.6774193548387096
 40
0.6774193548387096
 40
0.6774193548387096
 40
0.6774193548387096
 40
0.7096774193548387
 40
0.7096774193548387
 40
0.7096774193548387
 40
0.7096774193548387
 40
0.7419354838709677
 40
0.7419354838709677
 40
0.7419354838709677
 40
0.7419354838709677
 40
0.7741935483870968
 40
0.7741935483870968
 40
0.7741935483870968
 40
0.7741935483870968
 40
0.8064516129032258
 40
0.8064516129032258
 40
0.8064516129032258
 40
0.8064516129032258
 40
0.8387096774193549
 40
0.8387096774193549
 40
0.8387096774193549
 40
0.8387096774193549
 40
0.8709677419354839
 40
0.8709677419354839
 40
0.8709677419354839
 40
0.8709677419354839
 40
0.9032258064516129
 40
0.9032258064516129
 40
0.9032258064516129
 40
0.9032258064516129
 40
0.9354838709677419
 40
0.9354838709677419
 40
0.9354838709677419
 40
0.9354838709677419
 40
1.0
 40
1.0
 40
1.0
 40
1.0
 10
2.0647
 20
-7.8863
 30
0.0
 10
2.0647
 20
-7.8863
 30
0.0
 10
-1.7848
 20
-7.8863
 30
0.0
 10
-1.7848
 20
-7.8863
 30
0.0
 10
-1.7848
 20
-7.8863
 30
0.0
 10
-1.7848
 20
-7.8863
 30
0.0
 10
-1.7784
 20
-5.1379
 30
0.0
 10
-1.7784
 20
-5.1379
 30
0.0
 10
-1.7784
 20
-5.1379
 30
0.0
 10
-1.7784
 20
-5.1379
 30
0.0
 10
2.3269
 20
-5.1048
 30
0.0
 10
2.3269
 20
-5.1048
 30
0.0
 10
2.3269
 20
-5.1048
 30
0.0
 10
2.3269
 20
-5.1048
 30
0.0
 10
2.6249
 20
-4.9392
 30
0.0
 10
2.6249
 20
-4.9392
 30
0.0
 10
2.6249
 20
-4.9392
 30
0.0
 10
2.6249
 20
-4.9392
 30
0.0
 10
2.9229
 20
-4.6081
 30
0.0
 10
2.9229
 20
-4.6081
 30
0.0
 10
2.9229
 20
-4.6081
 30
0.0
 10
2.9229
 20
-4.6081
 30
0.0
 10
2.9229
 20
-4.3102
 30
0.0
 10
2.9229
 20
-4.3102
 30
0.0
 10
2.9229
 20
-4.3102
 30
0.0
 10
2.9229
 20
-4.3102
 30
0.0
 10
2.7573
 20
-4.1115
 30
0.0
 10
2.7573
 20
-4.1115
 30
0.0
 10
2.7573
 20
-4.1115
 30
0.0
 10
2.7573
 20
-4.1115
 30
0.0
 10
2.5587
 20
-3.9129
 30
0.0
 10
2.5587
 20
-3.9129
 30
0.0
 10
2.5587
 20
-3.9129
 30
0.0
 10
2.5587
 20
-3.9129
 30
0.0
 10
2.0952
 20
-3.8798
 30
0.0
 10
2.0952
 20
-3.8798
 30
0.0
 10
2.0952
 20
-3.8798
 30
0.0
 10
2.0952
 20
-3.8798
 30
0.0
 10
-1.7122
 20
-3.8467
 30
0.0
 10
-1.7122
 20
-3.8467
 30
0.0
 10
-1.7122
 20
-3.8467
 30
0.0
 10
-1.7122
 20
-3.8467
 30
0.0
 10
-1.7784
 20
3.0398
 30
0.0
 10
-1.7784
 20
3.0398
 30
0.0
 10
-1.7784
 20
3.0398
 30
0.0
 10
-1.7784
 20
3.0398
 30
0.0
 10
2.0621
 20
3.0067
 30
0.0
 10
2.0621
 20
3.0067
 30
0.0
 10
2.0621
 20
3.0067
 30
0.0
 10
2.0621
 20
3.0067
 30
0.0
 10
2.4263
 20
3.106
 30
0.0
 10
2.4263
 20
3.106
 30
0.0
 10
2.4263
 20
3.106
 30
0.0
 10
2.4263
 20
3.106
 30
0.0
 10
2.7242
 20
3.3046
 30
0.0
 10
2.7242
 20
3.3046
 30
0.0
 10
2.7242
 20
3.3046
 30
0.0
 10
2.7242
 20
3.3046
 30
0.0
 10
2.8898
 20
3.6357
 30
0.0
 10
2.8898
 20
3.6357
 30
0.0
 10
2.8898
 20
3.6357
 30
0.0
 10
2.8898
 20
3.6357
 30
0.0
 10
2.8898
 20
4.033
 30
0.0
 10
2.8898
 20
4.033
 30
0.0
 10
2.8898
 20
4.033
 30
0.0
 10
2.8898
 20
4.033
 30
0.0
 10
2.7573
 20
4.331
 30
0.0
 10
2.7573
 20
4.331
 30
0.0
 10
2.7573
 20
4.331
 30
0.0
 10
2.7573
 20
4.331
 30
0.0
 10
2.4925
 20
4.5627
 30
0.0
 10
2.4925
 20
4.5627
 30
0.0
 10
2.4925
 20
4.5627
 30
0.0
 10
2.4925
 20
4.5627
 30
0.0
 10
2.1614
 20
4.6621
 30
0.0
 10
2.1614
 20
4.6621
 30
0.0
 10
2.1614
 20
4.6621
 30
0.0
 10
2.1614
 20
4.6621
 30
0.0
 10
-1.7453
 20
4.629
 30
0.0
 10
-1.7453
 20
4.629
 30
0.0
 10
-1.7453
 20
4.629
 30
0.0
 10
-1.7453
 20
4.629
 30
0.0
 10
-1.7784
 20
11.5485
 30
0.0
 10
-1.7784
 20
11.5485
 30
0.0
 10
-1.7784
 20
11.5485
 30
0.0
 10
-1.7784
 20
11.5485
 30
0.0
 10
2.2245
 20
11.5571
 30
0.0
 10
2.2245
 20
11.5571
 30
0.0
 10
2.2245
 20
11.5571
 30
0.0
 10
2.2245
 20
11.5571
 30
0.0
 10
2.6477
 20
11.6818
 30
0.0
 10
2.6477
 20
11.6818
 30
0.0
 10
2.6477
 20
11.6818
 30
0.0
 10
2.6477
 20
11.6818
 30
0.0
 10
2.9214
 20
12.031
 30
0.0
 10
2.9214
 20
12.031
 30
0.0
 10
2.9214
 20
12.031
 30
0.0
 10
2.9214
 20
12.031
 30
0.0
 10
2.9214
 20
12.3053
 30
0.0
 10
2.9214
 20
12.3053
 30
0.0
 10
2.9214
 20
12.3053
 30
0.0
 10
2.9214
 20
12.3053
 30
0.0
 10
2.797
 20
12.5547
 30
0.0
 10
2.797
 20
12.5547
 30
0.0
 10
2.797
 20
12.5547
 30
0.0
 10
2.797
 20
12.5547
 30
0.0
 10
2.3988
 20
12.7043
 30
0.0
 10
2.3988
 20
12.7043
 30
0.0
 10
2.3988
 20
12.7043
 30
0.0
 10
2.3988
 20
12.7043
 30
0.0
 10
2.1249
 20
12.7542
 30
0.0
 10
2.1249
 20
12.7542
 30
0.0
 10
2.1249
 20
12.7542
 30
0.0
 10
2.1249
 20
12.7542
 30
0.0
 10
-1.7826
 20
12.7542
 30
0.0
 10
-1.7826
 20
12.7542
 30
0.0
 10
-1.7826
 20
12.7542
 30
0.0
 10
-1.7826
 20
12.7542
 30
0.0
 10
-1.7826
 20
15.6472
 30
0.0
 10
-1.7826
 20
15.6472
 30
0.0
  0
SPLINE
  5
E9
330
1F
100
AcDbEntity
  8
ROUND
 62
   250
100
AcDbSpline
210
0.0
220
0.0
230
1.0
 70
     8
 71
     3
 72
    36
 73
    32
 74
     0
 42
0.0000000001
 43
0.0000000001
 40
0.0
 40
0.0
 40
0.0
 40
0.0
 40
0.1111111111111111
 40
0.1111111111111111
 40
0.1111111111111111
 40
0.1111111111111111
 40
0.2222222222222222
 40
0.2222222222222222
 40
0.2222222222222222
 40
0.2222222222222222
 40
0.3333333333333333
 40
0.3333333333333333
 40
0.3333333333333333
 40
0.3333333333333333
 40
0.4444444444444444
 40
0.4444444444444444
 40
0.4444444444444444
 40
0.4444444444444444
 40
0.5555555555555556
 40
0.5555555555555556
 40
0.5555555555555556
 40
0.5555555555555556
 40
0.6666666666666666
 40
0.6666666666666666
 40
0.6666666666666666
 40
0.6666666666666666
 40
0.7777777777777778
 40
0.7777777777777778
 40
0.7777777777777778
 40
0.7777777777777778
 40
1.0
 40
1.0
 40
1.0
 40
1.0
 10
-1.7961
 20
15.3978
 30
0.0
 10
-1.7961
 20
15.3978
 30
0.0
 10
3.5167
 20
15.3932
 30
0.0
 10
3.9891
 20
15.3932
 30
0.0
 10
3.9891
 20
15.3932
 30
0.0
 10
4.4615
 20
15.3932
 30
0.0
 10
4.8447
 20
15.0094
 30
0.0
 10
4.8447
 20
14.5371
 30
0.0
 10
4.8447
 20
14.5371
 30
0.0
 10
4.8447
 20
14.0648
 30
0.0
 10
4.8609
 20
-6.8439
 30
0.0
 10
4.8609
 20
-6.8439
 30
0.0
 10
4.8609
 20
-6.8439
 30
0.0
 10
4.8609
 20
-6.8439
 30
0.0
 10
4.7382
 20
-7.182
 30
0.0
 10
4.7382
 20
-7.182
 30
0.0
 10
4.7382
 20
-7.182
 30
0.0
 10
4.7382
 20
-7.182
 30
0.0
 10
4.5834
 20
-7.4798
 30
0.0
 10
4.5834
 20
-7.4798
 30
0.0
 10
4.5834
 20
-7.4798
 30
0.0
 10
4.5834
 20
-7.4798
 30
0.0
 10
4.3333
 20
-7.6584
 30
0.0
 10
4.3333
 20
-7.6584
 30
0.0
 10
4.3333
 20
-7.6584
 30
0.0
 10
4.3333
 20
-7.6584
 30
0.0
 10
4.0594
 20
-7.706
 30
0.0
 10
4.0594
 20
-7.706
 30
0.0
 10
4.0594
 20
-7.706
 30
0.0
 10
4.0594
 20
-7.706
 30
0.0
 10
-1.8114
 20
-7.6941
 30
0.0
 10
-1.8114
 20
-7.6941
 30
0.0
  0
SPLINE
  5
EA
330
1F
100
AcDbEntity
  8
ROUND
 62
   250
100
AcDbSpline
210
0.0
220
0.0
230
1.0
 70
    11
 71
     3
 72
    20
 73
    16
 74
     0
 42
0.0000000001
 43
0.0000000001
 40
0.0
 40
0.0
 40
0.0
 40
0.0
 40
0.2
 40
0.2
 40
0.2
 40
0.2
 40
0.4
 40
0.4
 40
0.4
 40
0.4
 40
0.6
 40
0.6
 40
0.6
 40
0.6
 40
1.0
 40
1.0
 40
1.0
 40
1.0
 10
29.1869
 20
-5.9299
 30
0.0
 10
29.1869
 20
-5.9299
 30
0.0
 10
27.0743
 20
-8.2745
 30
0.0
 10
27.0743
 20
-8.2745
 30
0.0
 10
27.0743
 20
-8.2745
 30
0.0
 10
27.0743
 20
-8.2745
 30
0.0
 10
27.1372
 20
-8.3496
 30
0.0
 10
27.1372
 20
-8.3496
 30
0.0
 10
27.1372
 20
-8.3496
 30
0.0
 10
27.1372
 20
-8.3496
 30
0.0
 10
29.835
 20
-6.7037
 30
0.0
 10
29.835
 20
-6.7037
 30
0.0
 10
29.835
 20
-6.7037
 30
0.0
 10
29.835
 20
-6.7037
 30
0.0
 10
29.1869
 20
-5.9299
 30
0.0
 10
29.1869
 20
-5.9299
 30
0.0
  0
SPLINE
  5
EB
330
1F
100
AcDbEntity
  8
ROUND
 62
   250
100
AcDbSpline
210
0.0
220
0.0
230
1.0
 70
    11
 71
     3
 72
    20
 73
    16
 74
     0
 42
0.0000000001
 43
0.0000000001
 40
0.0
 40
0.0
 40
0.0
 40
0.0
 40
0.2
 40
0.2
 40
0.2
 40
0.2
 40
0.4
 40
0.4
 40
0.4
 40
0.4
 40
0.6
 40
0.6
 40
0.6
 40
0.6
 40
1.0
 40
1.0
 40
1.0
 40
1.0
 10
32.3858
 20
0.5619
 30
0.0
 10
32.3858
 20
0.5619
 30
0.0
 10
32.2217
 20
3.7136
 30
0.0
 10
32.2217
 20
3.7136
 30
0.0
 10
32.2217
 20
3.7136
 30
0.0
 10
32.2217
 20
3.7136
 30
0.0
 10
32.1241
 20
3.7223
 30
0.0
 10
32.1241
 20
3.7223
 30
0.0
 10
32.1241
 20
3.7223
 30
0.0
 10
32.1241
 20
3.7223
 30
0.0
 10
31.3803
 20
0.6508
 30
0.0
 10
31.3803
 20
0.6508
 30
0.0
 10
31.3803
 20
0.6508
 30
0.0
 10
31.3803
 20
0.6508
 30
0.0
 10
32.3858
 20
0.5619
 30
0.0
 10
32.3858
 20
0.5619
 30
0.0
  0
SPLINE
  5
EC
330
1F
100
AcDbEntity
  8
ROUND
 62
   250
100
AcDbSpline
210
0.0
220
0.0
230
1.0
 70
    11
 71
     3
 72
    48
 73
    44
 74
     0
 42
0.0000000001
 43
0.0000000001
 40
0.0
 40
0.0
 40
0.0
 40
0.0
 40
0.0833333333333333
 40
0.0833333333333333
 40
0.0833333333333333
 40
0.0833333333333333
 40
0.1666666666666667
 40
0.1666666666666667
 40
0.1666666666666667
 40
0.1666666666666667
 40
0.25
 40
0.25
 40
0.25
 40
0.25
 40
0.3333333333333333
 40
0.3333333333333333
 40
0.3333333333333333
 40
0.3333333333333333
 40
0.4166666666666667
 40
0.4166666666666667
 40
0.4166666666666667
 40
0.4166666666666667
 40
0.5
 40
0.5
 40
0.5
 40
0.5
 40
0.5833333333333334
 40
0.5833333333333334
 40
0.5833333333333334
 40
0.5833333333333334
 40
0.6666666666666666
 40
0.6666666666666666
 40
0.6666666666666666
 40
0.6666666666666666
 40
0.75
 40
0.75
 40
0.75
 40
0.75
 40
0.8333333333333334
 40
0.8333333333333334
 40
0.8333333333333334
 40
0.8333333333333334
 40
1.0
 40
1.0
 40
1.0
 40
1.0
 10
30.2211
 20
-3.8483
 30
0.0
 10
30.2211
 20
-3.8483
 30
0.0
 10
29.8448
 20
-3.5445
 30
0.0
 10
29.8448
 20
-3.5445
 30
0.0
 10
29.8448
 20
-3.5445
 30
0.0
 10
29.8448
 20
-3.5445
 30
0.0
 10
29.2943
 20
-4.2263
 30
0.0
 10
29.2943
 20
-4.2263
 30
0.0
 10
29.2943
 20
-4.2263
 30
0.0
 10
29.2943
 20
-4.2263
 30
0.0
 10
29.1172
 20
-4.0833
 30
0.0
 10
29.1172
 20
-4.0833
 30
0.0
 10
29.1172
 20
-4.0833
 30
0.0
 10
29.1172
 20
-4.0833
 30
0.0
 10
28.6779
 20
-2.5436
 30
0.0
 10
28.6779
 20
-2.5436
 30
0.0
 10
28.6779
 20
-2.5436
 30
0.0
 10
28.6779
 20
-2.5436
 30
0.0
 10
28.8052
 20
-2.3859
 30
0.0
 10
28.8052
 20
-2.3859
 30
0.0
 10
28.8052
 20
-2.3859
 30
0.0
 10
28.8052
 20
-2.3859
 30
0.0
 10
29.8237
 20
-3.2083
 30
0.0
 10
29.8237
 20
-3.2083
 30
0.0
 10
29.8237
 20
-3.2083
 30
0.0
 10
29.8237
 20
-3.2083
 30
0.0
 10
29.9951
 20
-2.996
 30
0.0
 10
29.9951
 20
-2.996
 30
0.0
 10
29.9951
 20
-2.996
 30
0.0
 10
29.9951
 20
-2.996
 30
0.0
 10
30.1722
 20
-3.139
 30
0.0
 10
30.1722
 20
-3.139
 30
0.0
 10
30.1722
 20
-3.139
 30
0.0
 10
30.1722
 20
-3.139
 30
0.0
 10
30.0008
 20
-3.3513
 30
0.0
 10
30.0008
 20
-3.3513
 30
0.0
 10
30.0008
 20
-3.3513
 30
0.0
 10
30.0008
 20
-3.3513
 30
0.0
 10
30.3771
 20
-3.655
 30
0.0
 10
30.3771
 20
-3.655
 30
0.0
 10
30.3771
 20
-3.655
 30
0.0
 10
30.3771
 20
-3.655
 30
0.0
 10
30.2211
 20
-3.8483
 30
0.0
 10
30.2211
 20
-3.8483
 30
0.0
  0
SPLINE
  5
ED
330
1F
100
AcDbEntity
  8
ROUND
 62
   250
100
AcDbSpline
210
0.0
220
0.0
230
1.0
 70
    11
 71
     3
 72
    16
 73
    12
 74
     0
 42
0.0000000001
 43
0.0000000001
 40
0.0
 40
0.0
 40
0.0
 40
0.0
 40
0.25
 40
0.25
 40
0.25
 40
0.25
 40
0.5
 40
0.5
 40
0.5
 40
0.5
 40
1.0
 40
1.0
 40
1.0
 40
1.0
 10
29.6677
 20
-3.4015
 30
0.0
 10
29.6677
 20
-3.4015
 30
0.0
 10
28.9592
 20
-2.8294
 30
0.0
 10
28.9592
 20
-2.8294
 30
0.0
 10
28.9592
 20
-2.8294
 30
0.0
 10
28.9592
 20
-2.8294
 30
0.0
 10
29.2706
 20
-3.8933
 30
0.0
 10
29.2706
 20
-3.8933
 30
0.0
 10
29.2706
 20
-3.8933
 30
0.0
 10
29.2706
 20
-3.8933
 30
0.0
 10
29.6677
 20
-3.4015
 30
0.0
 10
29.6677
 20
-3.4015
 30
0.0
  0
SPLINE
  5
EE
330
1F
100
AcDbEntity
  8
ROUND
 62
   250
100
AcDbSpline
210
0.0
220
0.0
230
1.0
 70
    11
 71
     3
 72
    92
 73
    88
 74
     0
 42
0.0000000001
 43
0.0000000001
 40
0.0
 40
0.0
 40
0.0
 40
0.0
 40
0.0434782608695652
 40
0.0434782608695652
 40
0.0434782608695652
 40
0.0434782608695652
 40
0.0869565217391304
 40
0.0869565217391304
 40
0.0869565217391304
 40
0.0869565217391304
 40
0.1304347826086956
 40
0.1304347826086956
 40
0.1304347826086956
 40
0.1304347826086956
 40
0.1739130434782609
 40
0.1739130434782609
 40
0.1739130434782609
 40
0.1739130434782609
 40
0.2173913043478261
 40
0.2173913043478261
 40
0.2173913043478261
 40
0.2173913043478261
 40
0.2608695652173913
 40
0.2608695652173913
 40
0.2608695652173913
 40
0.2608695652173913
 40
0.3043478260869565
 40
0.3043478260869565
 40
0.3043478260869565
 40
0.3043478260869565
 40
0.3478260869565217
 40
0.3478260869565217
 40
0.3478260869565217
 40
0.3478260869565217
 40
0.391304347826087
 40
0.391304347826087
 40
0.391304347826087
 40
0.391304347826087
 40
0.4347826086956522
 40
0.4347826086956522
 40
0.4347826086956522
 40
0.4347826086956522
 40
0.4782608695652174
 40
0.4782608695652174
 40
0.4782608695652174
 40
0.4782608695652174
 40
0.5217391304347826
 40
0.5217391304347826
 40
0.5217391304347826
 40
0.5217391304347826
 40
0.5652173913043478
 40
0.5652173913043478
 40
0.5652173913043478
 40
0.5652173913043478
 40
0.6086956521739131
 40
0.6086956521739131
 40
0.6086956521739131
 40
0.6086956521739131
 40
0.6521739130434783
 40
0.6521739130434783
 40
0.6521739130434783
 40
0.6521739130434783
 40
0.6956521739130435
 40
0.6956521739130435
 40
0.6956521739130435
 40
0.6956521739130435
 40
0.7391304347826086
 40
0.7391304347826086
 40
0.7391304347826086
 40
0.7391304347826086
 40
0.782608695652174
 40
0.782608695652174
 40
0.782608695652174
 40
0.782608695652174
 40
0.8260869565217391
 40
0.8260869565217391
 40
0.8260869565217391
 40
0.8260869565217391
 40
0.8695652173913043
 40
0.8695652173913043
 40
0.8695652173913043
 40
0.8695652173913043
 40
0.9130434782608695
 40
0.9130434782608695
 40
0.9130434782608695
 40
0.9130434782608695
 40
1.0
 40
1.0
 40
1.0
 40
1.0
 10
30.296
 20
-2.9131
 30
0.0
 10
30.296
 20
-2.9131
 30
0.0
 10
30.4425
 20
-2.6964
 30
0.0
 10
30.4425
 20
-2.6964
 30
0.0
 10
30.4425
 20
-2.6964
 30
0.0
 10
30.5535
 20
-2.7612
 30
0.0
 10
30.6555
 20
-2.7862
 30
0.0
 10
30.7493
 20
-2.7718
 30
0.0
 10
30.7493
 20
-2.7718
 30
0.0
 10
30.8434
 20
-2.7571
 30
0.0
 10
30.9214
 20
-2.7113
 30
0.0
 10
30.9838
 20
-2.6341
 30
0.0
 10
30.9838
 20
-2.6341
 30
0.0
 10
31.0588
 20
-2.5411
 30
0.0
 10
31.0872
 20
-2.4341
 30
0.0
 10
31.069
 20
-2.3136
 30
0.0
 10
31.069
 20
-2.3136
 30
0.0
 10
31.0508
 20
-2.1925
 30
0.0
 10
30.9838
 20
-2.0852
 30
0.0
 10
30.8682
 20
-1.9918
 30
0.0
 10
30.8682
 20
-1.9918
 30
0.0
 10
30.758
 20
-1.9029
 30
0.0
 10
30.6465
 20
-1.8636
 30
0.0
 10
30.5329
 20
-1.874
 30
0.0
 10
30.5329
 20
-1.874
 30
0.0
 10
30.4192
 20
-1.8844
 30
0.0
 10
30.3221
 20
-1.9396
 30
0.0
 10
30.2411
 20
-2.0399
 30
0.0
 10
30.2411
 20
-2.0399
 30
0.0
 10
30.1909
 20
-2.1021
 30
0.0
 10
30.16
 20
-2.1696
 30
0.0
 10
30.1476
 20
-2.2425
 30
0.0
 10
30.1476
 20
-2.2425
 30
0.0
 10
30.1353
 20
-2.3154
 30
0.0
 10
30.1403
 20
-2.3841
 30
0.0
 10
30.1623
 20
-2.449
 30
0.0
 10
30.1623
 20
-2.449
 30
0.0
 10
30.1623
 20
-2.449
 30
0.0
 10
29.9926
 20
-2.6113
 30
0.0
 10
29.9926
 20
-2.6113
 30
0.0
 10
29.9926
 20
-2.6113
 30
0.0
 10
29.9926
 20
-2.6113
 30
0.0
 10
29.3082
 20
-1.8071
 30
0.0
 10
29.3082
 20
-1.8071
 30
0.0
 10
29.3082
 20
-1.8071
 30
0.0
 10
29.3082
 20
-1.8071
 30
0.0
 10
29.9394
 20
-1.0254
 30
0.0
 10
29.9394
 20
-1.0254
 30
0.0
 10
29.9394
 20
-1.0254
 30
0.0
 10
29.9394
 20
-1.0254
 30
0.0
 10
30.1238
 20
-1.1744
 30
0.0
 10
30.1238
 20
-1.1744
 30
0.0
 10
30.1238
 20
-1.1744
 30
0.0
 10
30.1238
 20
-1.1744
 30
0.0
 10
29.6173
 20
-1.8016
 30
0.0
 10
29.6173
 20
-1.8016
 30
0.0
 10
29.6173
 20
-1.8016
 30
0.0
 10
29.6173
 20
-1.8016
 30
0.0
 10
29.9711
 20
-2.2275
 30
0.0
 10
29.9711
 20
-2.2275
 30
0.0
 10
29.9711
 20
-2.2275
 30
0.0
 10
29.9815
 20
-2.0799
 30
0.0
 10
30.0286
 20
-1.9542
 30
0.0
 10
30.1123
 20
-1.8506
 30
0.0
 10
30.1123
 20
-1.8506
 30
0.0
 10
30.2231
 20
-1.7133
 30
0.0
 10
30.364
 20
-1.6361
 30
0.0
 10
30.5354
 20
-1.6185
 30
0.0
 10
30.5354
 20
-1.6185
 30
0.0
 10
30.7068
 20
-1.6009
 30
0.0
 10
30.8672
 20
-1.6524
 30
0.0
 10
31.0165
 20
-1.773
 30
0.0
 10
31.0165
 20
-1.773
 30
0.0
 10
31.1588
 20
-1.8879
 30
0.0
 10
31.2481
 20
-2.0289
 30
0.0
 10
31.2849
 20
-2.1953
 30
0.0
 10
31.2849
 20
-2.1953
 30
0.0
 10
31.3303
 20
-2.3988
 30
0.0
 10
31.2829
 20
-2.5879
 30
0.0
 10
31.1422
 20
-2.762
 30
0.0
 10
31.1422
 20
-2.762
 30
0.0
 10
31.0267
 20
-2.9051
 30
0.0
 10
30.8926
 20
-2.9897
 30
0.0
 10
30.7394
 20
-3.0154
 30
0.0
 10
30.7394
 20
-3.0154
 30
0.0
 10
30.5863
 20
-3.041
 30
0.0
 10
30.4385
 20
-3.0069
 30
0.0
 10
30.296
 20
-2.9131
 30
0.0
  0
SPLINE
  5
EF
330
1F
100
AcDbEntity
  8
ROUND
 62
   250
100
AcDbSpline
210
0.0
220
0.0
230
1.0
 70
    11
 71
     3
 72
    36
 73
    32
 74
     0
 42
0.0000000001
 43
0.0000000001
 40
0.0
 40
0.0
 40
0.0
 40
0.0
 40
0.1111111111111111
 40
0.1111111111111111
 40
0.1111111111111111
 40
0.1111111111111111
 40
0.2222222222222222
 40
0.2222222222222222
 40
0.2222222222222222
 40
0.2222222222222222
 40
0.3333333333333333
 40
0.3333333333333333
 40
0.3333333333333333
 40
0.3333333333333333
 40
0.4444444444444444
 40
0.4444444444444444
 40
0.4444444444444444
 40
0.4444444444444444
 40
0.5555555555555556
 40
0.5555555555555556
 40
0.5555555555555556
 40
0.5555555555555556
 40
0.6666666666666666
 40
0.6666666666666666
 40
0.6666666666666666
 40
0.6666666666666666
 40
0.7777777777777778
 40
0.7777777777777778
 40
0.7777777777777778
 40
0.7777777777777778
 40
1.0
 40
1.0
 40
1.0
 40
1.0
 10
30.4293
 20
-0.9271
 30
0.0
 10
30.3473
 20
-0.8609
 30
0.0
 10
30.3007
 20
-0.7749
 30
0.0
 10
30.2899
 20
-0.67
 30
0.0
 10
30.2899
 20
-0.67
 30
0.0
 10
30.279
 20
-0.5651
 30
0.0
 10
30.3065
 20
-0.4719
 30
0.0
 10
30.3724
 20
-0.3903
 30
0.0
 10
30.3724
 20
-0.3903
 30
0.0
 10
30.4392
 20
-0.3075
 30
0.0
 10
30.5249
 20
-0.2606
 30
0.0
 10
30.6297
 20
-0.2491
 30
0.0
 10
30.6297
 20
-0.2491
 30
0.0
 10
30.7342
 20
-0.238
 30
0.0
 10
30.8278
 20
-0.2658
 30
0.0
 10
30.9098
 20
-0.332
 30
0.0
 10
30.9098
 20
-0.332
 30
0.0
 10
30.9921
 20
-0.3985
 30
0.0
 10
31.0387
 20
-0.4845
 30
0.0
 10
31.05
 20
-0.5897
 30
0.0
 10
31.05
 20
-0.5897
 30
0.0
 10
31.0612
 20
-0.6949
 30
0.0
 10
31.0337
 20
-0.7888
 30
0.0
 10
30.9675
 20
-0.8707
 30
0.0
 10
30.9675
 20
-0.8707
 30
0.0
 10
30.9016
 20
-0.9523
 30
0.0
 10
30.8163
 20
-0.9989
 30
0.0
 10
30.7115
 20
-1.0104
 30
0.0
 10
30.7115
 20
-1.0104
 30
0.0
 10
30.6063
 20
-1.0216
 30
0.0
 10
30.5124
 20
-0.9942
 30
0.0
 10
30.4293
 20
-0.9271
 30
0.0
  0
SPLINE
  5
F0
330
1F
100
AcDbEntity
  8
ROUND
 62
   250
100
AcDbSpline
210
0.0
220
0.0
230
1.0
 70
    11
 71
     3
 72
    36
 73
    32
 74
     0
 42
0.0000000001
 43
0.0000000001
 40
0.0
 40
0.0
 40
0.0
 40
0.0
 40
0.1111111111111111
 40
0.1111111111111111
 40
0.1111111111111111
 40
0.1111111111111111
 40
0.2222222222222222
 40
0.2222222222222222
 40
0.2222222222222222
 40
0.2222222222222222
 40
0.3333333333333333
 40
0.3333333333333333
 40
0.3333333333333333
 40
0.3333333333333333
 40
0.4444444444444444
 40
0.4444444444444444
 40
0.4444444444444444
 40
0.4444444444444444
 40
0.5555555555555556
 40
0.5555555555555556
 40
0.5555555555555556
 40
0.5555555555555556
 40
0.6666666666666666
 40
0.6666666666666666
 40
0.6666666666666666
 40
0.6666666666666666
 40
0.7777777777777778
 40
0.7777777777777778
 40
0.7777777777777778
 40
0.7777777777777778
 40
1.0
 40
1.0
 40
1.0
 40
1.0
 10
30.5236
 20
-0.8103
 30
0.0
 10
30.5737
 20
-0.8508
 30
0.0
 10
30.631
 20
-0.8675
 30
0.0
 10
30.6945
 20
-0.8607
 30
0.0
 10
30.6945
 20
-0.8607
 30
0.0
 10
30.7587
 20
-0.8538
 30
0.0
 10
30.8108
 20
-0.8252
 30
0.0
 10
30.851
 20
-0.7754
 30
0.0
 10
30.851
 20
-0.7754
 30
0.0
 10
30.8909
 20
-0.726
 30
0.0
 10
30.9076
 20
-0.6694
 30
0.0
 10
30.9008
 20
-0.6052
 30
0.0
 10
30.9008
 20
-0.6052
 30
0.0
 10
30.894
 20
-0.5417
 30
0.0
 10
30.8656
 20
-0.4892
 30
0.0
 10
30.8155
 20
-0.4488
 30
0.0
 10
30.8155
 20
-0.4488
 30
0.0
 10
30.7657
 20
-0.4086
 30
0.0
 10
30.7084
 20
-0.3919
 30
0.0
 10
30.6446
 20
-0.3984
 30
0.0
 10
30.6446
 20
-0.3984
 30
0.0
 10
30.5808
 20
-0.4055
 30
0.0
 10
30.5286
 20
-0.4335
 30
0.0
 10
30.4887
 20
-0.4829
 30
0.0
 10
30.4887
 20
-0.4829
 30
0.0
 10
30.4485
 20
-0.5327
 30
0.0
 10
30.4318
 20
-0.59
 30
0.0
 10
30.4383
 20
-0.6538
 30
0.0
 10
30.4383
 20
-0.6538
 30
0.0
 10
30.4455
 20
-0.7176
 30
0.0
 10
30.4738
 20
-0.7701
 30
0.0
 10
30.5236
 20
-0.8103
 30
0.0
  0
SPLINE
  5
F1
330
1F
100
AcDbEntity
  8
ROUND
 62
   250
100
AcDbSpline
210
0.0
220
0.0
230
1.0
 70
     8
 71
     3
 72
    20
 73
    16
 74
     0
 42
0.0000000001
 43
0.0000000001
 40
0.0
 40
0.0
 40
0.0
 40
0.0
 40
0.2
 40
0.2
 40
0.2
 40
0.2
 40
0.4
 40
0.4
 40
0.4
 40
0.4
 40
0.6
 40
0.6
 40
0.6
 40
0.6
 40
1.0
 40
1.0
 40
1.0
 40
1.0
 10
27.3271
 20
-8.1472
 30
0.0
 10
27.3271
 20
-8.1472
 30
0.0
 10
29.2988
 20
-6.493
 30
0.0
 10
29.2988
 20
-6.493
 30
0.0
 10
29.2988
 20
-6.493
 30
0.0
 10
29.2988
 20
-6.493
 30
0.0
 10
29.7203
 20
-6.0316
 30
0.0
 10
29.7203
 20
-6.0316
 30
0.0
 10
29.7203
 20
-6.0316
 30
0.0
 10
29.7203
 20
-6.0316
 30
0.0
 10
30.0248
 20
-5.5458
 30
0.0
 10
30.0248
 20
-5.5458
 30
0.0
 10
30.0248
 20
-5.5458
 30
0.0
 10
30.0248
 20
-5.5458
 30
0.0
 10
30.2518
 20
-4.9965
 30
0.0
 10
30.2518
 20
-4.9965
 30
0.0
  0
SPLINE
  5
F2
330
1F
100
AcDbEntity
  8
ROUND
 62
   250
100
AcDbSpline
210
0.0
220
0.0
230
1.0
 70
    24
 71
     3
 72
     8
 73
     4
 74
     0
 42
0.0000000001
 43
0.0000000001
 40
0.0
 40
0.0
 40
0.0
 40
0.0
 40
1.0
 40
1.0
 40
1.0
 40
1.0
 10
32.0599
 20
2.2843
 30
0.0
 10
32.0599
 20
2.2843
 30
0.0
 10
31.6617
 20
-0.3869
 30
0.0
 10
31.6617
 20
-0.3869
 30
0.0
  0
SPLINE
  5
F3
330
1F
100
AcDbEntity
  8
ROUND
  6
NEW_LINE3
 62
   250
100
AcDbSpline
210
0.0
220
0.0
230
1.0
 70
    24
 71
     3
 72
     8
 73
     4
 74
     0
 42
0.0000000001
 43
0.0000000001
 40
0.0
 40
0.0
 40
0.0
 40
0.0
 40
1.0
 40
1.0
 40
1.0
 40
1.0
 10
52.4653
 20
-33.921
 30
0.0
 10
52.4653
 20
-33.921
 30
0.0
 10
13.6832
 20
4.861
 30
0.0
 10
13.6832
 20
4.861
 30
0.0
  0
SPLINE
  5
F5
330
1F
100
AcDbEntity
  8
ROUND
 62
   250
100
AcDbSpline
210
0.0
220
0.0
230
1.0
 70
    24
 71
     3
 72
     8
 73
     4
 74
     0
 42
0.0000000001
 43
0.0000000001
 40
0.0
 40
0.0
 40
0.0
 40
0.0
 40
1.0
 40
1.0
 40
1.0
 40
1.0
 10
9.0583
 20
11.7971
 30
0.0
 10
9.0583
 20
11.7971
 30
0.0
 10
9.0583
 20
-5.19
 30
0.0
 10
9.0583
 20
-5.19
 30
0.0
  0
SPLINE
  5
F6
330
1F
100
AcDbEntity
  8
ROUND
 62
   250
100
AcDbSpline
210
0.0
220
0.0
230
1.0
 70
    24
 71
     3
 72
     8
 73
     4
 74
     0
 42
0.0000000001
 43
0.0000000001
 40
0.0
 40
0.0
 40
0.0
 40
0.0
 40
1.0
 40
1.0
 40
1.0
 40
1.0
 10
49.3876
 20
-15.6492
 30
0.0
 10
49.3876
 20
-15.6492
 30
0.0
 10
34.1925
 20
-30.8443
 30
0.0
 10
34.1925
 20
-30.8443
 30
0.0
  0
SPLINE
  5
F7
330
1F
100
AcDbEntity
  8
ROUND
 62
   250
100
AcDbSpline
210
0.0
220
0.0
230
1.0
 70
    11
 71
     3
 72
    84
 73
    80
 74
     0
 42
0.0000000001
 43
0.0000000001
 40
0.0
 40
0.0
 40
0.0
 40
0.0
 40
0.0476190476190476
 40
0.0476190476190476
 40
0.0476190476190476
 40
0.0476190476190476
 40
0.0952380952380952
 40
0.0952380952380952
 40
0.0952380952380952
 40
0.0952380952380952
 40
0.1428571428571428
 40
0.1428571428571428
 40
0.1428571428571428
 40
0.1428571428571428
 40
0.1904761904761905
 40
0.1904761904761905
 40
0.1904761904761905
 40
0.1904761904761905
 40
0.2380952380952381
 40
0.2380952380952381
 40
0.2380952380952381
 40
0.2380952380952381
 40
0.2857142857142857
 40
0.2857142857142857
 40
0.2857142857142857
 40
0.2857142857142857
 40
0.3333333333333333
 40
0.3333333333333333
 40
0.3333333333333333
 40
0.3333333333333333
 40
0.3809523809523809
 40
0.3809523809523809
 40
0.3809523809523809
 40
0.3809523809523809
 40
0.4285714285714285
 40
0.4285714285714285
 40
0.4285714285714285
 40
0.4285714285714285
 40
0.4761904761904762
 40
0.4761904761904762
 40
0.4761904761904762
 40
0.4761904761904762
 40
0.5238095238095238
 40
0.5238095238095238
 40
0.5238095238095238
 40
0.5238095238095238
 40
0.5714285714285714
 40
0.5714285714285714
 40
0.5714285714285714
 40
0.5714285714285714
 40
0.6190476190476191
 40
0.6190476190476191
 40
0.6190476190476191
 40
0.6190476190476191
 40
0.6666666666666666
 40
0.6666666666666666
 40
0.6666666666666666
 40
0.6666666666666666
 40
0.7142857142857143
 40
0.7142857142857143
 40
0.7142857142857143
 40
0.7142857142857143
 40
0.7619047619047619
 40
0.7619047619047619
 40
0.7619047619047619
 40
0.7619047619047619
 40
0.8095238095238095
 40
0.8095238095238095
 40
0.8095238095238095
 40
0.8095238095238095
 40
0.8571428571428571
 40
0.8571428571428571
 40
0.8571428571428571
 40
0.8571428571428571
 40
0.9047619047619048
 40
0.9047619047619048
 40
0.9047619047619048
 40
0.9047619047619048
 40
1.0
 40
1.0
 40
1.0
 40
1.0
 10
6.7359
 20
3.2946
 30
0.0
 10
6.7359
 20
3.2946
 30
0.0
 10
6.4768
 20
3.526
 30
0.0
 10
6.4768
 20
3.526
 30
0.0
 10
6.4768
 20
3.526
 30
0.0
 10
6.4768
 20
3.526
 30
0.0
 10
6.5925
 20
3.6624
 30
0.0
 10
6.5925
 20
3.6624
 30
0.0
 10
6.5925
 20
3.6624
 30
0.0
 10
6.5925
 20
3.6624
 30
0.0
 10
6.8653
 20
3.4202
 30
0.0
 10
6.8653
 20
3.4202
 30
0.0
 10
6.8653
 20
3.4202
 30
0.0
 10
6.9829
 20
3.4992
 30
0.0
 10
7.0859
 20
3.5523
 30
0.0
 10
7.1738
 20
3.5801
 30
0.0
 10
7.1738
 20
3.5801
 30
0.0
 10
7.2896
 20
3.6168
 30
0.0
 10
7.4194
 20
3.6351
 30
0.0
 10
7.5624
 20
3.6351
 30
0.0
 10
7.5624
 20
3.6351
 30
0.0
 10
7.7693
 20
3.6351
 30
0.0
 10
7.9537
 20
3.5933
 30
0.0
 10
8.115
 20
3.5095
 30
0.0
 10
8.115
 20
3.5095
 30
0.0
 10
8.2769
 20
3.4258
 30
0.0
 10
8.3991
 20
3.3087
 30
0.0
 10
8.4819
 20
3.1577
 30
0.0
 10
8.4819
 20
3.1577
 30
0.0
 10
8.5642
 20
3.0062
 30
0.0
 10
8.6056
 20
2.8459
 30
0.0
 10
8.6056
 20
2.6761
 30
0.0
 10
8.6056
 20
2.6761
 30
0.0
 10
8.6056
 20
2.5491
 30
0.0
 10
8.5878
 20
2.4343
 30
0.0
 10
8.552
 20
2.3313
 30
0.0
 10
8.552
 20
2.3313
 30
0.0
 10
8.5243
 20
2.2523
 30
0.0
 10
8.4716
 20
2.1601
 30
0.0
 10
8.3935
 20
2.0542
 30
0.0
 10
8.3935
 20
2.0542
 30
0.0
 10
8.3935
 20
2.0542
 30
0.0
 10
8.6527
 20
1.8228
 30
0.0
 10
8.6527
 20
1.8228
 30
0.0
 10
8.6527
 20
1.8228
 30
0.0
 10
8.6527
 20
1.8228
 30
0.0
 10
8.537
 20
1.6864
 30
0.0
 10
8.537
 20
1.6864
 30
0.0
 10
8.537
 20
1.6864
 30
0.0
 10
8.537
 20
1.6864
 30
0.0
 10
8.2656
 20
1.9291
 30
0.0
 10
8.2656
 20
1.9291
 30
0.0
 10
8.2656
 20
1.9291
 30
0.0
 10
8.1287
 20
1.8388
 30
0.0
 10
8.0116
 20
1.7786
 30
0.0
 10
7.9147
 20
1.7485
 30
0.0
 10
7.9147
 20
1.7485
 30
0.0
 10
7.8178
 20
1.7184
 30
0.0
 10
7.7011
 20
1.7029
 30
0.0
 10
7.5652
 20
1.7029
 30
0.0
 10
7.5652
 20
1.7029
 30
0.0
 10
7.3578
 20
1.7029
 30
0.0
 10
7.1729
 20
1.7443
 30
0.0
 10
7.0106
 20
1.827
 30
0.0
 10
7.0106
 20
1.827
 30
0.0
 10
6.8483
 20
1.9098
 30
0.0
 10
6.7256
 20
2.0255
 30
0.0
 10
6.6419
 20
2.1751
 30
0.0
 10
6.6419
 20
2.1751
 30
0.0
 10
6.5586
 20
2.3242
 30
0.0
 10
6.5167
 20
2.4903
 30
0.0
 10
6.5167
 20
2.6732
 30
0.0
 10
6.5167
 20
2.6732
 30
0.0
 10
6.5167
 20
2.7965
 30
0.0
 10
6.5327
 20
2.9042
 30
0.0
 10
6.5657
 20
2.9964
 30
0.0
 10
6.5657
 20
2.9964
 30
0.0
 10
6.5981
 20
3.0886
 30
0.0
 10
6.655
 20
3.1883
 30
0.0
 10
6.7359
 20
3.2946
 30
0.0
  0
SPLINE
  5
F8
330
1F
100
AcDbEntity
  8
ROUND
 62
   250
100
AcDbSpline
210
0.0
220
0.0
230
1.0
 70
    11
 71
     3
 72
    32
 73
    28
 74
     0
 42
0.0000000001
 43
0.0000000001
 40
0.0
 40
0.0
 40
0.0
 40
0.0
 40
0.125
 40
0.125
 40
0.125
 40
0.125
 40
0.25
 40
0.25
 40
0.25
 40
0.25
 40
0.375
 40
0.375
 40
0.375
 40
0.375
 40
0.5
 40
0.5
 40
0.5
 40
0.5
 40
0.625
 40
0.625
 40
0.625
 40
0.625
 40
0.75
 40
0.75
 40
0.75
 40
0.75
 40
1.0
 40
1.0
 40
1.0
 40
1.0
 10
6.9217
 20
3.1295
 30
0.0
 10
6.854
 20
3.0429
 30
0.0
 10
6.8074
 20
2.9672
 30
0.0
 10
6.7825
 20
2.9028
 30
0.0
 10
6.7825
 20
2.9028
 30
0.0
 10
6.758
 20
2.8379
 30
0.0
 10
6.7453
 20
2.7617
 30
0.0
 10
6.7453
 20
2.6746
 30
0.0
 10
6.7453
 20
2.6746
 30
0.0
 10
6.7453
 20
2.4733
 30
0.0
 10
6.8135
 20
2.3073
 30
0.0
 10
6.9499
 20
2.1756
 30
0.0
 10
6.9499
 20
2.1756
 30
0.0
 10
7.0864
 20
2.0443
 30
0.0
 10
7.29
 20
1.9785
 30
0.0
 10
7.5614
 20
1.9785
 30
0.0
 10
7.5614
 20
1.9785
 30
0.0
 10
7.6677
 20
1.9785
 30
0.0
 10
7.7623
 20
1.9888
 30
0.0
 10
7.8451
 20
2.0091
 30
0.0
 10
7.8451
 20
2.0091
 30
0.0
 10
7.9067
 20
2.0237
 30
0.0
 10
7.9824
 20
2.0542
 30
0.0
 10
8.0722
 20
2.1013
 30
0.0
 10
8.0722
 20
2.1013
 30
0.0
 10
8.0722
 20
2.1013
 30
0.0
 10
6.9217
 20
3.1295
 30
0.0
 10
6.9217
 20
3.1295
 30
0.0
  0
SPLINE
  5
F9
330
1F
100
AcDbEntity
  8
ROUND
 62
   250
100
AcDbSpline
210
0.0
220
0.0
230
1.0
 70
    11
 71
     3
 72
    28
 73
    24
 74
     0
 42
0.0000000001
 43
0.0000000001
 40
0.0
 40
0.0
 40
0.0
 40
0.0
 40
0.1428571428571428
 40
0.1428571428571428
 40
0.1428571428571428
 40
0.1428571428571428
 40
0.2857142857142857
 40
0.2857142857142857
 40
0.2857142857142857
 40
0.2857142857142857
 40
0.4285714285714285
 40
0.4285714285714285
 40
0.4285714285714285
 40
0.4285714285714285
 40
0.5714285714285714
 40
0.5714285714285714
 40
0.5714285714285714
 40
0.5714285714285714
 40
0.7142857142857143
 40
0.7142857142857143
 40
0.7142857142857143
 40
0.7142857142857143
 40
1.0
 40
1.0
 40
1.0
 40
1.0
 10
7.0638
 20
3.2424
 30
0.0
 10
7.0638
 20
3.2424
 30
0.0
 10
8.2101
 20
2.2184
 30
0.0
 10
8.2101
 20
2.2184
 30
0.0
 10
8.2101
 20
2.2184
 30
0.0
 10
8.2679
 20
2.2889
 30
0.0
 10
8.3084
 20
2.3543
 30
0.0
 10
8.3314
 20
2.4141
 30
0.0
 10
8.3314
 20
2.4141
 30
0.0
 10
8.362
 20
2.4921
 30
0.0
 10
8.377
 20
2.5768
 30
0.0
 10
8.377
 20
2.6676
 30
0.0
 10
8.377
 20
2.6676
 30
0.0
 10
8.377
 20
2.868
 30
0.0
 10
8.3065
 20
3.0331
 30
0.0
 10
8.1649
 20
3.1638
 30
0.0
 10
8.1649
 20
3.1638
 30
0.0
 10
8.0233
 20
3.2941
 30
0.0
 10
7.8248
 20
3.3595
 30
0.0
 10
7.5694
 20
3.3595
 30
0.0
 10
7.5694
 20
3.3595
 30
0.0
 10
7.3785
 20
3.3595
 30
0.0
 10
7.2096
 20
3.3205
 30
0.0
 10
7.0638
 20
3.2424
 30
0.0
  0
SPLINE
  5
FA
330
1F
100
AcDbEntity
  8
ROUND
 62
   250
100
AcDbSpline
210
0.0
220
0.0
230
1.0
 70
    11
 71
     3
 72
    48
 73
    44
 74
     0
 42
0.0000000001
 43
0.0000000001
 40
0.0
 40
0.0
 40
0.0
 40
0.0
 40
0.0833333333333333
 40
0.0833333333333333
 40
0.0833333333333333
 40
0.0833333333333333
 40
0.1666666666666667
 40
0.1666666666666667
 40
0.1666666666666667
 40
0.1666666666666667
 40
0.25
 40
0.25
 40
0.25
 40
0.25
 40
0.3333333333333333
 40
0.3333333333333333
 40
0.3333333333333333
 40
0.3333333333333333
 40
0.4166666666666667
 40
0.4166666666666667
 40
0.4166666666666667
 40
0.4166666666666667
 40
0.5
 40
0.5
 40
0.5
 40
0.5
 40
0.5833333333333334
 40
0.5833333333333334
 40
0.5833333333333334
 40
0.5833333333333334
 40
0.6666666666666666
 40
0.6666666666666666
 40
0.6666666666666666
 40
0.6666666666666666
 40
0.75
 40
0.75
 40
0.75
 40
0.75
 40
0.8333333333333334
 40
0.8333333333333334
 40
0.8333333333333334
 40
0.8333333333333334
 40
1.0
 40
1.0
 40
1.0
 40
1.0
 10
8.5713
 20
4.6793
 30
0.0
 10
8.5713
 20
4.6793
 30
0.0
 10
8.0878
 20
4.6793
 30
0.0
 10
8.0878
 20
4.6793
 30
0.0
 10
8.0878
 20
4.6793
 30
0.0
 10
8.0878
 20
4.6793
 30
0.0
 10
8.0878
 20
3.803
 30
0.0
 10
8.0878
 20
3.803
 30
0.0
 10
8.0878
 20
3.803
 30
0.0
 10
8.0878
 20
3.803
 30
0.0
 10
7.8601
 20
3.803
 30
0.0
 10
7.8601
 20
3.803
 30
0.0
 10
7.8601
 20
3.803
 30
0.0
 10
7.8601
 20
3.803
 30
0.0
 10
6.5511
 20
4.725
 30
0.0
 10
6.5511
 20
4.725
 30
0.0
 10
6.5511
 20
4.725
 30
0.0
 10
6.5511
 20
4.725
 30
0.0
 10
6.5511
 20
4.9277
 30
0.0
 10
6.5511
 20
4.9277
 30
0.0
 10
6.5511
 20
4.9277
 30
0.0
 10
6.5511
 20
4.9277
 30
0.0
 10
7.8601
 20
4.9277
 30
0.0
 10
7.8601
 20
4.9277
 30
0.0
 10
7.8601
 20
4.9277
 30
0.0
 10
7.8601
 20
4.9277
 30
0.0
 10
7.8601
 20
5.2005
 30
0.0
 10
7.8601
 20
5.2005
 30
0.0
 10
7.8601
 20
5.2005
 30
0.0
 10
7.8601
 20
5.2005
 30
0.0
 10
8.0878
 20
5.2005
 30
0.0
 10
8.0878
 20
5.2005
 30
0.0
 10
8.0878
 20
5.2005
 30
0.0
 10
8.0878
 20
5.2005
 30
0.0
 10
8.0878
 20
4.9277
 30
0.0
 10
8.0878
 20
4.9277
 30
0.0
 10
8.0878
 20
4.9277
 30
0.0
 10
8.0878
 20
4.9277
 30
0.0
 10
8.5713
 20
4.9277
 30
0.0
 10
8.5713
 20
4.9277
 30
0.0
 10
8.5713
 20
4.9277
 30
0.0
 10
8.5713
 20
4.9277
 30
0.0
 10
8.5713
 20
4.6793
 30
0.0
 10
8.5713
 20
4.6793
 30
0.0
  0
SPLINE
  5
FB
330
1F
100
AcDbEntity
  8
ROUND
 62
   250
100
AcDbSpline
210
0.0
220
0.0
230
1.0
 70
    11
 71
     3
 72
    16
 73
    12
 74
     0
 42
0.0000000001
 43
0.0000000001
 40
0.0
 40
0.0
 40
0.0
 40
0.0
 40
0.25
 40
0.25
 40
0.25
 40
0.25
 40
0.5
 40
0.5
 40
0.5
 40
0.5
 40
1.0
 40
1.0
 40
1.0
 40
1.0
 10
7.8601
 20
4.6793
 30
0.0
 10
7.8601
 20
4.6793
 30
0.0
 10
6.9495
 20
4.6793
 30
0.0
 10
6.9495
 20
4.6793
 30
0.0
 10
6.9495
 20
4.6793
 30
0.0
 10
6.9495
 20
4.6793
 30
0.0
 10
7.8601
 20
4.0472
 30
0.0
 10
7.8601
 20
4.0472
 30
0.0
 10
7.8601
 20
4.0472
 30
0.0
 10
7.8601
 20
4.0472
 30
0.0
 10
7.8601
 20
4.6793
 30
0.0
 10
7.8601
 20
4.6793
 30
0.0
  0
SPLINE
  5
FC
330
1F
100
AcDbEntity
  8
ROUND
 62
   250
100
AcDbSpline
210
0.0
220
0.0
230
1.0
 70
    11
 71
     3
 72
    52
 73
    48
 74
     0
 42
0.0000000001
 43
0.0000000001
 40
0.0
 40
0.0
 40
0.0
 40
0.0
 40
0.0769230769230769
 40
0.0769230769230769
 40
0.0769230769230769
 40
0.0769230769230769
 40
0.1538461538461539
 40
0.1538461538461539
 40
0.1538461538461539
 40
0.1538461538461539
 40
0.2307692307692308
 40
0.2307692307692308
 40
0.2307692307692308
 40
0.2307692307692308
 40
0.3076923076923077
 40
0.3076923076923077
 40
0.3076923076923077
 40
0.3076923076923077
 40
0.3846153846153846
 40
0.3846153846153846
 40
0.3846153846153846
 40
0.3846153846153846
 40
0.4615384615384616
 40
0.4615384615384616
 40
0.4615384615384616
 40
0.4615384615384616
 40
0.5384615384615384
 40
0.5384615384615384
 40
0.5384615384615384
 40
0.5384615384615384
 40
0.6153846153846154
 40
0.6153846153846154
 40
0.6153846153846154
 40
0.6153846153846154
 40
0.6923076923076923
 40
0.6923076923076923
 40
0.6923076923076923
 40
0.6923076923076923
 40
0.7692307692307693
 40
0.7692307692307693
 40
0.7692307692307693
 40
0.7692307692307693
 40
0.8461538461538461
 40
0.8461538461538461
 40
0.8461538461538461
 40
0.8461538461538461
 40
1.0
 40
1.0
 40
1.0
 40
1.0
 10
7.5751
 20
5.454
 30
0.0
 10
7.3361
 20
5.454
 30
0.0
 10
7.1437
 20
5.4785
 30
0.0
 10
6.9984
 20
5.5279
 30
0.0
 10
6.9984
 20
5.5279
 30
0.0
 10
6.8526
 20
5.5768
 30
0.0
 10
6.7402
 20
5.6502
 30
0.0
 10
6.6611
 20
5.7471
 30
0.0
 10
6.6611
 20
5.7471
 30
0.0
 10
6.5821
 20
5.844
 30
0.0
 10
6.5426
 20
5.9658
 30
0.0
 10
6.5426
 20
6.1125
 30
0.0
 10
6.5426
 20
6.1125
 30
0.0
 10
6.5426
 20
6.2212
 30
0.0
 10
6.5647
 20
6.3162
 30
0.0
 10
6.6085
 20
6.398
 30
0.0
 10
6.6085
 20
6.398
 30
0.0
 10
6.6517
 20
6.4799
 30
0.0
 10
6.7148
 20
6.5472
 30
0.0
 10
6.7971
 20
6.6008
 30
0.0
 10
6.7971
 20
6.6008
 30
0.0
 10
6.8794
 20
6.6539
 30
0.0
 10
6.9796
 20
6.6958
 30
0.0
 10
7.0976
 20
6.7259
 30
0.0
 10
7.0976
 20
6.7259
 30
0.0
 10
7.2157
 20
6.7565
 30
0.0
 10
7.3747
 20
6.7715
 30
0.0
 10
7.5751
 20
6.7715
 30
0.0
 10
7.5751
 20
6.7715
 30
0.0
 10
7.8121
 20
6.7715
 30
0.0
 10
8.0031
 20
6.7471
 30
0.0
 10
8.1489
 20
6.6986
 30
0.0
 10
8.1489
 20
6.6986
 30
0.0
 10
8.2947
 20
6.6497
 30
0.0
 10
8.4071
 20
6.5768
 30
0.0
 10
8.4866
 20
6.4799
 30
0.0
 10
8.4866
 20
6.4799
 30
0.0
 10
8.5661
 20
6.383
 30
0.0
 10
8.6056
 20
6.2607
 30
0.0
 10
8.6056
 20
6.1125
 30
0.0
 10
8.6056
 20
6.1125
 30
0.0
 10
8.6056
 20
5.9178
 30
0.0
 10
8.536
 20
5.7649
 30
0.0
 10
8.3963
 20
5.6539
 30
0.0
 10
8.3963
 20
5.6539
 30
0.0
 10
8.2284
 20
5.5208
 30
0.0
 10
7.9542
 20
5.454
 30
0.0
 10
7.5751
 20
5.454
 30
0.0
  0
SPLINE
  5
FD
330
1F
100
AcDbEntity
  8
ROUND
 62
   250
100
AcDbSpline
210
0.0
220
0.0
230
1.0
 70
    11
 71
     3
 72
    36
 73
    32
 74
     0
 42
0.0000000001
 43
0.0000000001
 40
0.0
 40
0.0
 40
0.0
 40
0.0
 40
0.1111111111111111
 40
0.1111111111111111
 40
0.1111111111111111
 40
0.1111111111111111
 40
0.2222222222222222
 40
0.2222222222222222
 40
0.2222222222222222
 40
0.2222222222222222
 40
0.3333333333333333
 40
0.3333333333333333
 40
0.3333333333333333
 40
0.3333333333333333
 40
0.4444444444444444
 40
0.4444444444444444
 40
0.4444444444444444
 40
0.4444444444444444
 40
0.5555555555555556
 40
0.5555555555555556
 40
0.5555555555555556
 40
0.5555555555555556
 40
0.6666666666666666
 40
0.6666666666666666
 40
0.6666666666666666
 40
0.6666666666666666
 40
0.7777777777777778
 40
0.7777777777777778
 40
0.7777777777777778
 40
0.7777777777777778
 40
1.0
 40
1.0
 40
1.0
 40
1.0
 10
7.5751
 20
5.709
 30
0.0
 10
7.9067
 20
5.709
 30
0.0
 10
8.1273
 20
5.748
 30
0.0
 10
8.2373
 20
5.8256
 30
0.0
 10
8.2373
 20
5.8256
 30
0.0
 10
8.3469
 20
5.9032
 30
0.0
 10
8.402
 20
5.9987
 30
0.0
 10
8.402
 20
6.1125
 30
0.0
 10
8.402
 20
6.1125
 30
0.0
 10
8.402
 20
6.2268
 30
0.0
 10
8.3465
 20
6.3223
 30
0.0
 10
8.2364
 20
6.3999
 30
0.0
 10
8.2364
 20
6.3999
 30
0.0
 10
8.1263
 20
6.4775
 30
0.0
 10
7.9057
 20
6.5166
 30
0.0
 10
7.5751
 20
6.5166
 30
0.0
 10
7.5751
 20
6.5166
 30
0.0
 10
7.2425
 20
6.5166
 30
0.0
 10
7.0214
 20
6.4775
 30
0.0
 10
6.9123
 20
6.3999
 30
0.0
 10
6.9123
 20
6.3999
 30
0.0
 10
6.8027
 20
6.3223
 30
0.0
 10
6.7482
 20
6.2259
 30
0.0
 10
6.7482
 20
6.1102
 30
0.0
 10
6.7482
 20
6.1102
 30
0.0
 10
6.7482
 20
5.9959
 30
0.0
 10
6.7966
 20
5.9051
 30
0.0
 10
6.893
 20
5.8369
 30
0.0
 10
6.893
 20
5.8369
 30
0.0
 10
7.0158
 20
5.7518
 30
0.0
 10
7.2435
 20
5.709
 30
0.0
 10
7.5751
 20
5.709
 30
0.0
  0
SPLINE
  5
FE
330
1F
100
AcDbEntity
  8
ROUND
 62
   250
100
AcDbSpline
210
0.0
220
0.0
230
1.0
 70
    11
 71
     3
 72
    84
 73
    80
 74
     0
 42
0.0000000001
 43
0.0000000001
 40
0.0
 40
0.0
 40
0.0
 40
0.0
 40
0.0476190476190476
 40
0.0476190476190476
 40
0.0476190476190476
 40
0.0476190476190476
 40
0.0952380952380952
 40
0.0952380952380952
 40
0.0952380952380952
 40
0.0952380952380952
 40
0.1428571428571428
 40
0.1428571428571428
 40
0.1428571428571428
 40
0.1428571428571428
 40
0.1904761904761905
 40
0.1904761904761905
 40
0.1904761904761905
 40
0.1904761904761905
 40
0.2380952380952381
 40
0.2380952380952381
 40
0.2380952380952381
 40
0.2380952380952381
 40
0.2857142857142857
 40
0.2857142857142857
 40
0.2857142857142857
 40
0.2857142857142857
 40
0.3333333333333333
 40
0.3333333333333333
 40
0.3333333333333333
 40
0.3333333333333333
 40
0.3809523809523809
 40
0.3809523809523809
 40
0.3809523809523809
 40
0.3809523809523809
 40
0.4285714285714285
 40
0.4285714285714285
 40
0.4285714285714285
 40
0.4285714285714285
 40
0.4761904761904762
 40
0.4761904761904762
 40
0.4761904761904762
 40
0.4761904761904762
 40
0.5238095238095238
 40
0.5238095238095238
 40
0.5238095238095238
 40
0.5238095238095238
 40
0.5714285714285714
 40
0.5714285714285714
 40
0.5714285714285714
 40
0.5714285714285714
 40
0.6190476190476191
 40
0.6190476190476191
 40
0.6190476190476191
 40
0.6190476190476191
 40
0.6666666666666666
 40
0.6666666666666666
 40
0.6666666666666666
 40
0.6666666666666666
 40
0.7142857142857143
 40
0.7142857142857143
 40
0.7142857142857143
 40
0.7142857142857143
 40
0.7619047619047619
 40
0.7619047619047619
 40
0.7619047619047619
 40
0.7619047619047619
 40
0.8095238095238095
 40
0.8095238095238095
 40
0.8095238095238095
 40
0.8095238095238095
 40
0.8571428571428571
 40
0.8571428571428571
 40
0.8571428571428571
 40
0.8571428571428571
 40
0.9047619047619048
 40
0.9047619047619048
 40
0.9047619047619048
 40
0.9047619047619048
 40
1.0
 40
1.0
 40
1.0
 40
1.0
 10
39.833
 20
-21.9971
 30
0.0
 10
39.833
 20
-21.9971
 30
0.0
 10
39.8134
 20
-21.6503
 30
0.0
 10
39.8134
 20
-21.6503
 30
0.0
 10
39.8134
 20
-21.6503
 30
0.0
 10
39.8134
 20
-21.6503
 30
0.0
 10
39.9917
 20
-21.6356
 30
0.0
 10
39.9917
 20
-21.6356
 30
0.0
 10
39.9917
 20
-21.6356
 30
0.0
 10
39.9917
 20
-21.6356
 30
0.0
 10
40.0133
 20
-21.9998
 30
0.0
 10
40.0133
 20
-21.9998
 30
0.0
 10
40.0133
 20
-21.9998
 30
0.0
 10
40.1523
 20
-22.0271
 30
0.0
 10
40.2627
 20
-22.0624
 30
0.0
 10
40.3445
 20
-22.1049
 30
0.0
 10
40.3445
 20
-22.1049
 30
0.0
 10
40.4524
 20
-22.1608
 30
0.0
 10
40.5571
 20
-22.2397
 30
0.0
 10
40.6582
 20
-22.3408
 30
0.0
 10
40.6582
 20
-22.3408
 30
0.0
 10
40.8045
 20
-22.4871
 30
0.0
 10
40.9053
 20
-22.647
 30
0.0
 10
40.9601
 20
-22.8203
 30
0.0
 10
40.9601
 20
-22.8203
 30
0.0
 10
41.0154
 20
-22.994
 30
0.0
 10
41.019
 20
-23.1632
 30
0.0
 10
40.9708
 20
-23.3285
 30
0.0
 10
40.9708
 20
-23.3285
 30
0.0
 10
40.9219
 20
-23.4939
 30
0.0
 10
40.8378
 20
-23.6365
 30
0.0
 10
40.7177
 20
-23.7565
 30
0.0
 10
40.7177
 20
-23.7565
 30
0.0
 10
40.6279
 20
-23.8463
 30
0.0
 10
40.5342
 20
-23.9149
 30
0.0
 10
40.436
 20
-23.9625
 30
0.0
 10
40.436
 20
-23.9625
 30
0.0
 10
40.3606
 20
-23.9987
 30
0.0
 10
40.2581
 20
-24.0267
 30
0.0
 10
40.128
 20
-24.0463
 30
0.0
 10
40.128
 20
-24.0463
 30
0.0
 10
40.128
 20
-24.0463
 30
0.0
 10
40.1477
 20
-24.3932
 30
0.0
 10
40.1477
 20
-24.3932
 30
0.0
 10
40.1477
 20
-24.3932
 30
0.0
 10
40.1477
 20
-24.3932
 30
0.0
 10
39.9694
 20
-24.4079
 30
0.0
 10
39.9694
 20
-24.4079
 30
0.0
 10
39.9694
 20
-24.4079
 30
0.0
 10
39.9694
 20
-24.4079
 30
0.0
 10
39.9491
 20
-24.0443
 30
0.0
 10
39.9491
 20
-24.0443
 30
0.0
 10
39.9491
 20
-24.0443
 30
0.0
 10
39.7885
 20
-24.0114
 30
0.0
 10
39.6631
 20
-23.9711
 30
0.0
 10
39.5733
 20
-23.9239
 30
0.0
 10
39.5733
 20
-23.9239
 30
0.0
 10
39.4835
 20
-23.8767
 30
0.0
 10
39.39
 20
-23.8051
 30
0.0
 10
39.2939
 20
-23.709
 30
0.0
 10
39.2939
 20
-23.709
 30
0.0
 10
39.1473
 20
-23.5624
 30
0.0
 10
39.0458
 20
-23.4024
 30
0.0
 10
38.9895
 20
-23.2291
 30
0.0
 10
38.9895
 20
-23.2291
 30
0.0
 10
38.9333
 20
-23.0558
 30
0.0
 10
38.9283
 20
-22.8872
 30
0.0
 10
38.9749
 20
-22.7223
 30
0.0
 10
38.9749
 20
-22.7223
 30
0.0
 10
39.0215
 20
-22.5579
 30
0.0
 10
39.1093
 20
-22.4108
 30
0.0
 10
39.2386
 20
-22.2815
 30
0.0
 10
39.2386
 20
-22.2815
 30
0.0
 10
39.3258
 20
-22.1943
 30
0.0
 10
39.4133
 20
-22.1295
 30
0.0
 10
39.5018
 20
-22.0876
 30
0.0
 10
39.5018
 20
-22.0876
 30
0.0
 10
39.5899
 20
-22.0453
 30
0.0
 10
39.7006
 20
-22.0151
 30
0.0
 10
39.833
 20
-21.9971
 30
0.0
  0
SPLINE
  5
FF
330
1F
100
AcDbEntity
  8
ROUND
 62
   250
100
AcDbSpline
210
0.0
220
0.0
230
1.0
 70
    11
 71
     3
 72
    32
 73
    28
 74
     0
 42
0.0000000001
 43
0.0000000001
 40
0.0
 40
0.0
 40
0.0
 40
0.0
 40
0.125
 40
0.125
 40
0.125
 40
0.125
 40
0.25
 40
0.25
 40
0.25
 40
0.25
 40
0.375
 40
0.375
 40
0.375
 40
0.375
 40
0.5
 40
0.5
 40
0.5
 40
0.5
 40
0.625
 40
0.625
 40
0.625
 40
0.625
 40
0.75
 40
0.75
 40
0.75
 40
0.75
 40
1.0
 40
1.0
 40
1.0
 40
1.0
 10
39.8477
 20
-22.2452
 30
0.0
 10
39.7385
 20
-22.2586
 30
0.0
 10
39.6521
 20
-22.2792
 30
0.0
 10
39.5889
 20
-22.3071
 30
0.0
 10
39.5889
 20
-22.3071
 30
0.0
 10
39.5257
 20
-22.3357
 30
0.0
 10
39.4628
 20
-22.3806
 30
0.0
 10
39.4013
 20
-22.4422
 30
0.0
 10
39.4013
 20
-22.4422
 30
0.0
 10
39.2589
 20
-22.5845
 30
0.0
 10
39.1898
 20
-22.7501
 30
0.0
 10
39.1931
 20
-22.9397
 30
0.0
 10
39.1931
 20
-22.9397
 30
0.0
 10
39.1968
 20
-23.1291
 30
0.0
 10
39.2942
 20
-23.3195
 30
0.0
 10
39.4861
 20
-23.5115
 30
0.0
 10
39.4861
 20
-23.5115
 30
0.0
 10
39.5613
 20
-23.5866
 30
0.0
 10
39.6354
 20
-23.6462
 30
0.0
 10
39.7084
 20
-23.6904
 30
0.0
 10
39.7084
 20
-23.6904
 30
0.0
 10
39.7622
 20
-23.7237
 30
0.0
 10
39.8373
 20
-23.7556
 30
0.0
 10
39.9341
 20
-23.7858
 30
0.0
 10
39.9341
 20
-23.7858
 30
0.0
 10
39.9341
 20
-23.7858
 30
0.0
 10
39.8477
 20
-22.2452
 30
0.0
 10
39.8477
 20
-22.2452
 30
0.0
  0
SPLINE
  5
100
330
1F
100
AcDbEntity
  8
ROUND
 62
   250
100
AcDbSpline
210
0.0
220
0.0
230
1.0
 70
    11
 71
     3
 72
    28
 73
    24
 74
     0
 42
0.0000000001
 43
0.0000000001
 40
0.0
 40
0.0
 40
0.0
 40
0.0
 40
0.1428571428571428
 40
0.1428571428571428
 40
0.1428571428571428
 40
0.1428571428571428
 40
0.2857142857142857
 40
0.2857142857142857
 40
0.2857142857142857
 40
0.2857142857142857
 40
0.4285714285714285
 40
0.4285714285714285
 40
0.4285714285714285
 40
0.4285714285714285
 40
0.5714285714285714
 40
0.5714285714285714
 40
0.5714285714285714
 40
0.5714285714285714
 40
0.7142857142857143
 40
0.7142857142857143
 40
0.7142857142857143
 40
0.7142857142857143
 40
1.0
 40
1.0
 40
1.0
 40
1.0
 10
40.028
 20
-22.2659
 30
0.0
 10
40.028
 20
-22.2659
 30
0.0
 10
40.1144
 20
-23.8005
 30
0.0
 10
40.1144
 20
-23.8005
 30
0.0
 10
40.1144
 20
-23.8005
 30
0.0
 10
40.2052
 20
-23.7915
 30
0.0
 10
40.28
 20
-23.7739
 30
0.0
 10
40.3386
 20
-23.7479
 30
0.0
 10
40.3386
 20
-23.7479
 30
0.0
 10
40.4154
 20
-23.7144
 30
0.0
 10
40.4859
 20
-23.6651
 30
0.0
 10
40.5501
 20
-23.6009
 30
0.0
 10
40.5501
 20
-23.6009
 30
0.0
 10
40.6918
 20
-23.4592
 30
0.0
 10
40.7587
 20
-23.2926
 30
0.0
 10
40.751
 20
-23.1001
 30
0.0
 10
40.751
 20
-23.1001
 30
0.0
 10
40.743
 20
-22.9078
 30
0.0
 10
40.6489
 20
-22.7212
 30
0.0
 10
40.4683
 20
-22.5406
 30
0.0
 10
40.4683
 20
-22.5406
 30
0.0
 10
40.3333
 20
-22.4056
 30
0.0
 10
40.1863
 20
-22.3138
 30
0.0
 10
40.028
 20
-22.2659
 30
0.0
  0
SPLINE
  5
101
330
1F
100
AcDbEntity
  8
ROUND
 62
   250
100
AcDbSpline
210
0.0
220
0.0
230
1.0
 70
    11
 71
     3
 72
    92
 73
    88
 74
     0
 42
0.0000000001
 43
0.0000000001
 40
0.0
 40
0.0
 40
0.0
 40
0.0
 40
0.0434782608695652
 40
0.0434782608695652
 40
0.0434782608695652
 40
0.0434782608695652
 40
0.0869565217391304
 40
0.0869565217391304
 40
0.0869565217391304
 40
0.0869565217391304
 40
0.1304347826086956
 40
0.1304347826086956
 40
0.1304347826086956
 40
0.1304347826086956
 40
0.1739130434782609
 40
0.1739130434782609
 40
0.1739130434782609
 40
0.1739130434782609
 40
0.2173913043478261
 40
0.2173913043478261
 40
0.2173913043478261
 40
0.2173913043478261
 40
0.2608695652173913
 40
0.2608695652173913
 40
0.2608695652173913
 40
0.2608695652173913
 40
0.3043478260869565
 40
0.3043478260869565
 40
0.3043478260869565
 40
0.3043478260869565
 40
0.3478260869565217
 40
0.3478260869565217
 40
0.3478260869565217
 40
0.3478260869565217
 40
0.391304347826087
 40
0.391304347826087
 40
0.391304347826087
 40
0.391304347826087
 40
0.4347826086956522
 40
0.4347826086956522
 40
0.4347826086956522
 40
0.4347826086956522
 40
0.4782608695652174
 40
0.4782608695652174
 40
0.4782608695652174
 40
0.4782608695652174
 40
0.5217391304347826
 40
0.5217391304347826
 40
0.5217391304347826
 40
0.5217391304347826
 40
0.5652173913043478
 40
0.5652173913043478
 40
0.5652173913043478
 40
0.5652173913043478
 40
0.6086956521739131
 40
0.6086956521739131
 40
0.6086956521739131
 40
0.6086956521739131
 40
0.6521739130434783
 40
0.6521739130434783
 40
0.6521739130434783
 40
0.6521739130434783
 40
0.6956521739130435
 40
0.6956521739130435
 40
0.6956521739130435
 40
0.6956521739130435
 40
0.7391304347826086
 40
0.7391304347826086
 40
0.7391304347826086
 40
0.7391304347826086
 40
0.782608695652174
 40
0.782608695652174
 40
0.782608695652174
 40
0.782608695652174
 40
0.8260869565217391
 40
0.8260869565217391
 40
0.8260869565217391
 40
0.8260869565217391
 40
0.8695652173913043
 40
0.8695652173913043
 40
0.8695652173913043
 40
0.8695652173913043
 40
0.9130434782608695
 40
0.9130434782608695
 40
0.9130434782608695
 40
0.9130434782608695
 40
1.0
 40
1.0
 40
1.0
 40
1.0
 10
41.1737
 20
-22.5037
 30
0.0
 10
41.1737
 20
-22.5037
 30
0.0
 10
41.3423
 20
-22.3038
 30
0.0
 10
41.3423
 20
-22.3038
 30
0.0
 10
41.3423
 20
-22.3038
 30
0.0
 10
41.4458
 20
-22.3799
 30
0.0
 10
41.5446
 20
-22.4155
 30
0.0
 10
41.6394
 20
-22.4112
 30
0.0
 10
41.6394
 20
-22.4112
 30
0.0
 10
41.7345
 20
-22.4066
 30
0.0
 10
41.817
 20
-22.3693
 30
0.0
 10
41.8872
 20
-22.2992
 30
0.0
 10
41.8872
 20
-22.2992
 30
0.0
 10
41.9717
 20
-22.2147
 30
0.0
 10
42.0112
 20
-22.1112
 30
0.0
 10
42.0059
 20
-21.9896
 30
0.0
 10
42.0059
 20
-21.9896
 30
0.0
 10
42.0006
 20
-21.8672
 30
0.0
 10
41.9454
 20
-21.7534
 30
0.0
 10
41.8403
 20
-21.6483
 30
0.0
 10
41.8403
 20
-21.6483
 30
0.0
 10
41.7402
 20
-21.5482
 30
0.0
 10
41.6334
 20
-21.4973
 30
0.0
 10
41.5193
 20
-21.4956
 30
0.0
 10
41.5193
 20
-21.4956
 30
0.0
 10
41.4052
 20
-21.4939
 30
0.0
 10
41.3028
 20
-21.5385
 30
0.0
 10
41.2117
 20
-21.6296
 30
0.0
 10
41.2117
 20
-21.6296
 30
0.0
 10
41.1551
 20
-21.6862
 30
0.0
 10
41.1172
 20
-21.75
 30
0.0
 10
41.0972
 20
-21.8212
 30
0.0
 10
41.0972
 20
-21.8212
 30
0.0
 10
41.0773
 20
-21.8924
 30
0.0
 10
41.075
 20
-21.9612
 30
0.0
 10
41.09
 20
-22.0281
 30
0.0
 10
41.09
 20
-22.0281
 30
0.0
 10
41.09
 20
-22.0281
 30
0.0
 10
40.904
 20
-22.1715
 30
0.0
 10
40.904
 20
-22.1715
 30
0.0
 10
40.904
 20
-22.1715
 30
0.0
 10
40.904
 20
-22.1715
 30
0.0
 10
40.3086
 20
-21.2993
 30
0.0
 10
40.3086
 20
-21.2993
 30
0.0
 10
40.3086
 20
-21.2993
 30
0.0
 10
40.3086
 20
-21.2993
 30
0.0
 10
41.019
 20
-20.5889
 30
0.0
 10
41.019
 20
-20.5889
 30
0.0
 10
41.019
 20
-20.5889
 30
0.0
 10
41.019
 20
-20.5889
 30
0.0
 10
41.1867
 20
-20.7566
 30
0.0
 10
41.1867
 20
-20.7566
 30
0.0
 10
41.1867
 20
-20.7566
 30
0.0
 10
41.1867
 20
-20.7566
 30
0.0
 10
40.6166
 20
-21.3266
 30
0.0
 10
40.6166
 20
-21.3266
 30
0.0
 10
40.6166
 20
-21.3266
 30
0.0
 10
40.6166
 20
-21.3266
 30
0.0
 10
40.9233
 20
-21.7876
 30
0.0
 10
40.9233
 20
-21.7876
 30
0.0
 10
40.9233
 20
-21.7876
 30
0.0
 10
40.9492
 20
-21.6419
 30
0.0
 10
41.0094
 20
-21.5219
 30
0.0
 10
41.1035
 20
-21.4278
 30
0.0
 10
41.1035
 20
-21.4278
 30
0.0
 10
41.2283
 20
-21.303
 30
0.0
 10
41.3766
 20
-21.2412
 30
0.0
 10
41.5489
 20
-21.2418
 30
0.0
 10
41.5489
 20
-21.2418
 30
0.0
 10
41.7211
 20
-21.2425
 30
0.0
 10
41.8751
 20
-21.3107
 30
0.0
 10
42.0108
 20
-21.4464
 30
0.0
 10
42.0108
 20
-21.4464
 30
0.0
 10
42.1402
 20
-21.5758
 30
0.0
 10
42.2141
 20
-21.7254
 30
0.0
 10
42.2331
 20
-21.8947
 30
0.0
 10
42.2331
 20
-21.8947
 30
0.0
 10
42.2567
 20
-22.1019
 30
0.0
 10
42.1894
 20
-22.2848
 30
0.0
 10
42.0311
 20
-22.4432
 30
0.0
 10
42.0311
 20
-22.4432
 30
0.0
 10
41.9011
 20
-22.5732
 30
0.0
 10
41.7588
 20
-22.6431
 30
0.0
 10
41.6038
 20
-22.6524
 30
0.0
 10
41.6038
 20
-22.6524
 30
0.0
 10
41.4488
 20
-22.6617
 30
0.0
 10
41.3054
 20
-22.6121
 30
0.0
 10
41.1737
 20
-22.5037
 30
0.0
  0
SPLINE
  5
102
330
1F
100
AcDbEntity
  8
ROUND
 62
   250
100
AcDbSpline
210
0.0
220
0.0
230
1.0
 70
    11
 71
     3
 72
    52
 73
    48
 74
     0
 42
0.0000000001
 43
0.0000000001
 40
0.0
 40
0.0
 40
0.0
 40
0.0
 40
0.0769230769230769
 40
0.0769230769230769
 40
0.0769230769230769
 40
0.0769230769230769
 40
0.1538461538461539
 40
0.1538461538461539
 40
0.1538461538461539
 40
0.1538461538461539
 40
0.2307692307692308
 40
0.2307692307692308
 40
0.2307692307692308
 40
0.2307692307692308
 40
0.3076923076923077
 40
0.3076923076923077
 40
0.3076923076923077
 40
0.3076923076923077
 40
0.3846153846153846
 40
0.3846153846153846
 40
0.3846153846153846
 40
0.3846153846153846
 40
0.4615384615384616
 40
0.4615384615384616
 40
0.4615384615384616
 40
0.4615384615384616
 40
0.5384615384615384
 40
0.5384615384615384
 40
0.5384615384615384
 40
0.5384615384615384
 40
0.6153846153846154
 40
0.6153846153846154
 40
0.6153846153846154
 40
0.6153846153846154
 40
0.6923076923076923
 40
0.6923076923076923
 40
0.6923076923076923
 40
0.6923076923076923
 40
0.7692307692307693
 40
0.7692307692307693
 40
0.7692307692307693
 40
0.7692307692307693
 40
0.8461538461538461
 40
0.8461538461538461
 40
0.8461538461538461
 40
0.8461538461538461
 40
1.0
 40
1.0
 40
1.0
 40
1.0
 10
41.9533
 20
-21.0636
 30
0.0
 10
41.7843
 20
-20.8946
 30
0.0
 10
41.6656
 20
-20.7412
 30
0.0
 10
41.5978
 20
-20.6036
 30
0.0
 10
41.5978
 20
-20.6036
 30
0.0
 10
41.5293
 20
-20.4659
 30
0.0
 10
41.5017
 20
-20.3345
 30
0.0
 10
41.5143
 20
-20.21
 30
0.0
 10
41.5143
 20
-20.21
 30
0.0
 10
41.527
 20
-20.0857
 30
0.0
 10
41.5852
 20
-19.9716
 30
0.0
 10
41.6889
 20
-19.8679
 30
0.0
 10
41.6889
 20
-19.8679
 30
0.0
 10
41.7657
 20
-19.791
 30
0.0
 10
41.8486
 20
-19.7395
 30
0.0
 10
41.9374
 20
-19.7126
 30
0.0
 10
41.9374
 20
-19.7126
 30
0.0
 10
42.0258
 20
-19.6852
 30
0.0
 10
42.118
 20
-19.6823
 30
0.0
 10
42.2141
 20
-19.7026
 30
0.0
 10
42.2141
 20
-19.7026
 30
0.0
 10
42.3099
 20
-19.7232
 30
0.0
 10
42.4103
 20
-19.7644
 30
0.0
 10
42.5151
 20
-19.8266
 30
0.0
 10
42.5151
 20
-19.8266
 30
0.0
 10
42.6202
 20
-19.8885
 30
0.0
 10
42.7433
 20
-19.9903
 30
0.0
 10
42.885
 20
-20.132
 30
0.0
 10
42.885
 20
-20.132
 30
0.0
 10
43.0525
 20
-20.2996
 30
0.0
 10
43.1703
 20
-20.4519
 30
0.0
 10
43.2391
 20
-20.5893
 30
0.0
 10
43.2391
 20
-20.5893
 30
0.0
 10
43.3077
 20
-20.7269
 30
0.0
 10
43.3356
 20
-20.858
 30
0.0
 10
43.3233
 20
-20.9827
 30
0.0
 10
43.3233
 20
-20.9827
 30
0.0
 10
43.311
 20
-21.1074
 30
0.0
 10
43.2524
 20
-21.2218
 30
0.0
 10
43.1476
 20
-21.3266
 30
0.0
 10
43.1476
 20
-21.3266
 30
0.0
 10
43.01
 20
-21.4643
 30
0.0
 10
42.8526
 20
-21.5232
 30
0.0
 10
42.6754
 20
-21.5029
 30
0.0
 10
42.6754
 20
-21.5029
 30
0.0
 10
42.4625
 20
-21.4783
 30
0.0
 10
42.2214
 20
-21.3317
 30
0.0
 10
41.9533
 20
-21.0636
 30
0.0
  0
SPLINE
  5
103
330
1F
100
AcDbEntity
  8
ROUND
 62
   250
100
AcDbSpline
210
0.0
220
0.0
230
1.0
 70
    11
 71
     3
 72
    36
 73
    32
 74
     0
 42
0.0000000001
 43
0.0000000001
 40
0.0
 40
0.0
 40
0.0
 40
0.0
 40
0.1111111111111111
 40
0.1111111111111111
 40
0.1111111111111111
 40
0.1111111111111111
 40
0.2222222222222222
 40
0.2222222222222222
 40
0.2222222222222222
 40
0.2222222222222222
 40
0.3333333333333333
 40
0.3333333333333333
 40
0.3333333333333333
 40
0.3333333333333333
 40
0.4444444444444444
 40
0.4444444444444444
 40
0.4444444444444444
 40
0.4444444444444444
 40
0.5555555555555556
 40
0.5555555555555556
 40
0.5555555555555556
 40
0.5555555555555556
 40
0.6666666666666666
 40
0.6666666666666666
 40
0.6666666666666666
 40
0.6666666666666666
 40
0.7777777777777778
 40
0.7777777777777778
 40
0.7777777777777778
 40
0.7777777777777778
 40
1.0
 40
1.0
 40
1.0
 40
1.0
 10
42.1337
 20
-20.8833
 30
0.0
 10
42.3681
 20
-21.1178
 30
0.0
 10
42.5517
 20
-21.2462
 30
0.0
 10
42.6844
 20
-21.2691
 30
0.0
 10
42.6844
 20
-21.2691
 30
0.0
 10
42.8167
 20
-21.2917
 30
0.0
 10
42.9232
 20
-21.2631
 30
0.0
 10
43.0037
 20
-21.1827
 30
0.0
 10
43.0037
 20
-21.1827
 30
0.0
 10
43.0845
 20
-21.1019
 30
0.0
 10
43.1128
 20
-20.9951
 30
0.0
 10
43.0898
 20
-20.8624
 30
0.0
 10
43.0898
 20
-20.8624
 30
0.0
 10
43.0668
 20
-20.7296
 30
0.0
 10
42.9385
 20
-20.546
 30
0.0
 10
42.7047
 20
-20.3122
 30
0.0
 10
42.7047
 20
-20.3122
 30
0.0
 10
42.4695
 20
-20.077
 30
0.0
 10
42.2855
 20
-19.9483
 30
0.0
 10
42.1535
 20
-19.9261
 30
0.0
 10
42.1535
 20
-19.9261
 30
0.0
 10
42.0212
 20
-19.9034
 30
0.0
 10
41.9145
 20
-19.9331
 30
0.0
 10
41.8326
 20
-20.0149
 30
0.0
 10
41.8326
 20
-20.0149
 30
0.0
 10
41.7518
 20
-20.0957
 30
0.0
 10
41.7218
 20
-20.1941
 30
0.0
 10
41.7418
 20
-20.3105
 30
0.0
 10
41.7418
 20
-20.3105
 30
0.0
 10
41.7684
 20
-20.4575
 30
0.0
 10
41.8992
 20
-20.6488
 30
0.0
 10
42.1337
 20
-20.8833
 30
0.0
  0
SPLINE
  5
104
330
1F
100
AcDbEntity
  8
ROUND
 62
   250
100
AcDbSpline
210
0.0
220
0.0
230
1.0
 70
    11
 71
     3
 72
    20
 73
    16
 74
     0
 42
0.0000000001
 43
0.0000000001
 40
0.0
 40
0.0
 40
0.0
 40
0.0
 40
0.2
 40
0.2
 40
0.2
 40
0.2
 40
0.4
 40
0.4
 40
0.4
 40
0.4
 40
0.6
 40
0.6
 40
0.6
 40
0.6
 40
1.0
 40
1.0
 40
1.0
 40
1.0
 10
8.5432
 20
9.3532
 30
0.0
 10
8.5432
 20
9.3532
 30
0.0
 10
8.9666
 20
12.3532
 30
0.0
 10
8.9666
 20
12.3532
 30
0.0
 10
8.9666
 20
12.3532
 30
0.0
 10
8.9666
 20
12.3532
 30
0.0
 10
9.0606
 20
12.3532
 30
0.0
 10
9.0606
 20
12.3532
 30
0.0
 10
9.0606
 20
12.3532
 30
0.0
 10
9.0606
 20
12.3532
 30
0.0
 10
9.5121
 20
9.3532
 30
0.0
 10
9.5121
 20
9.3532
 30
0.0
 10
9.5121
 20
9.3532
 30
0.0
 10
9.5121
 20
9.3532
 30
0.0
 10
8.5432
 20
9.3532
 30
0.0
 10
8.5432
 20
9.3532
 30
0.0
  0
SPLINE
  5
105
330
1F
100
AcDbEntity
  8
ROUND
 62
   250
100
AcDbSpline
210
0.0
220
0.0
230
1.0
 70
    11
 71
     3
 72
    20
 73
    16
 74
     0
 42
0.0000000001
 43
0.0000000001
 40
0.0
 40
0.0
 40
0.0
 40
0.0
 40
0.2
 40
0.2
 40
0.2
 40
0.2
 40
0.4
 40
0.4
 40
0.4
 40
0.4
 40
0.6
 40
0.6
 40
0.6
 40
0.6
 40
1.0
 40
1.0
 40
1.0
 40
1.0
 10
47.2471
 20
-17.1273
 30
0.0
 10
47.2471
 20
-17.1273
 30
0.0
 10
49.6678
 20
-15.3053
 30
0.0
 10
49.6678
 20
-15.3053
 30
0.0
 10
49.6678
 20
-15.3053
 30
0.0
 10
49.6678
 20
-15.3053
 30
0.0
 10
49.7343
 20
-15.3718
 30
0.0
 10
49.7343
 20
-15.3718
 30
0.0
 10
49.7343
 20
-15.3718
 30
0.0
 10
49.7343
 20
-15.3718
 30
0.0
 10
47.9323
 20
-17.8124
 30
0.0
 10
47.9323
 20
-17.8124
 30
0.0
 10
47.9323
 20
-17.8124
 30
0.0
 10
47.9323
 20
-17.8124
 30
0.0
 10
47.2471
 20
-17.1273
 30
0.0
 10
47.2471
 20
-17.1273
 30
0.0
  0
SPLINE
  5
106
330
1F
100
AcDbEntity
  8
ROUND
 62
   250
100
AcDbSpline
210
0.0
220
0.0
230
1.0
 70
    11
 71
     3
 72
    20
 73
    16
 74
     0
 42
0.0000000001
 43
0.0000000001
 40
0.0
 40
0.0
 40
0.0
 40
0.0
 40
0.2
 40
0.2
 40
0.2
 40
0.2
 40
0.4
 40
0.4
 40
0.4
 40
0.4
 40
0.6
 40
0.6
 40
0.6
 40
0.6
 40
1.0
 40
1.0
 40
1.0
 40
1.0
 10
9.503
 20
-2.1867
 30
0.0
 10
9.503
 20
-2.1867
 30
0.0
 10
9.0796
 20
-5.1867
 30
0.0
 10
9.0796
 20
-5.1867
 30
0.0
 10
9.0796
 20
-5.1867
 30
0.0
 10
9.0796
 20
-5.1867
 30
0.0
 10
8.9856
 20
-5.1867
 30
0.0
 10
8.9856
 20
-5.1867
 30
0.0
 10
8.9856
 20
-5.1867
 30
0.0
 10
8.9856
 20
-5.1867
 30
0.0
 10
8.5341
 20
-2.1867
 30
0.0
 10
8.5341
 20
-2.1867
 30
0.0
 10
8.5341
 20
-2.1867
 30
0.0
 10
8.5341
 20
-2.1867
 30
0.0
 10
9.503
 20
-2.1867
 30
0.0
 10
9.503
 20
-2.1867
 30
0.0
  0
SPLINE
  5
107
330
1F
100
AcDbEntity
  8
ROUND
 62
   250
100
AcDbSpline
210
0.0
220
0.0
230
1.0
 70
    11
 71
     3
 72
    20
 73
    16
 74
     0
 42
0.0000000001
 43
0.0000000001
 40
0.0
 40
0.0
 40
0.0
 40
0.0
 40
0.2
 40
0.2
 40
0.2
 40
0.2
 40
0.4
 40
0.4
 40
0.4
 40
0.4
 40
0.6
 40
0.6
 40
0.6
 40
0.6
 40
1.0
 40
1.0
 40
1.0
 40
1.0
 10
36.6306
 20
-29.0351
 30
0.0
 10
36.6306
 20
-29.0351
 30
0.0
 10
34.2099
 20
-30.857
 30
0.0
 10
34.2099
 20
-30.857
 30
0.0
 10
34.2099
 20
-30.857
 30
0.0
 10
34.2099
 20
-30.857
 30
0.0
 10
34.1434
 20
-30.7905
 30
0.0
 10
34.1434
 20
-30.7905
 30
0.0
 10
34.1434
 20
-30.7905
 30
0.0
 10
34.1434
 20
-30.7905
 30
0.0
 10
35.9455
 20
-28.3499
 30
0.0
 10
35.9455
 20
-28.3499
 30
0.0
 10
35.9455
 20
-28.3499
 30
0.0
 10
35.9455
 20
-28.3499
 30
0.0
 10
36.6306
 20
-29.0351
 30
0.0
 10
36.6306
 20
-29.0351
 30
0.0
  0
SPLINE
  5
108
330
1F
100
AcDbEntity
  8
ROUND
 62
   250
100
AcDbSpline
210
0.0
220
0.0
230
1.0
 70
    24
 71
     3
 72
     8
 73
     4
 74
     0
 42
0.0000000001
 43
0.0000000001
 40
0.0
 40
0.0
 40
0.0
 40
0.0
 40
1.0
 40
1.0
 40
1.0
 40
1.0
 10
11.643
 20
12.444
 30
0.0
 10
11.643
 20
12.444
 30
0.0
 10
4.994
 20
12.444
 30
0.0
 10
4.994
 20
12.444
 30
0.0
  0
SPLINE
  5
109
330
1F
100
AcDbEntity
  8
ROUND
 62
   250
100
AcDbSpline
210
0.0
220
0.0
230
1.0
 70
    24
 71
     3
 72
     8
 73
     4
 74
     0
 42
0.0000000001
 43
0.0000000001
 40
0.0
 40
0.0
 40
0.0
 40
0.0
 40
1.0
 40
1.0
 40
1.0
 40
1.0
 10
24.2222
 20
7.2337
 30
0.0
 10
24.2222
 20
7.2337
 30
0.0
 10
11.5221
 20
-5.4664
 30
0.0
 10
11.5221
 20
-5.4664
 30
0.0
  0
SPLINE
  5
10A
330
1F
100
AcDbEntity
  8
ROUND
 62
   250
100
AcDbSpline
210
0.0
220
0.0
230
1.0
 70
    24
 71
     3
 72
     8
 73
     4
 74
     0
 42
0.0000000001
 43
0.0000000001
 40
0.0
 40
0.0
 40
0.0
 40
0.0
 40
1.0
 40
1.0
 40
1.0
 40
1.0
 10
11.643
 20
12.4441
 30
0.0
 10
11.643
 20
12.4441
 30
0.0
 10
11.6431
 20
-5.3454
 30
0.0
 10
11.6431
 20
-5.3454
 30
0.0
  0
SPLINE
  5
10B
330
1F
100
AcDbEntity
  8
ROUND
 62
   250
100
AcDbSpline
210
0.0
220
0.0
230
1.0
 70
    24
 71
     3
 72
     8
 73
     4
 74
     0
 42
0.0000000001
 43
0.0000000001
 40
0.0
 40
0.0
 40
0.0
 40
0.0
 40
1.0
 40
1.0
 40
1.0
 40
1.0
 10
42.6241
 20
-8.0234
 30
0.0
 10
42.6241
 20
-8.0234
 30
0.0
 10
58.5681
 20
-23.9675
 30
0.0
 10
58.5681
 20
-23.9675
 30
0.0
  0
SPLINE
  5
10C
330
1F
100
AcDbEntity
  8
ROUND
 62
   250
100
AcDbSpline
210
0.0
220
0.0
230
1.0
 70
    24
 71
     3
 72
     8
 73
     4
 74
     0
 42
0.0000000001
 43
0.0000000001
 40
0.0
 40
0.0
 40
0.0
 40
0.0
 40
1.0
 40
1.0
 40
1.0
 40
1.0
 10
40.4856
 20
-9.0298
 30
0.0
 10
40.4856
 20
-9.0298
 30
0.0
 10
24.2222
 20
7.2337
 30
0.0
 10
24.2222
 20
7.2337
 30
0.0
  0
SPLINE
  5
10D
330
1F
100
AcDbEntity
  8
ROUND
 62
   250
100
AcDbSpline
210
0.0
220
0.0
230
1.0
 70
    24
 71
     3
 72
     8
 73
     4
 74
     0
 42
0.0000000001
 43
0.0000000001
 40
0.0
 40
0.0
 40
0.0
 40
0.0
 40
1.0
 40
1.0
 40
1.0
 40
1.0
 10
11.6431
 20
-5.3453
 30
0.0
 10
11.6431
 20
-5.3453
 30
0.0
 10
4.9878
 20
-5.3454
 30
0.0
 10
4.9878
 20
-5.3454
 30
0.0
  0
SPLINE
  5
10E
330
1F
100
AcDbEntity
  8
ROUND
 62
   250
100
AcDbSpline
210
0.0
220
0.0
230
1.0
 70
    24
 71
     3
 72
     8
 73
     4
 74
     0
 42
0.0000000001
 43
0.0000000001
 40
0.0
 40
0.0
 40
0.0
 40
0.0
 40
1.0
 40
1.0
 40
1.0
 40
1.0
 10
27.9065
 20
-21.6089
 30
0.0
 10
27.9065
 20
-21.6089
 30
0.0
 10
11.589
 20
-5.2913
 30
0.0
 10
11.589
 20
-5.2913
 30
0.0
  0
SPLINE
  5
10F
330
1F
100
AcDbEntity
  8
ROUND
 62
   250
100
AcDbSpline
210
0.0
220
0.0
230
1.0
 70
    24
 71
     3
 72
     8
 73
     4
 74
     0
 42
0.0000000001
 43
0.0000000001
 40
0.0
 40
0.0
 40
0.0
 40
0.0
 40
1.0
 40
1.0
 40
1.0
 40
1.0
 10
25.9882
 20
-23.5272
 30
0.0
 10
25.9882
 20
-23.5272
 30
0.0
 10
42.4039
 20
-7.1115
 30
0.0
 10
42.4039
 20
-7.1115
 30
0.0
  0
SPLINE
  5
110
330
1F
100
AcDbEntity
  8
ROUND
 62
   250
100
AcDbSpline
210
0.0
220
0.0
230
1.0
 70
    24
 71
     3
 72
     8
 73
     4
 74
     0
 42
0.0000000001
 43
0.0000000001
 40
0.0
 40
0.0
 40
0.0
 40
0.0
 40
1.0
 40
1.0
 40
1.0
 40
1.0
 10
26.9002
 20
-23.7473
 30
0.0
 10
26.9002
 20
-23.7473
 30
0.0
 10
42.8442
 20
-39.6913
 30
0.0
 10
42.8442
 20
-39.6913
 30
0.0
  0
SPLINE
  5
111
330
1F
100
AcDbEntity
  8
ROUND
 62
   250
100
AcDbSpline
210
0.0
220
0.0
230
1.0
 70
    24
 71
     3
 72
     8
 73
     4
 74
     0
 42
0.0000000001
 43
0.0000000001
 40
0.0
 40
0.0
 40
0.0
 40
0.0
 40
1.0
 40
1.0
 40
1.0
 40
1.0
 10
26.5543
 20
-24.0932
 30
0.0
 10
26.5543
 20
-24.0932
 30
0.0
 10
42.97
 20
-7.6775
 30
0.0
 10
42.97
 20
-7.6775
 30
0.0
  0
SPLINE
  5
112
330
1F
100
AcDbEntity
  8
ROUND
 62
   250
100
AcDbSpline
210
0.0
220
0.0
230
1.0
 70
    24
 71
     3
 72
     8
 73
     4
 74
     0
 42
0.0000000001
 43
0.0000000001
 40
0.0
 40
0.0
 40
0.0
 40
0.0
 40
1.0
 40
1.0
 40
1.0
 40
1.0
 10
42.8442
 20
-39.6913
 30
0.0
 10
42.8442
 20
-39.6913
 30
0.0
 10
43.7877
 20
-39.6913
 30
0.0
 10
43.7877
 20
-39.6913
 30
0.0
  0
SPLINE
  5
113
330
1F
100
AcDbEntity
  8
ROUND
 62
   250
100
AcDbSpline
210
0.0
220
0.0
230
1.0
 70
    24
 71
     3
 72
     8
 73
     4
 74
     0
 42
0.0000000001
 43
0.0000000001
 40
0.0
 40
0.0
 40
0.0
 40
0.0
 40
1.0
 40
1.0
 40
1.0
 40
1.0
 10
42.8442
 20
-39.6913
 30
0.0
 10
42.8442
 20
-39.6913
 30
0.0
 10
58.5681
 20
-23.9675
 30
0.0
 10
58.5681
 20
-23.9675
 30
0.0
  0
SPLINE
  5
114
330
1F
100
AcDbEntity
  8
ROUND
 62
   250
100
AcDbSpline
210
0.0
220
0.0
230
1.0
 70
    24
 71
     3
 72
     8
 73
     4
 74
     0
 42
0.0000000001
 43
0.0000000001
 40
0.0
 40
0.0
 40
0.0
 40
0.0
 40
1.0
 40
1.0
 40
1.0
 40
1.0
 10
43.7877
 20
-39.6913
 30
0.0
 10
43.7877
 20
-39.6913
 30
0.0
 10
58.5681
 20
-24.9109
 30
0.0
 10
58.5681
 20
-24.9109
 30
0.0
  0
SPLINE
  5
115
330
1F
100
AcDbEntity
  8
ROUND
 62
   250
100
AcDbSpline
210
0.0
220
0.0
230
1.0
 70
    24
 71
     3
 72
     8
 73
     4
 74
     0
 42
0.0000000001
 43
0.0000000001
 40
0.0
 40
0.0
 40
0.0
 40
0.0
 40
1.0
 40
1.0
 40
1.0
 40
1.0
 10
58.5681
 20
-23.9675
 30
0.0
 10
58.5681
 20
-23.9675
 30
0.0
 10
58.5681
 20
-24.9109
 30
0.0
 10
58.5681
 20
-24.9109
 30
0.0
  0
SPLINE
  5
116
330
1F
100
AcDbEntity
  8
ROUND
 62
   250
100
AcDbSpline
210
0.0
220
0.0
230
1.0
 70
     8
 71
     3
 72
    12
 73
     8
 74
     0
 42
0.0000000001
 43
0.0000000001
 40
0.0
 40
0.0
 40
0.0
 40
0.0
 40
0.3333333333333333
 40
0.3333333333333333
 40
0.3333333333333333
 40
0.3333333333333333
 40
1.0
 40
1.0
 40
1.0
 40
1.0
 10
26.5543
 20
-24.0932
 30
0.0
 10
26.3979
 20
-24.2496
 30
0.0
 10
26.1445
 20
-24.2495
 30
0.0
 10
25.9882
 20
-24.0932
 30
0.0
 10
25.9882
 20
-24.0932
 30
0.0
 10
25.8319
 20
-23.9369
 30
0.0
 10
25.8319
 20
-23.6835
 30
0.0
 10
25.9882
 20
-23.5272
 30
0.0
  0
SPLINE
  5
117
330
1F
100
AcDbEntity
  8
ROUND
 62
   250
100
AcDbSpline
210
0.0
220
0.0
230
1.0
 70
     8
 71
     3
 72
    12
 73
     8
 74
     0
 42
0.0000000001
 43
0.0000000001
 40
0.0
 40
0.0
 40
0.0
 40
0.0
 40
0.3333333333333333
 40
0.3333333333333333
 40
0.3333333333333333
 40
0.3333333333333333
 40
1.0
 40
1.0
 40
1.0
 40
1.0
 10
42.4039
 20
-7.1115
 30
0.0
 10
42.5602
 20
-6.9552
 30
0.0
 10
42.8137
 20
-6.9551
 30
0.0
 10
42.97
 20
-7.1115
 30
0.0
 10
42.97
 20
-7.1115
 30
0.0
 10
43.1263
 20
-7.2678
 30
0.0
 10
43.1263
 20
-7.5212
 30
0.0
 10
42.97
 20
-7.6775
 30
0.0
  0
SPLINE
  5
118
330
1F
100
AcDbEntity
  8
ROUND
 62
   250
100
AcDbSpline
210
0.0
220
0.0
230
1.0
 70
     8
 71
     3
 72
     8
 73
     4
 74
     0
 42
0.0000000001
 43
0.0000000001
 40
0.0
 40
0.0
 40
0.0
 40
0.0
 40
1.0
 40
1.0
 40
1.0
 40
1.0
 10
11.643
 20
12.4441
 30
0.0
 10
16.3611
 20
12.4441
 30
0.0
 10
20.886
 20
10.5698
 30
0.0
 10
24.2222
 20
7.2337
 30
0.0
  0
SPLINE
  5
119
330
1F
100
AcDbEntity
  8
ROUND
  6
NEW_LINE4
 62
   250
100
AcDbSpline
210
0.0
220
0.0
230
1.0
 70
    24
 71
     3
 72
     8
 73
     4
 74
     0
 42
0.0000000001
 43
0.0000000001
 40
0.0
 40
0.0
 40
0.0
 40
0.0
 40
1.0
 40
1.0
 40
1.0
 40
1.0
 10
11.3074
 20
3.7906
 30
0.0
 10
11.3074
 20
3.7906
 30
0.0
 10
33.9293
 20
3.7906
 30
0.0
 10
33.9293
 20
3.7906
 30
0.0
  0
ENDSEC
  0
SECTION
  2
OBJECTS
  0
DICTIONARY
  5
C
330
0
100
AcDbDictionary
  3
ACAD_GROUP
350
D
  3
ACAD_LAYOUT
350
1A
  3
ACAD_MATERIAL
350
3B
  3
ACAD_MLEADERSTYLE
350
13D
  3
ACAD_MLINESTYLE
350
17
  3
ACAD_PLOTSETTINGS
350
19
  3
ACAD_VISUALSTYLE
350
2A
  3
ACDBHEADERROUNDTRIPXREC
350
11B
  3
ACDBVARIABLEDICTIONARY
350
13B
  0
DICTIONARY
  5
D
102
{ACAD_REACTORS
330
C
102
}
330
C
100
AcDbDictionary
  0
DICTIONARY
  5
1A
102
{ACAD_REACTORS
330
C
102
}
330
C
100
AcDbDictionary
  0
DICTIONARY
  5
3B
102
{ACAD_REACTORS
330
C
102
}
330
C
100
AcDbDictionary
  3
BYBLOCK
350
3D
  3
BYLAYER
350
3C
  3
GLOBAL
350
3E
  0
DICTIONARY
  5
13D
102
{ACAD_REACTORS
330
C
102
}
330
C
100
AcDbDictionary
  0
DICTIONARY
  5
17
102
{ACAD_REACTORS
330
C
102
}
330
C
100
AcDbDictionary
  3
STANDARD
350
18
  0
DICTIONARY
  5
19
102
{ACAD_REACTORS
330
C
102
}
330
C
100
AcDbDictionary
  0
DICTIONARY
  5
2A
102
{ACAD_REACTORS
330
C
102
}
330
C
100
AcDbDictionary
  3
2DWIREFRAME
350
2F
  3
3D_HIDDEN
350
31
  3
3DWIREFRAME
350
30
  3
BASIC
350
32
  3
BRIGHTEN
350
36
  3
COLORCHANGE
350
3A
  3
CONCEPTUAL
350
34
  3
DIM
350
35
  3
FACEPATTERN
350
39
  3
FLAT
350
2B
  3
FLATWITHEDGES
350
2C
  3
GOURAUD
350
2D
  3
GOURAUDWITHEDGES
350
2E
  3
LINEPATTERN
350
38
  3
REALISTIC
350
33
  3
THICKEN
350
37
  0
DICTIONARY
  5
11B
102
{ACAD_REACTORS
330
C
102
}
330
C
100
AcDbDictionary
  3
CEPSNTYPE
350
124
  3
DIMSTYLEDATA
350
13A
  3
FINGERPRINTGUID
350
125
  3
HYPERLINKBASE
350
11E
  3
INSUNITS
350
123
  3
LAYOUTDICT
350
120
  3
LWETCUNION
350
122
  3
PLOTSETDICT
350
121
  3
PSVPSCALE
350
127
  3
PUCSBASE
350
12A
  3
PUCSORGBACK
350
130
  3
PUCSORGBOTTOM
350
12C
  3
PUCSORGFRONT
350
12F
  3
PUCSORGLEFT
350
12D
  3
PUCSORGRIGHT
350
12E
  3
PUCSORGTOP
350
12B
  3
PUCSORTHOREF
350
128
  3
PUCSORTHOVIEW
350
129
  3
STYLESHEET
350
11F
  3
TSTACKALIGN
350
11C
  3
TSTACKSIZE
350
11D
  3
UCSBASE
350
133
  3
UCSORGBACK
350
139
  3
UCSORGBOTTOM
350
135
  3
UCSORGFRONT
350
138
  3
UCSORGLEFT
350
136
  3
UCSORGRIGHT
350
137
  3
UCSORGTOP
350
134
  3
UCSORTHOREF
350
131
  3
UCSORTHOVIEW
350
132
  3
VERSIONGUID
350
126
  0
DICTIONARY
  5
13B
102
{ACAD_REACTORS
330
C
102
}
330
C
100
AcDbDictionary
  3
DIMASSOC
350
13E
  3
HIDETEXT
350
13F
  0
MATERIAL
  5
3D
102
{ACAD_REACTORS
330
3B
102
}
102
{ACAD_XDICTIONARY
360
142
102
}
330
3B
100
AcDbMaterial
  1
ByBlock
  0
MATERIAL
  5
3C
102
{ACAD_REACTORS
330
3B
102
}
102
{ACAD_XDICTIONARY
360
140
102
}
330
3B
100
AcDbMaterial
  1
ByLayer
  0
MATERIAL
  5
3E
102
{ACAD_REACTORS
330
3B
102
}
102
{ACAD_XDICTIONARY
360
144
102
}
330
3B
100
AcDbMaterial
  1
Global
  0
MLINESTYLE
  5
18
102
{ACAD_REACTORS
330
17
102
}
330
17
100
AcDbMlineStyle
  2
Standard
 70
     0
  3

 62
   256
 51
90.0
 52
90.0
 71
     2
 49
0.5
 62
   256
  6
BYLAYER
 49
-0.5
 62
   256
  6
BYLAYER
  0
ACAD_PROXY_OBJECT
  5
2F
102
{ACAD_REACTORS
330
2A
102
}
330
2A
100
AcDbProxyObject
 90
      499
 91
      501
 93
      436
310
42CC9915DA5C99599C985B595049028333333333333E3BF0000000000000FB0107901411070040501600405405064090741402480A0340
1001
ACAD
1000
AcDbSavedByObjectVersion
1070
     0
  0
ACAD_PROXY_OBJECT
  5
31
102
{ACAD_REACTORS
330
2A
102
}
330
2A
100
AcDbProxyObject
 90
      499
 91
      501
 93
      500
310
424CD108121A5919195B90640502408333333333333E3BF0000000000000FB01079024090700405020000000000001110200405405064090740C02480A0340
1001
ACAD
1000
AcDbSavedByObjectVersion
1070
     0
  0
ACAD_PROXY_OBJECT
  5
30
102
{ACAD_REACTORS
330
2A
102
}
330
2A
100
AcDbProxyObject
 90
      499
 91
      501
 93
      436
310
42CCD915DA5C99599C985B595059028333333333333E3BF0000000000000FB0107901411070040501600405405064090741402480A0340
1001
ACAD
1000
AcDbSavedByObjectVersion
1070
     0
  0
ACAD_PROXY_OBJECT
  5
32
102
{ACAD_REACTORS
330
2A
102
}
330
2A
100
AcDbProxyObject
 90
      499
 91
      501
 93
      388
310
4150985CDA58D07406404333333333333E3BF0000000000000FB0107A41107004050150841D405064090741402480A0350
1001
ACAD
1000
AcDbSavedByObjectVersion
1070
     0
  0
ACAD_PROXY_OBJECT
  5
36
102
{ACAD_REACTORS
330
2A
102
}
330
2A
100
AcDbProxyObject
 90
      499
 91
      501
 93
      428
310
42109C9A59DA1D195B90C409028333333333333E3BF0000000000000FB010790141107004050150841D405064090741402480A029950
1001
ACAD
1000
AcDbSavedByObjectVersion
1070
     0
  0
ACAD_PROXY_OBJECT
  5
3A
102
{ACAD_REACTORS
330
2A
102
}
330
2A
100
AcDbProxyObject
 90
      499
 91
      501
 93
      452
310
42D0DBDB1BDC90DA185B99D95104090240C333333333333E3BF0000000000000FB0108901411070040501508421405064090741402480A0350
1001
ACAD
1000
AcDbSavedByObjectVersion
1070
     0
  0
ACAD_PROXY_OBJECT
  5
34
102
{ACAD_REACTORS
330
2A
102
}
330
2A
100
AcDbProxyObject
 90
      499
 91
      501
 93
      500
310
4290DBDB98D95C1D1D585B10940D028333333333333E3BF0000000000000FB0107902409070040501000000000000111010841D405064090740C02480A0340
1001
ACAD
1000
AcDbSavedByObjectVersion
1070
     0
  0
ACAD_PROXY_OBJECT
  5
35
102
{ACAD_REACTORS
330
2A
102
}
330
2A
100
AcDbProxyObject
 90
      499
 91
      501
 93
      412
310
40D11A5B50B409028333333333333E3BF0000000000000FB010790141107004050150841D405064090741402480A02677FFFFFD0
1001
ACAD
1000
AcDbSavedByObjectVersion
1070
     0
  0
ACAD_PROXY_OBJECT
  5
39
102
{ACAD_REACTORS
330
2A
102
}
330
2A
100
AcDbProxyObject
 90
      499
 91
      501
 93
      444
310
42D19858D95C185D1D195C9B90F409028333333333333E3BF0000000000000FB010790141107004050150841D405064090741402480A0350
1001
ACAD
1000
AcDbSavedByObjectVersion
1070
     0
  0
ACAD_PROXY_OBJECT
  5
2B
102
{ACAD_REACTORS
330
2A
102
}
330
2A
100
AcDbProxyObject
 90
      499
 91
      501
 93
      388
310
41119B185D240901404333333333333E3BF0000000000000F9010740A41107004050150841D405064090741402480A1B50
1001
ACAD
1000
AcDbSavedByObjectVersion
1070
     0
  0
ACAD_PROXY_OBJECT
  5
2C
102
{ACAD_REACTORS
330
2A
102
}
330
2A
100
AcDbProxyObject
 90
      499
 91
      501
 93
      476
310
43519B185D15DA5D1A115919D95CD0140901404333333333333E3BF0000000000000F9010740901411070040501600405405064090741402480A1B50
1001
ACAD
1000
AcDbSavedByObjectVersion
1070
     0
  0
ACAD_PROXY_OBJECT
  5
2D
102
{ACAD_REACTORS
330
2A
102
}
330
2A
100
AcDbProxyObject
 90
      499
 91
      501
 93
      412
310
41D1DBDD5C985D5910240902404333333333333E3BF0000000000000F9010740A411070040501641D405064090741402480A1B50
1001
ACAD
1000
AcDbSavedByObjectVersion
1070
     0
  0
ACAD_PROXY_OBJECT
  5
2E
102
{ACAD_REACTORS
330
2A
102
}
330
2A
100
AcDbProxyObject
 90
      499
 91
      501
 93
      500
310
4411DBDD5C985D5915DA5D1A115919D95CD0340902404333333333333E3BF0000000000000F9010740901411070040501600405405064090741402480A1B50
1001
ACAD
1000
AcDbSavedByObjectVersion
1070
     0
  0
ACAD_PROXY_OBJECT
  5
38
102
{ACAD_REACTORS
330
2A
102
}
330
2A
100
AcDbProxyObject
 90
      499
 91
      501
 93
      444
310
42D31A5B995C185D1D195C9B90E409028333333333333E3BF0000000000000FB010790141107004050750841D405064090741402483A0350
1001
ACAD
1000
AcDbSavedByObjectVersion
1070
     0
  0
ACAD_PROXY_OBJECT
  5
33
102
{ACAD_REACTORS
330
2A
102
}
330
2A
100
AcDbProxyObject
 90
      499
 91
      501
 93
      420
310
425499585B1A5CDD1A58D08409028333333333333E3BF0000000000000FB01079019070040501508421405064090741402480A1B40
1001
ACAD
1000
AcDbSavedByObjectVersion
1070
     0
  0
ACAD_PROXY_OBJECT
  5
37
102
{ACAD_REACTORS
330
2A
102
}
330
2A
100
AcDbProxyObject
 90
      499
 91
      501
 93
      412
310
41D51A1A58DAD95B90D409028333333333333E3BF0000000000000FB010790141107004050150C41D405064090741402480A0350
1001
ACAD
1000
AcDbSavedByObjectVersion
1070
     0
  0
XRECORD
  5
124
102
{ACAD_REACTORS
330
11B
102
}
330
11B
100
AcDbXrecord
 90
        0
  0
XRECORD
  5
13A
102
{ACAD_REACTORS
330
11B
102
}
330
11B
100
AcDbXrecord
1000
DSTYLE
1002
{
1070
   340
340
11
1002
}
  0
XRECORD
  5
125
102
{ACAD_REACTORS
330
11B
102
}
330
11B
100
AcDbXrecord
  1
{8A976244-3125-4C9F-872F-7AC535638A42}
  0
XRECORD
  5
11E
102
{ACAD_REACTORS
330
11B
102
}
330
11B
100
AcDbXrecord
  1

  0
XRECORD
  5
123
102
{ACAD_REACTORS
330
11B
102
}
330
11B
100
AcDbXrecord
 90
        4
  0
XRECORD
  5
120
102
{ACAD_REACTORS
330
11B
102
}
330
11B
100
AcDbXrecord
340
1A
  0
XRECORD
  5
122
102
{ACAD_REACTORS
330
11B
102
}
330
11B
100
AcDbXrecord
 90
    10781
  0
XRECORD
  5
121
102
{ACAD_REACTORS
330
11B
102
}
330
11B
100
AcDbXrecord
340
19
  0
XRECORD
  5
127
102
{ACAD_REACTORS
330
11B
102
}
330
11B
100
AcDbXrecord
 40
0.0
  0
XRECORD
  5
12A
102
{ACAD_REACTORS
330
11B
102
}
330
11B
100
AcDbXrecord
340
0
  0
XRECORD
  5
130
102
{ACAD_REACTORS
330
11B
102
}
330
11B
100
AcDbXrecord
 10
0.0
 20
0.0
 30
0.0
  0
XRECORD
  5
12C
102
{ACAD_REACTORS
330
11B
102
}
330
11B
100
AcDbXrecord
 10
0.0
 20
0.0
 30
0.0
  0
XRECORD
  5
12F
102
{ACAD_REACTORS
330
11B
102
}
330
11B
100
AcDbXrecord
 10
0.0
 20
0.0
 30
0.0
  0
XRECORD
  5
12D
102
{ACAD_REACTORS
330
11B
102
}
330
11B
100
AcDbXrecord
 10
0.0
 20
0.0
 30
0.0
  0
XRECORD
  5
12E
102
{ACAD_REACTORS
330
11B
102
}
330
11B
100
AcDbXrecord
 10
0.0
 20
0.0
 30
0.0
  0
XRECORD
  5
12B
102
{ACAD_REACTORS
330
11B
102
}
330
11B
100
AcDbXrecord
 10
0.0
 20
0.0
 30
0.0
  0
XRECORD
  5
128
102
{ACAD_REACTORS
330
11B
102
}
330
11B
100
AcDbXrecord
340
0
  0
XRECORD
  5
129
102
{ACAD_REACTORS
330
11B
102
}
330
11B
100
AcDbXrecord
 70
     0
  0
XRECORD
  5
11F
102
{ACAD_REACTORS
330
11B
102
}
330
11B
100
AcDbXrecord
  1

  0
XRECORD
  5
11C
102
{ACAD_REACTORS
330
11B
102
}
330
11B
100
AcDbXrecord
 90
        1
  0
XRECORD
  5
11D
102
{ACAD_REACTORS
330
11B
102
}
330
11B
100
AcDbXrecord
 90
       70
  0
XRECORD
  5
133
102
{ACAD_REACTORS
330
11B
102
}
330
11B
100
AcDbXrecord
340
0
  0
XRECORD
  5
139
102
{ACAD_REACTORS
330
11B
102
}
330
11B
100
AcDbXrecord
 10
0.0
 20
0.0
 30
0.0
  0
XRECORD
  5
135
102
{ACAD_REACTORS
330
11B
102
}
330
11B
100
AcDbXrecord
 10
0.0
 20
0.0
 30
0.0
  0
XRECORD
  5
138
102
{ACAD_REACTORS
330
11B
102
}
330
11B
100
AcDbXrecord
 10
0.0
 20
0.0
 30
0.0
  0
XRECORD
  5
136
102
{ACAD_REACTORS
330
11B
102
}
330
11B
100
AcDbXrecord
 10
0.0
 20
0.0
 30
0.0
  0
XRECORD
  5
137
102
{ACAD_REACTORS
330
11B
102
}
330
11B
100
AcDbXrecord
 10
0.0
 20
0.0
 30
0.0
  0
XRECORD
  5
134
102
{ACAD_REACTORS
330
11B
102
}
330
11B
100
AcDbXrecord
 10
0.0
 20
0.0
 30
0.0
  0
XRECORD
  5
131
102
{ACAD_REACTORS
330
11B
102
}
330
11B
100
AcDbXrecord
340
0
  0
XRECORD
  5
132
102
{ACAD_REACTORS
330
11B
102
}
330
11B
100
AcDbXrecord
 70
     0
  0
XRECORD
  5
126
102
{ACAD_REACTORS
330
11B
102
}
330
11B
100
AcDbXrecord
  1
{FAEB1C32-E019-11D5-929B-00C0DF256EC4}
  0
DICTIONARYVAR
  5
13E
102
{ACAD_REACTORS
330
13B
102
}
330
13B
100
DictionaryVariables
280
     0
  1
2
  0
DICTIONARYVAR
  5
13F
102
{ACAD_REACTORS
330
13B
102
}
330
13B
100
DictionaryVariables
280
     0
  1
1
  0
DICTIONARY
  5
142
330
3D
100
AcDbDictionary
280
     1
  3
ACAD_XREC_ROUNDTRIP
360
143
  0
DICTIONARY
  5
140
330
3C
100
AcDbDictionary
280
     1
  3
ACAD_XREC_ROUNDTRIP
360
141
  0
DICTIONARY
  5
144
330
3E
100
AcDbDictionary
280
     1
  3
ACAD_XREC_ROUNDTRIP
360
145
  0
XRECORD
  5
143
102
{ACAD_REACTORS
330
142
102
}
330
142
100
AcDbXrecord
102
MATERIAL
148
0.0
149
0.0
149
0.0
 93
        0
 94
      127
282
     0
 72
     1
 77
     1
171
     1
175
     1
179
     1
273
     0
  0
XRECORD
  5
141
102
{ACAD_REACTORS
330
140
102
}
330
140
100
AcDbXrecord
102
MATERIAL
148
0.0
149
0.0
149
0.0
 93
        0
 94
      127
282
     0
 72
     1
 77
     1
171
     1
175
     1
179
     1
273
     0
  0
XRECORD
  5
145
102
{ACAD_REACTORS
330
144
102
}
330
144
100
AcDbXrecord
102
MATERIAL
148
0.0
149
0.0
149
0.0
 93
        0
 94
      127
282
     0
 72
     1
 77
     1
171
     1
175
     1
179
     1
273
     0
  0
ENDSEC
  0
EOF
