  0
SECTION
  2
HEADER
  9
$ACADVER
  1
AC1014
  9
$ACADMAINTVER
 70
     9
  9
$DWGCODEPAGE
  3
ANSI_1250
  9
$INSBASE
 10
0.0
 20
0.0
 30
0.0
  9
$EXTMIN
 10
-32.8356
 20
-19.0653
 30
0.0
  9
$EXTMAX
 10
32.8356
 20
19.0653
 30
0.0
  9
$LIMMIN
 10
0.0
 20
0.0
  9
$LIMMAX
 10
12.0
 20
9.0
  9
$ORTHOMODE
 70
     0
  9
$REGENMODE
 70
     1
  9
$FILLMODE
 70
     1
  9
$QTEXTMODE
 70
     0
  9
$MIRRTEXT
 70
     1
  9
$DRAGMODE
 70
     2
  9
$LTSCALE
 40
1.0
  9
$OSMODE
 70
    37
  9
$ATTMODE
 70
     1
  9
$TEXTSIZE
 40
0.2
  9
$TRACEWID
 40
0.05
  9
$TEXTSTYLE
  7
STANDARD
  9
$CLAYER
  8
0
  9
$CELTYPE
  6
BYLAYER
  9
$CECOLOR
 62
   256
  9
$CELTSCALE
 40
1.0
  9
$DELOBJ
 70
     1
  9
$DISPSILH
 70
     0
  9
$DIMSCALE
 40
1.0
  9
$DIMASZ
 40
0.18
  9
$DIMEXO
 40
0.0625
  9
$DIMDLI
 40
0.38
  9
$DIMRND
 40
0.0
  9
$DIMDLE
 40
0.0
  9
$DIMEXE
 40
0.18
  9
$DIMTP
 40
0.0
  9
$DIMTM
 40
0.0
  9
$DIMTXT
 40
0.18
  9
$DIMCEN
 40
0.09
  9
$DIMTSZ
 40
0.0
  9
$DIMTOL
 70
     0
  9
$DIMLIM
 70
     0
  9
$DIMTIH
 70
     1
  9
$DIMTOH
 70
     1
  9
$DIMSE1
 70
     0
  9
$DIMSE2
 70
     0
  9
$DIMTAD
 70
     0
  9
$DIMZIN
 70
     0
  9
$DIMBLK
  1

  9
$DIMASO
 70
     1
  9
$DIMSHO
 70
     1
  9
$DIMPOST
  1

  9
$DIMAPOST
  1

  9
$DIMALT
 70
     0
  9
$DIMALTD
 70
     2
  9
$DIMALTF
 40
25.4
  9
$DIMLFAC
 40
1.0
  9
$DIMTOFL
 70
     0
  9
$DIMTVP
 40
0.0
  9
$DIMTIX
 70
     0
  9
$DIMSOXD
 70
     0
  9
$DIMSAH
 70
     0
  9
$DIMBLK1
  1

  9
$DIMBLK2
  1

  9
$DIMSTYLE
  2
STANDARD
  9
$DIMCLRD
 70
     0
  9
$DIMCLRE
 70
     0
  9
$DIMCLRT
 70
     0
  9
$DIMTFAC
 40
1.0
  9
$DIMGAP
 40
0.09
  9
$DIMJUST
 70
     0
  9
$DIMSD1
 70
     0
  9
$DIMSD2
 70
     0
  9
$DIMTOLJ
 70
     1
  9
$DIMTZIN
 70
     0
  9
$DIMALTZ
 70
     0
  9
$DIMALTTZ
 70
     0
  9
$DIMFIT
 70
     3
  9
$DIMUPT
 70
     0
  9
$DIMUNIT
 70
     2
  9
$DIMDEC
 70
     4
  9
$DIMTDEC
 70
     4
  9
$DIMALTU
 70
     2
  9
$DIMALTTD
 70
     2
  9
$DIMTXSTY
  7
STANDARD
  9
$DIMAUNIT
 70
     0
  9
$LUNITS
 70
     2
  9
$LUPREC
 70
     4
  9
$SKETCHINC
 40
0.1
  9
$FILLETRAD
 40
0.5
  9
$AUNITS
 70
     0
  9
$AUPREC
 70
     0
  9
$MENU
  1
.
  9
$ELEVATION
 40
0.0
  9
$PELEVATION
 40
0.0
  9
$THICKNESS
 40
0.0
  9
$LIMCHECK
 70
     0
  9
$CHAMFERA
 40
0.5
  9
$CHAMFERB
 40
0.5
  9
$CHAMFERC
 40
1.0
  9
$CHAMFERD
 40
0.0
  9
$SKPOLY
 70
     0
  9
$TDCREATE
 40
2456701.33940456
  9
$TDUPDATE
 40
2456701.339404572
  9
$TDINDWG
 40
0.0000000116
  9
$TDUSRTIMER
 40
0.0000000116
  9
$USRTIMER
 70
     1
  9
$ANGBASE
 50
0.0
  9
$ANGDIR
 70
     0
  9
$PDMODE
 70
     0
  9
$PDSIZE
 40
0.0
  9
$PLINEWID
 40
0.0
  9
$COORDS
 70
     1
  9
$SPLFRAME
 70
     0
  9
$SPLINETYPE
 70
     6
  9
$SPLINESEGS
 70
     8
  9
$ATTDIA
 70
     0
  9
$ATTREQ
 70
     1
  9
$HANDLING
 70
     1
  9
$HANDSEED
  5
108
  9
$SURFTAB1
 70
     6
  9
$SURFTAB2
 70
     6
  9
$SURFTYPE
 70
     6
  9
$SURFU
 70
     6
  9
$SURFV
 70
     6
  9
$UCSNAME
  2

  9
$UCSORG
 10
0.0
 20
0.0
 30
0.0
  9
$UCSXDIR
 10
1.0
 20
0.0
 30
0.0
  9
$UCSYDIR
 10
0.0
 20
1.0
 30
0.0
  9
$PUCSNAME
  2

  9
$PUCSORG
 10
0.0
 20
0.0
 30
0.0
  9
$PUCSXDIR
 10
1.0
 20
0.0
 30
0.0
  9
$PUCSYDIR
 10
0.0
 20
1.0
 30
0.0
  9
$USERI1
 70
     0
  9
$USERI2
 70
     0
  9
$USERI3
 70
     0
  9
$USERI4
 70
     0
  9
$USERI5
 70
     0
  9
$USERR1
 40
0.0
  9
$USERR2
 40
0.0
  9
$USERR3
 40
0.0
  9
$USERR4
 40
0.0
  9
$USERR5
 40
0.0
  9
$WORLDVIEW
 70
     1
  9
$SHADEDGE
 70
     3
  9
$SHADEDIF
 70
    70
  9
$TILEMODE
 70
     1
  9
$MAXACTVP
 70
    64
  9
$PINSBASE
 10
0.0
 20
0.0
 30
0.0
  9
$PLIMCHECK
 70
     0
  9
$PEXTMIN
 10
1.000000000000000E+20
 20
1.000000000000000E+20
 30
1.000000000000000E+20
  9
$PEXTMAX
 10
-1.000000000000000E+20
 20
-1.000000000000000E+20
 30
-1.000000000000000E+20
  9
$PLIMMIN
 10
0.0
 20
0.0
  9
$PLIMMAX
 10
12.0
 20
9.0
  9
$UNITMODE
 70
     0
  9
$VISRETAIN
 70
     1
  9
$PLINEGEN
 70
     0
  9
$PSLTSCALE
 70
     1
  9
$TREEDEPTH
 70
  3020
  9
$PICKSTYLE
 70
     1
  9
$CMLSTYLE
  2
STANDARD
  9
$CMLJUST
 70
     0
  9
$CMLSCALE
 40
1.0
  9
$PROXYGRAPHICS
 70
     1
  9
$MEASUREMENT
 70
     0
  0
ENDSEC
  0
SECTION
  2
CLASSES
  0
CLASS
  1
ACDBDICTIONARYWDFLT
  2
AcDbDictionaryWithDefault
  3
ObjectDBX Classes
 90
        0
280
     0
281
     0
  0
CLASS
  1
VISUALSTYLE
  2
AcDbVisualStyle
  3
ObjectDBX Classes
 90
     4095
280
     0
281
     0
  0
CLASS
  1
MATERIAL
  2
AcDbMaterial
  3
ObjectDBX Classes
 90
     1153
280
     0
281
     0
  0
CLASS
  1
DICTIONARYVAR
  2
AcDbDictionaryVar
  3
ObjectDBX Classes
 90
        0
280
     0
281
     0
  0
CLASS
  1
XRECORD
  2
AcDbXrecord
  3
AutoCAD 2000
 90
        0
280
     0
281
     0
  0
CLASS
  1
LWPOLYLINE
  2
AcDbPolyline
  3
AutoCAD 2000
 90
        0
280
     0
281
     1
  0
CLASS
  1
HATCH
  2
AcDbHatch
  3
AutoCAD 2000
 90
        0
280
     0
281
     1
  0
CLASS
  1
ACDBPLACEHOLDER
  2
AcDbPlaceHolder
  3
ObjectDBX Classes
 90
        0
280
     0
281
     0
  0
CLASS
  1
LAYOUT
  2
AcDbLayout
  3
ObjectDBX Classes
 90
        0
280
     0
281
     0
  0
ENDSEC
  0
SECTION
  2
TABLES
  0
TABLE
  2
VPORT
  5
8
330
0
100
AcDbSymbolTable
 70
     1
  0
VPORT
  5
29
330
8
100
AcDbSymbolTableRecord
100
AcDbViewportTableRecord
  2
*ACTIVE
 70
     0
 10
0.0
 20
0.0
 11
1.0
 21
1.0
 12
10.42990654205607
 22
4.5
 13
0.0
 23
0.0
 14
0.5
 24
0.5
 15
0.5
 25
0.5
 16
0.0
 26
0.0
 36
1.0
 17
0.0
 27
0.0
 37
0.0
 40
9.0
 41
1.972972972850329
 42
50.0
 43
0.0
 44
0.0
 50
0.0
 51
0.0
 71
     0
 72
   100
 73
     1
 74
     3
 75
     0
 76
     0
 77
     0
 78
     0
  0
ENDTAB
  0
TABLE
  2
LTYPE
  5
5
330
0
100
AcDbSymbolTable
 70
     1
  0
LTYPE
  5
14
330
5
100
AcDbSymbolTableRecord
100
AcDbLinetypeTableRecord
  2
BYBLOCK
 70
     0
  3

 72
    65
 73
     0
 40
0.0
  0
LTYPE
  5
15
330
5
100
AcDbSymbolTableRecord
100
AcDbLinetypeTableRecord
  2
BYLAYER
 70
     0
  3

 72
    65
 73
     0
 40
0.0
  0
LTYPE
  5
16
330
5
100
AcDbSymbolTableRecord
100
AcDbLinetypeTableRecord
  2
CONTINUOUS
 70
     0
  3
Solid line
 72
    65
 73
     0
 40
0.0
  0
ENDTAB
  0
TABLE
  2
LAYER
  5
2
330
0
100
AcDbSymbolTable
 70
     2
  0
LAYER
  5
10
330
2
100
AcDbSymbolTableRecord
100
AcDbLayerTableRecord
  2
0
 70
     0
 62
     7
  6
CONTINUOUS
  0
LAYER
  5
40
330
2
100
AcDbSymbolTableRecord
100
AcDbLayerTableRecord
  2
VRSTVA_1
 70
     0
 62
     7
  6
CONTINUOUS
  0
ENDTAB
  0
TABLE
  2
STYLE
  5
3
330
0
100
AcDbSymbolTable
 70
     1
  0
STYLE
  5
11
330
3
100
AcDbSymbolTableRecord
100
AcDbTextStyleTableRecord
  2
STANDARD
 70
     0
 40
0.0
 41
1.0
 50
0.0
 71
     0
 42
0.2
  3
txt
  4

  0
ENDTAB
  0
TABLE
  2
VIEW
  5
6
330
0
100
AcDbSymbolTable
 70
     0
  0
ENDTAB
  0
TABLE
  2
UCS
  5
7
330
0
100
AcDbSymbolTable
 70
     0
  0
ENDTAB
  0
TABLE
  2
APPID
  5
9
330
0
100
AcDbSymbolTable
 70
     2
  0
APPID
  5
12
330
9
100
AcDbSymbolTableRecord
100
AcDbRegAppTableRecord
  2
ACAD
 70
     0
  0
APPID
  5
3F
330
9
100
AcDbSymbolTableRecord
100
AcDbRegAppTableRecord
  2
ODA
 70
     0
  0
ENDTAB
  0
TABLE
  2
DIMSTYLE
  5
A
330
0
100
AcDbSymbolTable
 70
     1
  0
DIMSTYLE
105
27
330
A
100
AcDbSymbolTableRecord
100
AcDbDimStyleTableRecord
  2
STANDARD
 70
     0
  3

  4

  5

  6

  7

 40
1.0
 41
0.18
 42
0.0625
 43
0.38
 44
0.18
 45
0.0
 46
0.0
 47
0.0
 48
0.0
140
0.18
141
0.09
142
0.0
143
25.4
144
1.0
145
0.0
146
1.0
147
0.09
 71
     0
 72
     0
 73
     1
 74
     1
 75
     0
 76
     0
 77
     0
 78
     0
170
     0
171
     2
172
     0
173
     0
174
     0
175
     0
176
     0
177
     0
178
     0
270
     2
271
     4
272
     4
273
     2
274
     2
340
11
275
     0
280
     0
281
     0
282
     0
283
     1
284
     0
285
     0
286
     0
287
     3
288
     0
  0
ENDTAB
  0
TABLE
  2
BLOCK_RECORD
  5
1
330
0
100
AcDbSymbolTable
 70
     1
  0
BLOCK_RECORD
  5
1F
330
1
100
AcDbSymbolTableRecord
100
AcDbBlockTableRecord
  2
*MODEL_SPACE
  0
BLOCK_RECORD
  5
1B
330
1
100
AcDbSymbolTableRecord
100
AcDbBlockTableRecord
  2
*PAPER_SPACE
  0
ENDTAB
  0
ENDSEC
  0
SECTION
  2
BLOCKS
  0
BLOCK
  5
20
330
1F
100
AcDbEntity
  8
0
100
AcDbBlockBegin
  2
*MODEL_SPACE
 70
     0
 10
0.0
 20
0.0
 30
0.0
  3
*MODEL_SPACE
  1

  0
ENDBLK
  5
21
330
1F
100
AcDbEntity
  8
0
100
AcDbBlockEnd
  0
BLOCK
  5
1C
330
1B
100
AcDbEntity
 67
     1
  8
0
100
AcDbBlockBegin
  2
*PAPER_SPACE
 70
     0
 10
0.0
 20
0.0
 30
0.0
  3
*PAPER_SPACE
  1

  0
ENDBLK
  5
1D
330
1B
100
AcDbEntity
 67
     1
  8
0
100
AcDbBlockEnd
  0
ENDSEC
  0
SECTION
  2
ENTITIES
  0
SPLINE
  5
41
330
1F
100
AcDbEntity
  8
VRSTVA_1
100
AcDbSpline
210
0.0
220
0.0
230
1.0
 70
    24
 71
     3
 72
    16
 73
    12
 74
     0
 42
0.0000000001
 43
0.0000000001
 40
0.0
 40
0.0
 40
0.0
 40
0.0
 40
0.25
 40
0.25
 40
0.25
 40
0.25
 40
0.5
 40
0.5
 40
0.5
 40
0.5
 40
1.0
 40
1.0
 40
1.0
 40
1.0
 10
-23.9232
 20
13.2584
 30
0.0
 10
-23.9232
 20
13.2584
 30
0.0
 10
-23.9232
 20
12.9251
 30
0.0
 10
-23.9232
 20
12.9251
 30
0.0
 10
-23.9232
 20
12.9251
 30
0.0
 10
-23.9232
 20
12.9251
 30
0.0
 10
-23.9232
 20
-13.7349
 30
0.0
 10
-23.9232
 20
-13.7349
 30
0.0
 10
-23.9232
 20
-13.7349
 30
0.0
 10
-23.9232
 20
-13.7349
 30
0.0
 10
-23.9232
 20
-14.0681
 30
0.0
 10
-23.9232
 20
-14.0681
 30
0.0
  0
SPLINE
  5
42
330
1F
100
AcDbEntity
  8
VRSTVA_1
100
AcDbSpline
210
0.0
220
0.0
230
1.0
 70
    24
 71
     3
 72
    16
 73
    12
 74
     0
 42
0.0000000001
 43
0.0000000001
 40
0.0
 40
0.0
 40
0.0
 40
0.0
 40
0.25
 40
0.25
 40
0.25
 40
0.25
 40
0.5
 40
0.5
 40
0.5
 40
0.5
 40
1.0
 40
1.0
 40
1.0
 40
1.0
 10
-23.8399
 20
-14.1515
 30
0.0
 10
-23.8399
 20
-14.1515
 30
0.0
 10
-23.5066
 20
-14.1515
 30
0.0
 10
-23.5066
 20
-14.1515
 30
0.0
 10
-23.5066
 20
-14.1515
 30
0.0
 10
-23.5066
 20
-14.1515
 30
0.0
 10
16.8165
 20
-14.1515
 30
0.0
 10
16.8165
 20
-14.1515
 30
0.0
 10
16.8165
 20
-14.1515
 30
0.0
 10
16.8165
 20
-14.1515
 30
0.0
 10
17.1497
 20
-14.1515
 30
0.0
 10
17.1497
 20
-14.1515
 30
0.0
  0
SPLINE
  5
43
330
1F
100
AcDbEntity
  8
VRSTVA_1
100
AcDbSpline
210
0.0
220
0.0
230
1.0
 70
     8
 71
     3
 72
     8
 73
     4
 74
     0
 42
0.0000000001
 43
0.0000000001
 40
0.0
 40
0.0
 40
0.0
 40
0.0
 40
1.0
 40
1.0
 40
1.0
 40
1.0
 10
17.1497
 20
-14.1515
 30
0.0
 10
17.1793
 20
-14.1513
 30
0.0
 10
17.2071
 20
-14.1353
 30
0.0
 10
17.2219
 20
-14.1098
 30
0.0
  0
SPLINE
  5
44
330
1F
100
AcDbEntity
  8
VRSTVA_1
100
AcDbSpline
210
0.0
220
0.0
230
1.0
 70
     8
 71
     3
 72
    20
 73
    16
 74
     0
 42
0.0000000001
 43
0.0000000001
 40
0.0
 40
0.0
 40
0.0
 40
0.0
 40
0.2
 40
0.2
 40
0.2
 40
0.2
 40
0.4
 40
0.4
 40
0.4
 40
0.4
 40
0.6
 40
0.6
 40
0.6
 40
0.6
 40
1.0
 40
1.0
 40
1.0
 40
1.0
 10
17.2219
 20
-14.1098
 30
0.0
 10
17.2219
 20
-14.1098
 30
0.0
 10
17.2318
 20
-14.0826
 30
0.0
 10
17.2318
 20
-14.0826
 30
0.0
 10
17.2318
 20
-14.0826
 30
0.0
 10
17.2318
 20
-14.0826
 30
0.0
 10
17.2318
 20
-13.7493
 30
0.0
 10
17.2318
 20
-13.7493
 30
0.0
 10
17.2318
 20
-13.7493
 30
0.0
 10
17.2318
 20
-13.7493
 30
0.0
 10
17.2318
 20
12.9396
 30
0.0
 10
17.2318
 20
12.9396
 30
0.0
 10
17.2318
 20
12.9396
 30
0.0
 10
17.2318
 20
12.9396
 30
0.0
 10
17.2318
 20
13.2729
 30
0.0
 10
17.2318
 20
13.2729
 30
0.0
  0
SPLINE
  5
45
330
1F
100
AcDbEntity
  8
VRSTVA_1
100
AcDbSpline
210
0.0
220
0.0
230
1.0
 70
     8
 71
     3
 72
    20
 73
    16
 74
     0
 42
0.0000000001
 43
0.0000000001
 40
0.0
 40
0.0
 40
0.0
 40
0.0
 40
0.2
 40
0.2
 40
0.2
 40
0.2
 40
0.4
 40
0.4
 40
0.4
 40
0.4
 40
0.6
 40
0.6
 40
0.6
 40
0.6
 40
1.0
 40
1.0
 40
1.0
 40
1.0
 10
17.233
 20
-14.0681
 30
0.0
 10
17.233
 20
-14.0681
 30
0.0
 10
17.233
 20
-13.7349
 30
0.0
 10
17.233
 20
-13.7349
 30
0.0
 10
17.233
 20
-13.7349
 30
0.0
 10
17.233
 20
-13.7349
 30
0.0
 10
17.233
 20
12.9251
 30
0.0
 10
17.233
 20
12.9251
 30
0.0
 10
17.233
 20
12.9251
 30
0.0
 10
17.233
 20
12.9251
 30
0.0
 10
17.233
 20
13.2585
 30
0.0
 10
17.233
 20
13.2585
 30
0.0
 10
17.233
 20
13.2585
 30
0.0
 10
17.233
 20
13.2585
 30
0.0
 10
17.2318
 20
13.2729
 30
0.0
 10
17.2318
 20
13.2729
 30
0.0
  0
SPLINE
  5
46
330
1F
100
AcDbEntity
  8
VRSTVA_1
100
AcDbSpline
210
0.0
220
0.0
230
1.0
 70
     8
 71
     3
 72
     8
 73
     4
 74
     0
 42
0.0000000001
 43
0.0000000001
 40
0.0
 40
0.0
 40
0.0
 40
0.0
 40
1.0
 40
1.0
 40
1.0
 40
1.0
 10
17.2318
 20
13.2729
 30
0.0
 10
17.2248
 20
13.3123
 30
0.0
 10
17.1897
 20
13.3415
 30
0.0
 10
17.1497
 20
13.3417
 30
0.0
  0
SPLINE
  5
47
330
1F
100
AcDbEntity
  8
VRSTVA_1
100
AcDbSpline
210
0.0
220
0.0
230
1.0
 70
    24
 71
     3
 72
    16
 73
    12
 74
     0
 42
0.0000000001
 43
0.0000000001
 40
0.0
 40
0.0
 40
0.0
 40
0.0
 40
0.25
 40
0.25
 40
0.25
 40
0.25
 40
0.5
 40
0.5
 40
0.5
 40
0.5
 40
1.0
 40
1.0
 40
1.0
 40
1.0
 10
17.1497
 20
13.3417
 30
0.0
 10
17.1497
 20
13.3417
 30
0.0
 10
16.8165
 20
13.3417
 30
0.0
 10
16.8165
 20
13.3417
 30
0.0
 10
16.8165
 20
13.3417
 30
0.0
 10
16.8165
 20
13.3417
 30
0.0
 10
-23.5066
 20
13.3417
 30
0.0
 10
-23.5066
 20
13.3417
 30
0.0
 10
-23.5066
 20
13.3417
 30
0.0
 10
-23.5066
 20
13.3417
 30
0.0
 10
-23.8399
 20
13.3417
 30
0.0
 10
-23.8399
 20
13.3417
 30
0.0
  0
SPLINE
  5
48
330
1F
100
AcDbEntity
  8
VRSTVA_1
100
AcDbSpline
210
0.0
220
0.0
230
1.0
 70
     8
 71
     3
 72
     8
 73
     4
 74
     0
 42
0.0000000001
 43
0.0000000001
 40
0.0
 40
0.0
 40
0.0
 40
0.0
 40
1.0
 40
1.0
 40
1.0
 40
1.0
 10
-23.8399
 20
13.3417
 30
0.0
 10
-24.0061
 20
13.3272
 30
0.0
 10
-23.9219
 20
12.974
 30
0.0
 10
-23.9219
 20
12.9396
 30
0.0
  0
SPLINE
  5
49
330
1F
100
AcDbEntity
  8
VRSTVA_1
100
AcDbSpline
210
0.0
220
0.0
230
1.0
 70
    24
 71
     3
 72
    12
 73
     8
 74
     0
 42
0.0000000001
 43
0.0000000001
 40
0.0
 40
0.0
 40
0.0
 40
0.0
 40
0.3333333333333333
 40
0.3333333333333333
 40
0.3333333333333333
 40
0.3333333333333333
 40
1.0
 40
1.0
 40
1.0
 40
1.0
 10
-23.9219
 20
12.9396
 30
0.0
 10
-23.9219
 20
12.9396
 30
0.0
 10
-23.9219
 20
-13.7493
 30
0.0
 10
-23.9219
 20
-13.7493
 30
0.0
 10
-23.9219
 20
-13.7493
 30
0.0
 10
-23.9219
 20
-13.7493
 30
0.0
 10
-23.9219
 20
-14.0826
 30
0.0
 10
-23.9219
 20
-14.0826
 30
0.0
  0
SPLINE
  5
4A
330
1F
100
AcDbEntity
  8
VRSTVA_1
100
AcDbSpline
210
0.0
220
0.0
230
1.0
 70
     8
 71
     3
 72
    20
 73
    16
 74
     0
 42
0.0000000001
 43
0.0000000001
 40
0.0
 40
0.0
 40
0.0
 40
0.0
 40
0.2
 40
0.2
 40
0.2
 40
0.2
 40
0.4
 40
0.4
 40
0.4
 40
0.4
 40
0.6
 40
0.6
 40
0.6
 40
0.6
 40
1.0
 40
1.0
 40
1.0
 40
1.0
 10
-20.4803
 20
-7.9185
 30
0.0
 10
-20.4803
 20
-7.9185
 30
0.0
 10
-20.4974
 20
-7.9195
 30
0.0
 10
-20.4974
 20
-7.9195
 30
0.0
 10
-20.4974
 20
-7.9195
 30
0.0
 10
-20.4974
 20
-7.9195
 30
0.0
 10
-20.8307
 20
-7.9194
 30
0.0
 10
-20.8307
 20
-7.9194
 30
0.0
 10
-20.8307
 20
-7.9194
 30
0.0
 10
-20.8307
 20
-7.9194
 30
0.0
 10
-23.4677
 20
-7.9184
 30
0.0
 10
-23.4677
 20
-7.9184
 30
0.0
 10
-23.4677
 20
-7.9184
 30
0.0
 10
-23.4677
 20
-7.9184
 30
0.0
 10
-23.801
 20
-7.9182
 30
0.0
 10
-23.801
 20
-7.9182
 30
0.0
  0
SPLINE
  5
4B
330
1F
100
AcDbEntity
  8
VRSTVA_1
100
AcDbSpline
210
0.0
220
0.0
230
1.0
 70
     8
 71
     3
 72
    12
 73
     8
 74
     0
 42
0.0000000001
 43
0.0000000001
 40
0.0
 40
0.0
 40
0.0
 40
0.0
 40
0.3333333333333333
 40
0.3333333333333333
 40
0.3333333333333333
 40
0.3333333333333333
 40
1.0
 40
1.0
 40
1.0
 40
1.0
 10
-23.801
 20
-7.9182
 30
0.0
 10
-23.8142
 20
-7.9181
 30
0.0
 10
-23.8304
 20
-7.9082
 30
0.0
 10
-23.8401
 20
-7.9
 30
0.0
 10
-23.8401
 20
-7.9
 30
0.0
 10
-23.8589
 20
-7.8843
 30
0.0
 10
-23.8697
 20
-7.8607
 30
0.0
 10
-23.8699
 20
-7.8363
 30
0.0
  0
SPLINE
  5
4C
330
1F
100
AcDbEntity
  8
VRSTVA_1
100
AcDbSpline
210
0.0
220
0.0
230
1.0
 70
     8
 71
     3
 72
    20
 73
    16
 74
     0
 42
0.0000000001
 43
0.0000000001
 40
0.0
 40
0.0
 40
0.0
 40
0.0
 40
0.2
 40
0.2
 40
0.2
 40
0.2
 40
0.4
 40
0.4
 40
0.4
 40
0.4
 40
0.6
 40
0.6
 40
0.6
 40
0.6
 40
1.0
 40
1.0
 40
1.0
 40
1.0
 10
-23.8699
 20
-7.8363
 30
0.0
 10
-23.8699
 20
-7.8363
 30
0.0
 10
-23.8699
 20
-7.503
 30
0.0
 10
-23.8699
 20
-7.503
 30
0.0
 10
-23.8699
 20
-7.503
 30
0.0
 10
-23.8699
 20
-7.503
 30
0.0
 10
-23.8699
 20
-2.471
 30
0.0
 10
-23.8699
 20
-2.471
 30
0.0
 10
-23.8699
 20
-2.471
 30
0.0
 10
-23.8699
 20
-2.471
 30
0.0
 10
-23.8699
 20
-2.1379
 30
0.0
 10
-23.8699
 20
-2.1379
 30
0.0
 10
-23.8699
 20
-2.1379
 30
0.0
 10
-23.8699
 20
-2.1379
 30
0.0
 10
-23.8686
 20
-2.1234
 30
0.0
 10
-23.8686
 20
-2.1234
 30
0.0
  0
SPLINE
  5
4D
330
1F
100
AcDbEntity
  8
VRSTVA_1
100
AcDbSpline
210
0.0
220
0.0
230
1.0
 70
     8
 71
     3
 72
     8
 73
     4
 74
     0
 42
0.0000000001
 43
0.0000000001
 40
0.0
 40
0.0
 40
0.0
 40
0.0
 40
1.0
 40
1.0
 40
1.0
 40
1.0
 10
-23.8686
 20
-2.1234
 30
0.0
 10
-23.8616
 20
-2.0839
 30
0.0
 10
-23.8265
 20
-2.0547
 30
0.0
 10
-23.7866
 20
-2.0545
 30
0.0
  0
SPLINE
  5
4E
330
1F
100
AcDbEntity
  8
VRSTVA_1
100
AcDbSpline
210
0.0
220
0.0
230
1.0
 70
     8
 71
     3
 72
    20
 73
    16
 74
     0
 42
0.0000000001
 43
0.0000000001
 40
0.0
 40
0.0
 40
0.0
 40
0.0
 40
0.2
 40
0.2
 40
0.2
 40
0.2
 40
0.4
 40
0.4
 40
0.4
 40
0.4
 40
0.6
 40
0.6
 40
0.6
 40
0.6
 40
1.0
 40
1.0
 40
1.0
 40
1.0
 10
-23.7866
 20
-2.0545
 30
0.0
 10
-23.7866
 20
-2.0545
 30
0.0
 10
-19.9899
 20
-2.0545
 30
0.0
 10
-19.9899
 20
-2.0545
 30
0.0
 10
-19.9899
 20
-2.0545
 30
0.0
 10
-19.9899
 20
-2.0545
 30
0.0
 10
9.8908
 20
-2.0545
 30
0.0
 10
9.8908
 20
-2.0545
 30
0.0
 10
9.8908
 20
-2.0545
 30
0.0
 10
9.8908
 20
-2.0545
 30
0.0
 10
13.6874
 20
-2.0545
 30
0.0
 10
13.6874
 20
-2.0545
 30
0.0
 10
13.6874
 20
-2.0545
 30
0.0
 10
13.6874
 20
-2.0545
 30
0.0
 10
13.883
 20
-2.0556
 30
0.0
 10
13.883
 20
-2.0556
 30
0.0
  0
SPLINE
  5
4F
330
1F
100
AcDbEntity
  8
VRSTVA_1
100
AcDbSpline
210
0.0
220
0.0
230
1.0
 70
     8
 71
     3
 72
    28
 73
    24
 74
     0
 42
0.0000000001
 43
0.0000000001
 40
0.0
 40
0.0
 40
0.0
 40
0.0
 40
0.1428571428571428
 40
0.1428571428571428
 40
0.1428571428571428
 40
0.1428571428571428
 40
0.2857142857142857
 40
0.2857142857142857
 40
0.2857142857142857
 40
0.2857142857142857
 40
0.4285714285714285
 40
0.4285714285714285
 40
0.4285714285714285
 40
0.4285714285714285
 40
0.5714285714285714
 40
0.5714285714285714
 40
0.5714285714285714
 40
0.5714285714285714
 40
0.7142857142857143
 40
0.7142857142857143
 40
0.7142857142857143
 40
0.7142857142857143
 40
1.0
 40
1.0
 40
1.0
 40
1.0
 10
0.4041
 20
-7.9069
 30
0.0
 10
0.4041
 20
-7.9069
 30
0.0
 10
0.4044
 20
-7.4085
 30
0.0
 10
0.4044
 20
-7.4085
 30
0.0
 10
0.4044
 20
-7.4085
 30
0.0
 10
0.4044
 20
-7.4085
 30
0.0
 10
0.4053
 20
-7.3675
 30
0.0
 10
0.4053
 20
-7.3675
 30
0.0
 10
0.4053
 20
-7.3675
 30
0.0
 10
0.4053
 20
-7.3675
 30
0.0
 10
0.4123
 20
-7.3547
 30
0.0
 10
0.4123
 20
-7.3547
 30
0.0
 10
0.4123
 20
-7.3547
 30
0.0
 10
0.4123
 20
-7.3547
 30
0.0
 10
0.4123
 20
-6.8317
 30
0.0
 10
0.4123
 20
-6.8317
 30
0.0
 10
0.4123
 20
-6.8317
 30
0.0
 10
0.4123
 20
-6.8317
 30
0.0
 10
0.4123
 20
-2.6106
 30
0.0
 10
0.4123
 20
-2.6106
 30
0.0
 10
0.4123
 20
-2.6106
 30
0.0
 10
0.4123
 20
-2.6106
 30
0.0
 10
0.4123
 20
-2.0876
 30
0.0
 10
0.4123
 20
-2.0876
 30
0.0
  0
SPLINE
  5
50
330
1F
100
AcDbEntity
  8
VRSTVA_1
100
AcDbSpline
210
0.0
220
0.0
230
1.0
 70
     8
 71
     3
 72
    28
 73
    24
 74
     0
 42
0.0000000001
 43
0.0000000001
 40
0.0
 40
0.0
 40
0.0
 40
0.0
 40
0.1428571428571428
 40
0.1428571428571428
 40
0.1428571428571428
 40
0.1428571428571428
 40
0.2857142857142857
 40
0.2857142857142857
 40
0.2857142857142857
 40
0.2857142857142857
 40
0.4285714285714285
 40
0.4285714285714285
 40
0.4285714285714285
 40
0.4285714285714285
 40
0.5714285714285714
 40
0.5714285714285714
 40
0.5714285714285714
 40
0.5714285714285714
 40
0.7142857142857143
 40
0.7142857142857143
 40
0.7142857142857143
 40
0.7142857142857143
 40
1.0
 40
1.0
 40
1.0
 40
1.0
 10
0.585
 20
-7.8922
 30
0.0
 10
0.585
 20
-7.8922
 30
0.0
 10
0.5853
 20
-7.3938
 30
0.0
 10
0.5853
 20
-7.3938
 30
0.0
 10
0.5853
 20
-7.3938
 30
0.0
 10
0.5853
 20
-7.3938
 30
0.0
 10
0.5862
 20
-7.3528
 30
0.0
 10
0.5862
 20
-7.3528
 30
0.0
 10
0.5862
 20
-7.3528
 30
0.0
 10
0.5862
 20
-7.3528
 30
0.0
 10
0.5932
 20
-7.34
 30
0.0
 10
0.5932
 20
-7.34
 30
0.0
 10
0.5932
 20
-7.34
 30
0.0
 10
0.5932
 20
-7.34
 30
0.0
 10
0.5932
 20
-6.817
 30
0.0
 10
0.5932
 20
-6.817
 30
0.0
 10
0.5932
 20
-6.817
 30
0.0
 10
0.5932
 20
-6.817
 30
0.0
 10
0.5932
 20
-2.5959
 30
0.0
 10
0.5932
 20
-2.5959
 30
0.0
 10
0.5932
 20
-2.5959
 30
0.0
 10
0.5932
 20
-2.5959
 30
0.0
 10
0.5932
 20
-2.0729
 30
0.0
 10
0.5932
 20
-2.0729
 30
0.0
  0
SPLINE
  5
51
330
1F
100
AcDbEntity
  8
VRSTVA_1
100
AcDbSpline
210
0.0
220
0.0
230
1.0
 70
     8
 71
     3
 72
    16
 73
    12
 74
     0
 42
0.0000000001
 43
0.0000000001
 40
0.0
 40
0.0
 40
0.0
 40
0.0
 40
0.25
 40
0.25
 40
0.25
 40
0.25
 40
0.5
 40
0.5
 40
0.5
 40
0.5
 40
1.0
 40
1.0
 40
1.0
 40
1.0
 10
-20.4749
 20
-7.9196
 30
0.0
 10
-20.4749
 20
-7.9196
 30
0.0
 10
-16.6847
 20
-7.9192
 30
0.0
 10
-16.6847
 20
-7.9192
 30
0.0
 10
-16.6847
 20
-7.9192
 30
0.0
 10
-16.6847
 20
-7.9192
 30
0.0
 10
13.3053
 20
-7.9163
 30
0.0
 10
13.3053
 20
-7.9163
 30
0.0
 10
13.3053
 20
-7.9163
 30
0.0
 10
13.3053
 20
-7.9163
 30
0.0
 10
17.0955
 20
-7.9159
 30
0.0
 10
17.0955
 20
-7.9159
 30
0.0
  0
SPLINE
  5
52
330
1F
100
AcDbEntity
  8
VRSTVA_1
100
AcDbSpline
210
0.0
220
0.0
230
1.0
 70
     8
 71
     3
 72
    12
 73
     8
 74
     0
 42
0.0000000001
 43
0.0000000001
 40
0.0
 40
0.0
 40
0.0
 40
0.0
 40
0.3333333333333333
 40
0.3333333333333333
 40
0.3333333333333333
 40
0.3333333333333333
 40
1.0
 40
1.0
 40
1.0
 40
1.0
 10
17.0955
 20
-7.9159
 30
0.0
 10
17.1251
 20
-7.9157
 30
0.0
 10
17.1529
 20
-7.8999
 30
0.0
 10
17.1677
 20
-7.8742
 30
0.0
 10
17.1677
 20
-7.8742
 30
0.0
 10
17.175
 20
-7.8615
 30
0.0
 10
17.1788
 20
-7.8471
 30
0.0
 10
17.1788
 20
-7.8326
 30
0.0
  0
SPLINE
  5
53
330
1F
100
AcDbEntity
  8
VRSTVA_1
100
AcDbSpline
210
0.0
220
0.0
230
1.0
 70
    24
 71
     3
 72
    16
 73
    12
 74
     0
 42
0.0000000001
 43
0.0000000001
 40
0.0
 40
0.0
 40
0.0
 40
0.0
 40
0.25
 40
0.25
 40
0.25
 40
0.25
 40
0.5
 40
0.5
 40
0.5
 40
0.5
 40
1.0
 40
1.0
 40
1.0
 40
1.0
 10
17.1788
 20
-7.8326
 30
0.0
 10
17.1788
 20
-7.8326
 30
0.0
 10
17.1788
 20
-7.4994
 30
0.0
 10
17.1788
 20
-7.4994
 30
0.0
 10
17.1788
 20
-7.4994
 30
0.0
 10
17.1788
 20
-7.4994
 30
0.0
 10
17.1788
 20
-2.4747
 30
0.0
 10
17.1788
 20
-2.4747
 30
0.0
 10
17.1788
 20
-2.4747
 30
0.0
 10
17.1788
 20
-2.4747
 30
0.0
 10
17.1788
 20
-2.1415
 30
0.0
 10
17.1788
 20
-2.1415
 30
0.0
  0
SPLINE
  5
54
330
1F
100
AcDbEntity
  8
VRSTVA_1
100
AcDbSpline
210
0.0
220
0.0
230
1.0
 70
     8
 71
     3
 72
     8
 73
     4
 74
     0
 42
0.0000000001
 43
0.0000000001
 40
0.0
 40
0.0
 40
0.0
 40
0.0
 40
1.0
 40
1.0
 40
1.0
 40
1.0
 10
17.1788
 20
-2.1415
 30
0.0
 10
17.1788
 20
-2.112
 30
0.0
 10
17.1627
 20
-2.0841
 30
0.0
 10
17.1372
 20
-2.0694
 30
0.0
  0
SPLINE
  5
55
330
1F
100
AcDbEntity
  8
VRSTVA_1
100
AcDbSpline
210
0.0
220
0.0
230
1.0
 70
     8
 71
     3
 72
    20
 73
    16
 74
     0
 42
0.0000000001
 43
0.0000000001
 40
0.0
 40
0.0
 40
0.0
 40
0.0
 40
0.2
 40
0.2
 40
0.2
 40
0.2
 40
0.4
 40
0.4
 40
0.4
 40
0.4
 40
0.6
 40
0.6
 40
0.6
 40
0.6
 40
1.0
 40
1.0
 40
1.0
 40
1.0
 10
17.1372
 20
-2.0694
 30
0.0
 10
17.1372
 20
-2.0694
 30
0.0
 10
17.11
 20
-2.0594
 30
0.0
 10
17.11
 20
-2.0594
 30
0.0
 10
17.11
 20
-2.0594
 30
0.0
 10
17.11
 20
-2.0594
 30
0.0
 10
16.7767
 20
-2.059
 30
0.0
 10
16.7767
 20
-2.059
 30
0.0
 10
16.7767
 20
-2.059
 30
0.0
 10
16.7767
 20
-2.059
 30
0.0
 10
14.1255
 20
-2.0549
 30
0.0
 10
14.1255
 20
-2.0549
 30
0.0
 10
14.1255
 20
-2.0549
 30
0.0
 10
14.1255
 20
-2.0549
 30
0.0
 10
13.7923
 20
-2.0544
 30
0.0
 10
13.7923
 20
-2.0544
 30
0.0
  0
SPLINE
  5
56
330
1F
100
AcDbEntity
  8
VRSTVA_1
100
AcDbSpline
210
0.0
220
0.0
230
1.0
 70
    24
 71
     3
 72
     8
 73
     4
 74
     0
 42
0.0000000001
 43
0.0000000001
 40
0.0
 40
0.0
 40
0.0
 40
0.0
 40
1.0
 40
1.0
 40
1.0
 40
1.0
 10
25.8721
 20
-14.1453
 30
0.0
 10
25.8721
 20
-14.1453
 30
0.0
 10
25.8721
 20
13.2929
 30
0.0
 10
25.8721
 20
13.2929
 30
0.0
  0
SPLINE
  5
57
330
1F
100
AcDbEntity
  8
VRSTVA_1
100
AcDbSpline
210
0.0
220
0.0
230
1.0
 70
    24
 71
     3
 72
     8
 73
     4
 74
     0
 42
0.0000000001
 43
0.0000000001
 40
0.0
 40
0.0
 40
0.0
 40
0.0
 40
1.0
 40
1.0
 40
1.0
 40
1.0
 10
25.8721
 20
-14.2001
 30
0.0
 10
25.8721
 20
-14.2001
 30
0.0
 10
25.8721
 20
13.2513
 30
0.0
 10
25.8721
 20
13.2513
 30
0.0
  0
SPLINE
  5
58
330
1F
100
AcDbEntity
  8
VRSTVA_1
100
AcDbSpline
210
0.0
220
0.0
230
1.0
 70
    24
 71
     3
 72
     8
 73
     4
 74
     0
 42
0.0000000001
 43
0.0000000001
 40
0.0
 40
0.0
 40
0.0
 40
0.0
 40
1.0
 40
1.0
 40
1.0
 40
1.0
 10
25.8721
 20
13.2097
 30
0.0
 10
25.8721
 20
13.2097
 30
0.0
 10
25.8721
 20
-14.1168
 30
0.0
 10
25.8721
 20
-14.1168
 30
0.0
  0
SPLINE
  5
59
330
1F
100
AcDbEntity
  8
VRSTVA_1
100
AcDbSpline
210
0.0
220
0.0
230
1.0
 70
    24
 71
     3
 72
     8
 73
     4
 74
     0
 42
0.0000000001
 43
0.0000000001
 40
0.0
 40
0.0
 40
0.0
 40
0.0
 40
1.0
 40
1.0
 40
1.0
 40
1.0
 10
25.8721
 20
13.2383
 30
0.0
 10
25.8721
 20
13.2383
 30
0.0
 10
25.8721
 20
-14.1584
 30
0.0
 10
25.8721
 20
-14.1584
 30
0.0
  0
SPLINE
  5
5A
330
1F
100
AcDbEntity
  8
VRSTVA_1
100
AcDbSpline
210
0.0
220
0.0
230
1.0
 70
    24
 71
     3
 72
     8
 73
     4
 74
     0
 42
0.0000000001
 43
0.0000000001
 40
0.0
 40
0.0
 40
0.0
 40
0.0
 40
1.0
 40
1.0
 40
1.0
 40
1.0
 10
27.839
 20
-8.0933
 30
0.0
 10
27.839
 20
-8.0933
 30
0.0
 10
27.839
 20
-8.1247
 30
0.0
 10
27.839
 20
-8.1247
 30
0.0
  0
SPLINE
  5
5B
330
1F
100
AcDbEntity
  8
VRSTVA_1
100
AcDbSpline
210
0.0
220
0.0
230
1.0
 70
    24
 71
     3
 72
     8
 73
     4
 74
     0
 42
0.0000000001
 43
0.0000000001
 40
0.0
 40
0.0
 40
0.0
 40
0.0
 40
1.0
 40
1.0
 40
1.0
 40
1.0
 10
27.839
 20
-7.9563
 30
0.0
 10
27.839
 20
-7.9563
 30
0.0
 10
27.839
 20
-8.1247
 30
0.0
 10
27.839
 20
-8.1247
 30
0.0
  0
SPLINE
  5
5C
330
1F
100
AcDbEntity
  8
VRSTVA_1
100
AcDbSpline
210
0.0
220
0.0
230
1.0
 70
    24
 71
     3
 72
     8
 73
     4
 74
     0
 42
0.0000000001
 43
0.0000000001
 40
0.0
 40
0.0
 40
0.0
 40
0.0
 40
1.0
 40
1.0
 40
1.0
 40
1.0
 10
27.1525
 20
-8.0318
 30
0.0
 10
27.1525
 20
-8.0318
 30
0.0
 10
27.1505
 20
-8.0318
 30
0.0
 10
27.1505
 20
-8.0318
 30
0.0
  0
SPLINE
  5
5D
330
1F
100
AcDbEntity
  8
VRSTVA_1
100
AcDbSpline
210
0.0
220
0.0
230
1.0
 70
    24
 71
     3
 72
     8
 73
     4
 74
     0
 42
0.0000000001
 43
0.0000000001
 40
0.0
 40
0.0
 40
0.0
 40
0.0
 40
1.0
 40
1.0
 40
1.0
 40
1.0
 10
27.839
 20
-1.9467
 30
0.0
 10
27.839
 20
-1.9467
 30
0.0
 10
27.839
 20
-2.115
 30
0.0
 10
27.839
 20
-2.115
 30
0.0
  0
SPLINE
  5
5E
330
1F
100
AcDbEntity
  8
VRSTVA_1
100
AcDbSpline
210
0.0
220
0.0
230
1.0
 70
     8
 71
     3
 72
    20
 73
    16
 74
     0
 42
0.0000000001
 43
0.0000000001
 40
0.0
 40
0.0
 40
0.0
 40
0.0
 40
0.2
 40
0.2
 40
0.2
 40
0.2
 40
0.4
 40
0.4
 40
0.4
 40
0.4
 40
0.6
 40
0.6
 40
0.6
 40
0.6
 40
1.0
 40
1.0
 40
1.0
 40
1.0
 10
25.8721
 20
-14.2001
 30
0.0
 10
25.8721
 20
-14.2001
 30
0.0
 10
26.2052
 20
-14.1884
 30
0.0
 10
26.2052
 20
-14.1884
 30
0.0
 10
26.2052
 20
-14.1884
 30
0.0
 10
26.2052
 20
-14.1884
 30
0.0
 10
27.8112
 20
-14.1323
 30
0.0
 10
27.8112
 20
-14.1323
 30
0.0
 10
27.8112
 20
-14.1323
 30
0.0
 10
27.8112
 20
-14.1323
 30
0.0
 10
28.1442
 20
-14.1207
 30
0.0
 10
28.1442
 20
-14.1207
 30
0.0
 10
28.1442
 20
-14.1207
 30
0.0
 10
28.1442
 20
-14.1207
 30
0.0
 10
28.1578
 20
-14.1191
 30
0.0
 10
28.1578
 20
-14.1191
 30
0.0
  0
SPLINE
  5
5F
330
1F
100
AcDbEntity
  8
VRSTVA_1
100
AcDbSpline
210
0.0
220
0.0
230
1.0
 70
     8
 71
     3
 72
     8
 73
     4
 74
     0
 42
0.0000000001
 43
0.0000000001
 40
0.0
 40
0.0
 40
0.0
 40
0.0
 40
1.0
 40
1.0
 40
1.0
 40
1.0
 10
28.1578
 20
-14.1191
 30
0.0
 10
28.1942
 20
-14.1112
 30
0.0
 10
28.223
 20
-14.0794
 30
0.0
 10
28.2244
 20
-14.0417
 30
0.0
  0
SPLINE
  5
60
330
1F
100
AcDbEntity
  8
VRSTVA_1
100
AcDbSpline
210
0.0
220
0.0
230
1.0
 70
     8
 71
     3
 72
    16
 73
    12
 74
     0
 42
0.0000000001
 43
0.0000000001
 40
0.0
 40
0.0
 40
0.0
 40
0.0
 40
0.25
 40
0.25
 40
0.25
 40
0.25
 40
0.5
 40
0.5
 40
0.5
 40
0.5
 40
1.0
 40
1.0
 40
1.0
 40
1.0
 10
28.2244
 20
-14.0417
 30
0.0
 10
28.2244
 20
-14.0417
 30
0.0
 10
28.2358
 20
-13.7085
 30
0.0
 10
28.2358
 20
-13.7085
 30
0.0
 10
28.2358
 20
-13.7085
 30
0.0
 10
28.2358
 20
-13.7085
 30
0.0
 10
28.4128
 20
-8.5513
 30
0.0
 10
28.4128
 20
-8.5513
 30
0.0
 10
28.4128
 20
-8.5513
 30
0.0
 10
28.4128
 20
-8.5513
 30
0.0
 10
28.424
 20
-8.2109
 30
0.0
 10
28.424
 20
-8.2109
 30
0.0
  0
SPLINE
  5
61
330
1F
100
AcDbEntity
  8
VRSTVA_1
100
AcDbSpline
210
0.0
220
0.0
230
1.0
 70
     8
 71
     3
 72
     8
 73
     4
 74
     0
 42
0.0000000001
 43
0.0000000001
 40
0.0
 40
0.0
 40
0.0
 40
0.0
 40
1.0
 40
1.0
 40
1.0
 40
1.0
 10
28.424
 20
-8.2109
 30
0.0
 10
28.4214
 20
-8.1722
 30
0.0
 10
28.3932
 20
-8.1444
 30
0.0
 10
28.3568
 20
-8.135
 30
0.0
  0
SPLINE
  5
62
330
1F
100
AcDbEntity
  8
VRSTVA_1
100
AcDbSpline
210
0.0
220
0.0
230
1.0
 70
     8
 71
     3
 72
    24
 73
    20
 74
     0
 42
0.0000000001
 43
0.0000000001
 40
0.0
 40
0.0
 40
0.0
 40
0.0
 40
0.1666666666666667
 40
0.1666666666666667
 40
0.1666666666666667
 40
0.1666666666666667
 40
0.3333333333333333
 40
0.3333333333333333
 40
0.3333333333333333
 40
0.3333333333333333
 40
0.5
 40
0.5
 40
0.5
 40
0.5
 40
0.6666666666666666
 40
0.6666666666666666
 40
0.6666666666666666
 40
0.6666666666666666
 40
1.0
 40
1.0
 40
1.0
 40
1.0
 10
28.3568
 20
-8.135
 30
0.0
 10
28.3568
 20
-8.135
 30
0.0
 10
28.3424
 20
-8.1335
 30
0.0
 10
28.3424
 20
-8.1335
 30
0.0
 10
28.3424
 20
-8.1335
 30
0.0
 10
28.3424
 20
-8.1335
 30
0.0
 10
28.0091
 20
-8.1276
 30
0.0
 10
28.0091
 20
-8.1276
 30
0.0
 10
28.0091
 20
-8.1276
 30
0.0
 10
28.0091
 20
-8.1276
 30
0.0
 10
27.6202
 20
-8.1209
 30
0.0
 10
27.6202
 20
-8.1209
 30
0.0
 10
27.6202
 20
-8.1209
 30
0.0
 10
27.6202
 20
-8.1209
 30
0.0
 10
27.287
 20
-8.115
 30
0.0
 10
27.287
 20
-8.115
 30
0.0
 10
27.287
 20
-8.115
 30
0.0
 10
27.287
 20
-8.115
 30
0.0
 10
27.2727
 20
-8.1135
 30
0.0
 10
27.2727
 20
-8.1135
 30
0.0
  0
SPLINE
  5
63
330
1F
100
AcDbEntity
  8
VRSTVA_1
100
AcDbSpline
210
0.0
220
0.0
230
1.0
 70
     8
 71
     3
 72
     8
 73
     4
 74
     0
 42
0.0000000001
 43
0.0000000001
 40
0.0
 40
0.0
 40
0.0
 40
0.0
 40
1.0
 40
1.0
 40
1.0
 40
1.0
 10
27.2727
 20
-8.1135
 30
0.0
 10
27.2391
 20
-8.107
 30
0.0
 10
27.2122
 20
-8.0797
 30
0.0
 10
27.2064
 20
-8.046
 30
0.0
  0
SPLINE
  5
64
330
1F
100
AcDbEntity
  8
VRSTVA_1
100
AcDbSpline
210
0.0
220
0.0
230
1.0
 70
     8
 71
     3
 72
    24
 73
    20
 74
     0
 42
0.0000000001
 43
0.0000000001
 40
0.0
 40
0.0
 40
0.0
 40
0.0
 40
0.1666666666666667
 40
0.1666666666666667
 40
0.1666666666666667
 40
0.1666666666666667
 40
0.3333333333333333
 40
0.3333333333333333
 40
0.3333333333333333
 40
0.3333333333333333
 40
0.5
 40
0.5
 40
0.5
 40
0.5
 40
0.6666666666666666
 40
0.6666666666666666
 40
0.6666666666666666
 40
0.6666666666666666
 40
1.0
 40
1.0
 40
1.0
 40
1.0
 10
27.2064
 20
-8.046
 30
0.0
 10
27.2064
 20
-8.046
 30
0.0
 10
27.2052
 20
-8.0318
 30
0.0
 10
27.2052
 20
-8.0318
 30
0.0
 10
27.2052
 20
-8.0318
 30
0.0
 10
27.2052
 20
-8.0318
 30
0.0
 10
27.2052
 20
-7.6984
 30
0.0
 10
27.2052
 20
-7.6984
 30
0.0
 10
27.2052
 20
-7.6984
 30
0.0
 10
27.2052
 20
-7.6984
 30
0.0
 10
27.2052
 20
-2.3729
 30
0.0
 10
27.2052
 20
-2.3729
 30
0.0
 10
27.2052
 20
-2.3729
 30
0.0
 10
27.2052
 20
-2.3729
 30
0.0
 10
27.2052
 20
-2.0396
 30
0.0
 10
27.2052
 20
-2.0396
 30
0.0
 10
27.2052
 20
-2.0396
 30
0.0
 10
27.2052
 20
-2.0396
 30
0.0
 10
27.2064
 20
-2.0253
 30
0.0
 10
27.2064
 20
-2.0253
 30
0.0
  0
SPLINE
  5
65
330
1F
100
AcDbEntity
  8
VRSTVA_1
100
AcDbSpline
210
0.0
220
0.0
230
1.0
 70
     8
 71
     3
 72
     8
 73
     4
 74
     0
 42
0.0000000001
 43
0.0000000001
 40
0.0
 40
0.0
 40
0.0
 40
0.0
 40
1.0
 40
1.0
 40
1.0
 40
1.0
 10
27.2064
 20
-2.0253
 30
0.0
 10
27.2132
 20
-1.9864
 30
0.0
 10
27.2474
 20
-1.9572
 30
0.0
 10
27.287
 20
-1.9563
 30
0.0
  0
SPLINE
  5
66
330
1F
100
AcDbEntity
  8
VRSTVA_1
100
AcDbSpline
210
0.0
220
0.0
230
1.0
 70
     8
 71
     3
 72
    20
 73
    16
 74
     0
 42
0.0000000001
 43
0.0000000001
 40
0.0
 40
0.0
 40
0.0
 40
0.0
 40
0.2
 40
0.2
 40
0.2
 40
0.2
 40
0.4
 40
0.4
 40
0.4
 40
0.4
 40
0.6
 40
0.6
 40
0.6
 40
0.6
 40
1.0
 40
1.0
 40
1.0
 40
1.0
 10
27.287
 20
-1.9563
 30
0.0
 10
27.287
 20
-1.9563
 30
0.0
 10
27.6202
 20
-1.9506
 30
0.0
 10
27.6202
 20
-1.9506
 30
0.0
 10
27.6202
 20
-1.9506
 30
0.0
 10
27.6202
 20
-1.9506
 30
0.0
 10
28.0134
 20
-1.9437
 30
0.0
 10
28.0134
 20
-1.9437
 30
0.0
 10
28.0134
 20
-1.9437
 30
0.0
 10
28.0134
 20
-1.9437
 30
0.0
 10
28.3466
 20
-1.9378
 30
0.0
 10
28.3466
 20
-1.9378
 30
0.0
 10
28.3466
 20
-1.9378
 30
0.0
 10
28.3466
 20
-1.9378
 30
0.0
 10
28.357
 20
-1.9371
 30
0.0
 10
28.357
 20
-1.9371
 30
0.0
  0
SPLINE
  5
67
330
1F
100
AcDbEntity
  8
VRSTVA_1
100
AcDbSpline
210
0.0
220
0.0
230
1.0
 70
     8
 71
     3
 72
    12
 73
     8
 74
     0
 42
0.0000000001
 43
0.0000000001
 40
0.0
 40
0.0
 40
0.0
 40
0.0
 40
0.3333333333333333
 40
0.3333333333333333
 40
0.3333333333333333
 40
0.3333333333333333
 40
1.0
 40
1.0
 40
1.0
 40
1.0
 10
28.357
 20
-1.9371
 30
0.0
 10
28.3875
 20
-1.9338
 30
0.0
 10
28.4141
 20
-1.9101
 30
0.0
 10
28.4239
 20
-1.8816
 30
0.0
 10
28.4239
 20
-1.8816
 30
0.0
 10
28.4271
 20
-1.8726
 30
0.0
 10
28.4288
 20
-1.8628
 30
0.0
 10
28.4285
 20
-1.8531
 30
0.0
  0
SPLINE
  5
68
330
1F
100
AcDbEntity
  8
VRSTVA_1
100
AcDbSpline
210
0.0
220
0.0
230
1.0
 70
     8
 71
     3
 72
    32
 73
    28
 74
     0
 42
0.0000000001
 43
0.0000000001
 40
0.0
 40
0.0
 40
0.0
 40
0.0
 40
0.125
 40
0.125
 40
0.125
 40
0.125
 40
0.25
 40
0.25
 40
0.25
 40
0.25
 40
0.375
 40
0.375
 40
0.375
 40
0.375
 40
0.5
 40
0.5
 40
0.5
 40
0.5
 40
0.625
 40
0.625
 40
0.625
 40
0.625
 40
0.75
 40
0.75
 40
0.75
 40
0.75
 40
1.0
 40
1.0
 40
1.0
 40
1.0
 10
28.4285
 20
-1.8531
 30
0.0
 10
28.4285
 20
-1.8531
 30
0.0
 10
28.417
 20
-1.52
 30
0.0
 10
28.417
 20
-1.52
 30
0.0
 10
28.417
 20
-1.52
 30
0.0
 10
28.417
 20
-1.52
 30
0.0
 10
28.2228
 20
4.1203
 30
0.0
 10
28.2228
 20
4.1203
 30
0.0
 10
28.2228
 20
4.1203
 30
0.0
 10
28.2228
 20
4.1203
 30
0.0
 10
28.1886
 20
4.7858
 30
0.0
 10
28.1886
 20
4.7858
 30
0.0
 10
28.1886
 20
4.7858
 30
0.0
 10
28.1886
 20
4.7858
 30
0.0
 10
27.8176
 20
10.1921
 30
0.0
 10
27.8176
 20
10.1921
 30
0.0
 10
27.8176
 20
10.1921
 30
0.0
 10
27.8176
 20
10.1921
 30
0.0
 10
27.7641
 20
10.8564
 30
0.0
 10
27.7641
 20
10.8564
 30
0.0
 10
27.7641
 20
10.8564
 30
0.0
 10
27.7641
 20
10.8564
 30
0.0
 10
27.5814
 20
12.8304
 30
0.0
 10
27.5814
 20
12.8304
 30
0.0
 10
27.5814
 20
12.8304
 30
0.0
 10
27.5814
 20
12.8304
 30
0.0
 10
27.5507
 20
13.1621
 30
0.0
 10
27.5507
 20
13.1621
 30
0.0
  0
SPLINE
  5
69
330
1F
100
AcDbEntity
  8
VRSTVA_1
100
AcDbSpline
210
0.0
220
0.0
230
1.0
 70
     8
 71
     3
 72
     8
 73
     4
 74
     0
 42
0.0000000001
 43
0.0000000001
 40
0.0
 40
0.0
 40
0.0
 40
0.0
 40
1.0
 40
1.0
 40
1.0
 40
1.0
 10
27.5507
 20
13.1621
 30
0.0
 10
27.5469
 20
13.1998
 30
0.0
 10
27.5174
 20
13.2306
 30
0.0
 10
27.4802
 20
13.2363
 30
0.0
  0
SPLINE
  5
6A
330
1F
100
AcDbEntity
  8
VRSTVA_1
100
AcDbSpline
210
0.0
220
0.0
230
1.0
 70
     8
 71
     3
 72
    20
 73
    16
 74
     0
 42
0.0000000001
 43
0.0000000001
 40
0.0
 40
0.0
 40
0.0
 40
0.0
 40
0.2
 40
0.2
 40
0.2
 40
0.2
 40
0.4
 40
0.4
 40
0.4
 40
0.4
 40
0.6
 40
0.6
 40
0.6
 40
0.6
 40
1.0
 40
1.0
 40
1.0
 40
1.0
 10
27.4802
 20
13.2363
 30
0.0
 10
27.4802
 20
13.2363
 30
0.0
 10
27.4706
 20
13.2372
 30
0.0
 10
27.4706
 20
13.2372
 30
0.0
 10
27.4706
 20
13.2372
 30
0.0
 10
27.4706
 20
13.2372
 30
0.0
 10
27.1376
 20
13.2488
 30
0.0
 10
27.1376
 20
13.2488
 30
0.0
 10
27.1376
 20
13.2488
 30
0.0
 10
27.1376
 20
13.2488
 30
0.0
 10
26.2052
 20
13.2814
 30
0.0
 10
26.2052
 20
13.2814
 30
0.0
 10
26.2052
 20
13.2814
 30
0.0
 10
26.2052
 20
13.2814
 30
0.0
 10
25.8721
 20
13.2929
 30
0.0
 10
25.8721
 20
13.2929
 30
0.0
  0
SPLINE
  5
6B
330
1F
100
AcDbEntity
  8
VRSTVA_1
100
AcDbSpline
210
0.0
220
0.0
230
1.0
 70
     8
 71
     3
 72
     8
 73
     4
 74
     0
 42
0.0000000001
 43
0.0000000001
 40
0.0
 40
0.0
 40
0.0
 40
0.0
 40
1.0
 40
1.0
 40
1.0
 40
1.0
 10
27.3718
 20
-7.4582
 30
0.0
 10
27.2996
 20
-7.4594
 30
0.0
 10
27.2132
 20
-7.4504
 30
0.0
 10
27.2052
 20
-7.5429
 30
0.0
  0
SPLINE
  5
6C
330
1F
100
AcDbEntity
  8
VRSTVA_1
100
AcDbSpline
210
0.0
220
0.0
230
1.0
 70
     8
 71
     3
 72
     8
 73
     4
 74
     0
 42
0.0000000001
 43
0.0000000001
 40
0.0
 40
0.0
 40
0.0
 40
0.0
 40
1.0
 40
1.0
 40
1.0
 40
1.0
 10
27.3718
 20
-2.6132
 30
0.0
 10
27.2996
 20
-2.612
 30
0.0
 10
27.2132
 20
-2.621
 30
0.0
 10
27.2052
 20
-2.5284
 30
0.0
  0
SPLINE
  5
6D
330
1F
100
AcDbEntity
  8
VRSTVA_1
100
AcDbSpline
210
0.0
220
0.0
230
1.0
 70
     8
 71
     3
 72
     8
 73
     4
 74
     0
 42
0.0000000001
 43
0.0000000001
 40
0.0
 40
0.0
 40
0.0
 40
0.0
 40
1.0
 40
1.0
 40
1.0
 40
1.0
 10
27.3718
 20
-4.5241
 30
0.0
 10
27.3533
 20
-4.8663
 30
0.0
 10
27.3531
 20
-5.2049
 30
0.0
 10
27.3718
 20
-5.5471
 30
0.0
  0
SPLINE
  5
6E
330
1F
100
AcDbEntity
  8
VRSTVA_1
100
AcDbSpline
210
0.0
220
0.0
230
1.0
 70
    24
 71
     3
 72
     8
 73
     4
 74
     0
 42
0.0000000001
 43
0.0000000001
 40
0.0
 40
0.0
 40
0.0
 40
0.0
 40
1.0
 40
1.0
 40
1.0
 40
1.0
 10
28.3912
 20
-2.1971
 30
0.0
 10
28.3912
 20
-2.1971
 30
0.0
 10
28.3929
 20
-2.1962
 30
0.0
 10
28.3929
 20
-2.1962
 30
0.0
  0
SPLINE
  5
6F
330
1F
100
AcDbEntity
  8
VRSTVA_1
100
AcDbSpline
210
0.0
220
0.0
230
1.0
 70
    24
 71
     3
 72
     8
 73
     4
 74
     0
 42
0.0000000001
 43
0.0000000001
 40
0.0
 40
0.0
 40
0.0
 40
0.0
 40
1.0
 40
1.0
 40
1.0
 40
1.0
 10
27.2089
 20
-7.5556
 30
0.0
 10
27.2089
 20
-7.5556
 30
0.0
 10
27.2052
 20
-7.5575
 30
0.0
 10
27.2052
 20
-7.5575
 30
0.0
  0
SPLINE
  5
70
330
1F
100
AcDbEntity
  8
VRSTVA_1
100
AcDbSpline
210
0.0
220
0.0
230
1.0
 70
    24
 71
     3
 72
     8
 73
     4
 74
     0
 42
0.0000000001
 43
0.0000000001
 40
0.0
 40
0.0
 40
0.0
 40
0.0
 40
1.0
 40
1.0
 40
1.0
 40
1.0
 10
27.2354
 20
-7.5503
 30
0.0
 10
27.2354
 20
-7.5503
 30
0.0
 10
27.2321
 20
-7.5504
 30
0.0
 10
27.2321
 20
-7.5504
 30
0.0
  0
SPLINE
  5
71
330
1F
100
AcDbEntity
  8
VRSTVA_1
100
AcDbSpline
210
0.0
220
0.0
230
1.0
 70
    24
 71
     3
 72
     8
 73
     4
 74
     0
 42
0.0000000001
 43
0.0000000001
 40
0.0
 40
0.0
 40
0.0
 40
0.0
 40
1.0
 40
1.0
 40
1.0
 40
1.0
 10
27.237
 20
-7.5503
 30
0.0
 10
27.237
 20
-7.5503
 30
0.0
 10
27.2262
 20
-7.5505
 30
0.0
 10
27.2262
 20
-7.5505
 30
0.0
  0
SPLINE
  5
72
330
1F
100
AcDbEntity
  8
VRSTVA_1
100
AcDbSpline
210
0.0
220
0.0
230
1.0
 70
    24
 71
     3
 72
     8
 73
     4
 74
     0
 42
0.0000000001
 43
0.0000000001
 40
0.0
 40
0.0
 40
0.0
 40
0.0
 40
1.0
 40
1.0
 40
1.0
 40
1.0
 10
27.237
 20
-7.5503
 30
0.0
 10
27.237
 20
-7.5503
 30
0.0
 10
27.2052
 20
-7.5509
 30
0.0
 10
27.2052
 20
-7.5509
 30
0.0
  0
SPLINE
  5
73
330
1F
100
AcDbEntity
  8
VRSTVA_1
100
AcDbSpline
210
0.0
220
0.0
230
1.0
 70
    24
 71
     3
 72
     8
 73
     4
 74
     0
 42
0.0000000001
 43
0.0000000001
 40
0.0
 40
0.0
 40
0.0
 40
0.0
 40
1.0
 40
1.0
 40
1.0
 40
1.0
 10
27.237
 20
-7.5503
 30
0.0
 10
27.237
 20
-7.5503
 30
0.0
 10
27.2179
 20
-7.5506
 30
0.0
 10
27.2179
 20
-7.5506
 30
0.0
  0
SPLINE
  5
74
330
1F
100
AcDbEntity
  8
VRSTVA_1
100
AcDbSpline
210
0.0
220
0.0
230
1.0
 70
    24
 71
     3
 72
     8
 73
     4
 74
     0
 42
0.0000000001
 43
0.0000000001
 40
0.0
 40
0.0
 40
0.0
 40
0.0
 40
1.0
 40
1.0
 40
1.0
 40
1.0
 10
27.237
 20
-7.5503
 30
0.0
 10
27.237
 20
-7.5503
 30
0.0
 10
27.2228
 20
-7.5506
 30
0.0
 10
27.2228
 20
-7.5506
 30
0.0
  0
SPLINE
  5
75
330
1F
100
AcDbEntity
  8
VRSTVA_1
100
AcDbSpline
210
0.0
220
0.0
230
1.0
 70
    24
 71
     3
 72
     8
 73
     4
 74
     0
 42
0.0000000001
 43
0.0000000001
 40
0.0
 40
0.0
 40
0.0
 40
0.0
 40
1.0
 40
1.0
 40
1.0
 40
1.0
 10
27.237
 20
-7.5503
 30
0.0
 10
27.237
 20
-7.5503
 30
0.0
 10
27.2075
 20
-7.5508
 30
0.0
 10
27.2075
 20
-7.5508
 30
0.0
  0
SPLINE
  5
76
330
1F
100
AcDbEntity
  8
VRSTVA_1
100
AcDbSpline
210
0.0
220
0.0
230
1.0
 70
     8
 71
     3
 72
    16
 73
    12
 74
     0
 42
0.0000000001
 43
0.0000000001
 40
0.0
 40
0.0
 40
0.0
 40
0.0
 40
0.25
 40
0.25
 40
0.25
 40
0.25
 40
0.5
 40
0.5
 40
0.5
 40
0.5
 40
1.0
 40
1.0
 40
1.0
 40
1.0
 10
27.2052
 20
-2.104
 30
0.0
 10
27.2052
 20
-2.104
 30
0.0
 10
27.5384
 20
-2.1098
 30
0.0
 10
27.5384
 20
-2.1098
 30
0.0
 10
27.5384
 20
-2.1098
 30
0.0
 10
27.5384
 20
-2.1098
 30
0.0
 10
28.0329
 20
-2.1185
 30
0.0
 10
28.0329
 20
-2.1185
 30
0.0
 10
28.0329
 20
-2.1185
 30
0.0
 10
28.0329
 20
-2.1185
 30
0.0
 10
28.3661
 20
-2.1242
 30
0.0
 10
28.3661
 20
-2.1242
 30
0.0
  0
SPLINE
  5
77
330
1F
100
AcDbEntity
  8
VRSTVA_1
100
AcDbSpline
210
0.0
220
0.0
230
1.0
 70
     8
 71
     3
 72
    12
 73
     8
 74
     0
 42
0.0000000001
 43
0.0000000001
 40
0.0
 40
0.0
 40
0.0
 40
0.0
 40
0.3333333333333333
 40
0.3333333333333333
 40
0.3333333333333333
 40
0.3333333333333333
 40
1.0
 40
1.0
 40
1.0
 40
1.0
 10
28.3661
 20
-2.1242
 30
0.0
 10
28.3862
 20
-2.1246
 30
0.0
 10
28.4063
 20
-2.1323
 30
0.0
 10
28.4211
 20
-2.1462
 30
0.0
 10
28.4211
 20
-2.1462
 30
0.0
 10
28.4296
 20
-2.1542
 30
0.0
 10
28.4359
 20
-2.1629
 30
0.0
 10
28.4409
 20
-2.1738
 30
0.0
  0
SPLINE
  5
78
330
1F
100
AcDbEntity
  8
VRSTVA_1
100
AcDbSpline
210
0.0
220
0.0
230
1.0
 70
     8
 71
     3
 72
    12
 73
     8
 74
     0
 42
0.0000000001
 43
0.0000000001
 40
0.0
 40
0.0
 40
0.0
 40
0.0
 40
0.3333333333333333
 40
0.3333333333333333
 40
0.3333333333333333
 40
0.3333333333333333
 40
1.0
 40
1.0
 40
1.0
 40
1.0
 10
28.4409
 20
-2.1738
 30
0.0
 10
28.4409
 20
-2.1738
 30
0.0
 10
28.4949
 20
-2.299
 30
0.0
 10
28.4949
 20
-2.299
 30
0.0
 10
28.4949
 20
-2.299
 30
0.0
 10
28.4949
 20
-2.299
 30
0.0
 10
28.5463
 20
-2.4247
 30
0.0
 10
28.5463
 20
-2.4247
 30
0.0
  0
SPLINE
  5
79
330
1F
100
AcDbEntity
  8
VRSTVA_1
100
AcDbSpline
210
0.0
220
0.0
230
1.0
 70
     8
 71
     3
 72
    16
 73
    12
 74
     0
 42
0.0000000001
 43
0.0000000001
 40
0.0
 40
0.0
 40
0.0
 40
0.0
 40
0.25
 40
0.25
 40
0.25
 40
0.25
 40
0.5
 40
0.5
 40
0.5
 40
0.5
 40
1.0
 40
1.0
 40
1.0
 40
1.0
 10
28.5463
 20
-2.4247
 30
0.0
 10
28.6445
 20
-2.6714
 30
0.0
 10
28.7287
 20
-2.9236
 30
0.0
 10
28.7985
 20
-3.1798
 30
0.0
 10
28.7985
 20
-3.1798
 30
0.0
 10
29.1099
 20
-4.3223
 30
0.0
 10
29.1277
 20
-5.5385
 30
0.0
 10
28.8504
 20
-6.6897
 30
0.0
 10
28.8504
 20
-6.6897
 30
0.0
 10
28.7711
 20
-7.0187
 30
0.0
 10
28.6682
 20
-7.3419
 30
0.0
 10
28.5426
 20
-7.6561
 30
0.0
  0
SPLINE
  5
7A
330
1F
100
AcDbEntity
  8
VRSTVA_1
100
AcDbSpline
210
0.0
220
0.0
230
1.0
 70
    24
 71
     3
 72
     8
 73
     4
 74
     0
 42
0.0000000001
 43
0.0000000001
 40
0.0
 40
0.0
 40
0.0
 40
0.0
 40
1.0
 40
1.0
 40
1.0
 40
1.0
 10
28.5426
 20
-7.6561
 30
0.0
 10
28.5426
 20
-7.6561
 30
0.0
 10
28.4931
 20
-7.7767
 30
0.0
 10
28.4931
 20
-7.7767
 30
0.0
  0
SPLINE
  5
7B
330
1F
100
AcDbEntity
  8
VRSTVA_1
100
AcDbSpline
210
0.0
220
0.0
230
1.0
 70
     8
 71
     3
 72
    12
 73
     8
 74
     0
 42
0.0000000001
 43
0.0000000001
 40
0.0
 40
0.0
 40
0.0
 40
0.0
 40
0.3333333333333333
 40
0.3333333333333333
 40
0.3333333333333333
 40
0.3333333333333333
 40
1.0
 40
1.0
 40
1.0
 40
1.0
 10
28.4931
 20
-7.7767
 30
0.0
 10
28.4844
 20
-7.7972
 30
0.0
 10
28.4568
 20
-7.8981
 30
0.0
 10
28.4161
 20
-7.9293
 30
0.0
 10
28.4161
 20
-7.9293
 30
0.0
 10
28.4017
 20
-7.9404
 30
0.0
 10
28.3844
 20
-7.9468
 30
0.0
 10
28.3661
 20
-7.9471
 30
0.0
  0
SPLINE
  5
7C
330
1F
100
AcDbEntity
  8
VRSTVA_1
100
AcDbSpline
210
0.0
220
0.0
230
1.0
 70
     8
 71
     3
 72
    16
 73
    12
 74
     0
 42
0.0000000001
 43
0.0000000001
 40
0.0
 40
0.0
 40
0.0
 40
0.0
 40
0.25
 40
0.25
 40
0.25
 40
0.25
 40
0.5
 40
0.5
 40
0.5
 40
0.5
 40
1.0
 40
1.0
 40
1.0
 40
1.0
 10
28.3661
 20
-7.9471
 30
0.0
 10
28.3661
 20
-7.9471
 30
0.0
 10
28.0329
 20
-7.953
 30
0.0
 10
28.0329
 20
-7.953
 30
0.0
 10
28.0329
 20
-7.953
 30
0.0
 10
28.0329
 20
-7.953
 30
0.0
 10
27.5384
 20
-7.9616
 30
0.0
 10
27.5384
 20
-7.9616
 30
0.0
 10
27.5384
 20
-7.9616
 30
0.0
 10
27.5384
 20
-7.9616
 30
0.0
 10
27.2052
 20
-7.9674
 30
0.0
 10
27.2052
 20
-7.9674
 30
0.0
  0
SPLINE
  5
7D
330
1F
100
AcDbEntity
  8
VRSTVA_1
100
AcDbSpline
210
0.0
220
0.0
230
1.0
 70
     8
 71
     3
 72
    12
 73
     8
 74
     0
 42
0.0000000001
 43
0.0000000001
 40
0.0
 40
0.0
 40
0.0
 40
0.0
 40
0.3333333333333333
 40
0.3333333333333333
 40
0.3333333333333333
 40
0.3333333333333333
 40
1.0
 40
1.0
 40
1.0
 40
1.0
 10
27.3649
 20
-7.9646
 30
0.0
 10
27.3649
 20
-7.9646
 30
0.0
 10
27.3718
 20
-7.9645
 30
0.0
 10
27.3718
 20
-7.9645
 30
0.0
 10
27.3718
 20
-7.9645
 30
0.0
 10
27.3718
 20
-7.9645
 30
0.0
 10
27.3718
 20
-2.1068
 30
0.0
 10
27.3718
 20
-2.1068
 30
0.0
  0
SPLINE
  5
7E
330
1F
100
AcDbEntity
  8
VRSTVA_1
100
AcDbSpline
210
0.0
220
0.0
230
1.0
 70
     8
 71
     3
 72
     8
 73
     4
 74
     0
 42
0.0000000001
 43
0.0000000001
 40
0.0
 40
0.0
 40
0.0
 40
0.0
 40
1.0
 40
1.0
 40
1.0
 40
1.0
 10
27.2052
 20
-2.5139
 30
0.0
 10
27.2154
 20
-2.5185
 30
0.0
 10
27.2258
 20
-2.5208
 30
0.0
 10
27.237
 20
-2.5211
 30
0.0
  0
SPLINE
  5
7F
330
1F
100
AcDbEntity
  8
VRSTVA_1
100
AcDbSpline
210
0.0
220
0.0
230
1.0
 70
    24
 71
     3
 72
     8
 73
     4
 74
     0
 42
0.0000000001
 43
0.0000000001
 40
0.0
 40
0.0
 40
0.0
 40
0.0
 40
1.0
 40
1.0
 40
1.0
 40
1.0
 10
27.237
 20
-2.5211
 30
0.0
 10
27.237
 20
-2.5211
 30
0.0
 10
27.3718
 20
-2.5235
 30
0.0
 10
27.3718
 20
-2.5235
 30
0.0
  0
SPLINE
  5
80
330
1F
100
AcDbEntity
  8
VRSTVA_1
100
AcDbSpline
210
0.0
220
0.0
230
1.0
 70
    24
 71
     3
 72
     8
 73
     4
 74
     0
 42
0.0000000001
 43
0.0000000001
 40
0.0
 40
0.0
 40
0.0
 40
0.0
 40
1.0
 40
1.0
 40
1.0
 40
1.0
 10
29.0457
 20
-4.9032
 30
0.0
 10
29.0457
 20
-4.9032
 30
0.0
 10
29.0457
 20
-4.9172
 30
0.0
 10
29.0457
 20
-4.9172
 30
0.0
  0
SPLINE
  5
81
330
1F
100
AcDbEntity
  8
VRSTVA_1
100
AcDbSpline
210
0.0
220
0.0
230
1.0
 70
    24
 71
     3
 72
     8
 73
     4
 74
     0
 42
0.0000000001
 43
0.0000000001
 40
0.0
 40
0.0
 40
0.0
 40
0.0
 40
1.0
 40
1.0
 40
1.0
 40
1.0
 10
29.0418
 20
-4.7693
 30
0.0
 10
29.0418
 20
-4.7693
 30
0.0
 10
29.0423
 20
-4.7868
 30
0.0
 10
29.0423
 20
-4.7868
 30
0.0
  0
SPLINE
  5
82
330
1F
100
AcDbEntity
  8
VRSTVA_1
100
AcDbSpline
210
0.0
220
0.0
230
1.0
 70
    24
 71
     3
 72
     8
 73
     4
 74
     0
 42
0.0000000001
 43
0.0000000001
 40
0.0
 40
0.0
 40
0.0
 40
0.0
 40
1.0
 40
1.0
 40
1.0
 40
1.0
 10
29.0233
 20
-5.6097
 30
0.0
 10
29.0233
 20
-5.6097
 30
0.0
 10
29.0264
 20
-5.5729
 30
0.0
 10
29.0264
 20
-5.5729
 30
0.0
  0
SPLINE
  5
83
330
1F
100
AcDbEntity
  8
VRSTVA_1
100
AcDbSpline
210
0.0
220
0.0
230
1.0
 70
    24
 71
     3
 72
     8
 73
     4
 74
     0
 42
0.0000000001
 43
0.0000000001
 40
0.0
 40
0.0
 40
0.0
 40
0.0
 40
1.0
 40
1.0
 40
1.0
 40
1.0
 10
28.7187
 20
-7.1629
 30
0.0
 10
28.7187
 20
-7.1629
 30
0.0
 10
28.7229
 20
-7.1498
 30
0.0
 10
28.7229
 20
-7.1498
 30
0.0
  0
SPLINE
  5
84
330
1F
100
AcDbEntity
  8
VRSTVA_1
100
AcDbSpline
210
0.0
220
0.0
230
1.0
 70
    24
 71
     3
 72
     8
 73
     4
 74
     0
 42
0.0000000001
 43
0.0000000001
 40
0.0
 40
0.0
 40
0.0
 40
0.0
 40
1.0
 40
1.0
 40
1.0
 40
1.0
 10
28.677
 20
-7.2908
 30
0.0
 10
28.677
 20
-7.2908
 30
0.0
 10
28.6828
 20
-7.2739
 30
0.0
 10
28.6828
 20
-7.2739
 30
0.0
  0
SPLINE
  5
85
330
1F
100
AcDbEntity
  8
VRSTVA_1
100
AcDbSpline
210
0.0
220
0.0
230
1.0
 70
    24
 71
     3
 72
     8
 73
     4
 74
     0
 42
0.0000000001
 43
0.0000000001
 40
0.0
 40
0.0
 40
0.0
 40
0.0
 40
1.0
 40
1.0
 40
1.0
 40
1.0
 10
28.6818
 20
-7.2766
 30
0.0
 10
28.6818
 20
-7.2766
 30
0.0
 10
28.6826
 20
-7.2743
 30
0.0
 10
28.6826
 20
-7.2743
 30
0.0
  0
SPLINE
  5
86
330
1F
100
AcDbEntity
  8
VRSTVA_1
100
AcDbSpline
210
0.0
220
0.0
230
1.0
 70
    24
 71
     3
 72
     8
 73
     4
 74
     0
 42
0.0000000001
 43
0.0000000001
 40
0.0
 40
0.0
 40
0.0
 40
0.0
 40
1.0
 40
1.0
 40
1.0
 40
1.0
 10
28.6381
 20
-7.4031
 30
0.0
 10
28.6381
 20
-7.4031
 30
0.0
 10
28.6707
 20
-7.3091
 30
0.0
 10
28.6707
 20
-7.3091
 30
0.0
  0
SPLINE
  5
87
330
1F
100
AcDbEntity
  8
VRSTVA_1
100
AcDbSpline
210
0.0
220
0.0
230
1.0
 70
    24
 71
     3
 72
     8
 73
     4
 74
     0
 42
0.0000000001
 43
0.0000000001
 40
0.0
 40
0.0
 40
0.0
 40
0.0
 40
1.0
 40
1.0
 40
1.0
 40
1.0
 10
28.635
 20
-7.4119
 30
0.0
 10
28.635
 20
-7.4119
 30
0.0
 10
28.6387
 20
-7.4015
 30
0.0
 10
28.6387
 20
-7.4015
 30
0.0
  0
SPLINE
  5
88
330
1F
100
AcDbEntity
  8
VRSTVA_1
100
AcDbSpline
210
0.0
220
0.0
230
1.0
 70
    24
 71
     3
 72
     8
 73
     4
 74
     0
 42
0.0000000001
 43
0.0000000001
 40
0.0
 40
0.0
 40
0.0
 40
0.0
 40
1.0
 40
1.0
 40
1.0
 40
1.0
 10
28.5961
 20
-7.5181
 30
0.0
 10
28.5961
 20
-7.5181
 30
0.0
 10
28.6297
 20
-7.4266
 30
0.0
 10
28.6297
 20
-7.4266
 30
0.0
  0
SPLINE
  5
89
330
1F
100
AcDbEntity
  8
VRSTVA_1
100
AcDbSpline
210
0.0
220
0.0
230
1.0
 70
    24
 71
     3
 72
     8
 73
     4
 74
     0
 42
0.0000000001
 43
0.0000000001
 40
0.0
 40
0.0
 40
0.0
 40
0.0
 40
1.0
 40
1.0
 40
1.0
 40
1.0
 10
28.5475
 20
-7.6437
 30
0.0
 10
28.5475
 20
-7.6437
 30
0.0
 10
28.5868
 20
-7.5426
 30
0.0
 10
28.5868
 20
-7.5426
 30
0.0
  0
SPLINE
  5
8A
330
1F
100
AcDbEntity
  8
VRSTVA_1
100
AcDbSpline
210
0.0
220
0.0
230
1.0
 70
    24
 71
     3
 72
     8
 73
     4
 74
     0
 42
0.0000000001
 43
0.0000000001
 40
0.0
 40
0.0
 40
0.0
 40
0.0
 40
1.0
 40
1.0
 40
1.0
 40
1.0
 10
28.5415
 20
-7.659
 30
0.0
 10
28.5415
 20
-7.659
 30
0.0
 10
28.4963
 20
-7.769
 30
0.0
 10
28.4963
 20
-7.769
 30
0.0
  0
SPLINE
  5
8B
330
1F
100
AcDbEntity
  8
VRSTVA_1
100
AcDbSpline
210
0.0
220
0.0
230
1.0
 70
    24
 71
     3
 72
     8
 73
     4
 74
     0
 42
0.0000000001
 43
0.0000000001
 40
0.0
 40
0.0
 40
0.0
 40
0.0
 40
1.0
 40
1.0
 40
1.0
 40
1.0
 10
28.4925
 20
-7.7781
 30
0.0
 10
28.4925
 20
-7.7781
 30
0.0
 10
28.4423
 20
-7.8942
 30
0.0
 10
28.4423
 20
-7.8942
 30
0.0
  0
SPLINE
  5
8C
330
1F
100
AcDbEntity
  8
VRSTVA_1
100
AcDbSpline
210
0.0
220
0.0
230
1.0
 70
    24
 71
     3
 72
     8
 73
     4
 74
     0
 42
0.0000000001
 43
0.0000000001
 40
0.0
 40
0.0
 40
0.0
 40
0.0
 40
1.0
 40
1.0
 40
1.0
 40
1.0
 10
28.8414
 20
-3.3459
 30
0.0
 10
28.8414
 20
-3.3459
 30
0.0
 10
28.8334
 20
-3.3123
 30
0.0
 10
28.8334
 20
-3.3123
 30
0.0
  0
SPLINE
  5
8D
330
1F
100
AcDbEntity
  8
VRSTVA_1
100
AcDbSpline
210
0.0
220
0.0
230
1.0
 70
    24
 71
     3
 72
     8
 73
     4
 74
     0
 42
0.0000000001
 43
0.0000000001
 40
0.0
 40
0.0
 40
0.0
 40
0.0
 40
1.0
 40
1.0
 40
1.0
 40
1.0
 10
28.8937
 20
-3.5734
 30
0.0
 10
28.8937
 20
-3.5734
 30
0.0
 10
28.8993
 20
-3.6007
 30
0.0
 10
28.8993
 20
-3.6007
 30
0.0
  0
SPLINE
  5
8E
330
1F
100
AcDbEntity
  8
VRSTVA_1
100
AcDbSpline
210
0.0
220
0.0
230
1.0
 70
    24
 71
     3
 72
     8
 73
     4
 74
     0
 42
0.0000000001
 43
0.0000000001
 40
0.0
 40
0.0
 40
0.0
 40
0.0
 40
1.0
 40
1.0
 40
1.0
 40
1.0
 10
28.6432
 20
-2.6825
 30
0.0
 10
28.6432
 20
-2.6825
 30
0.0
 10
28.6704
 20
-2.7609
 30
0.0
 10
28.6704
 20
-2.7609
 30
0.0
  0
SPLINE
  5
8F
330
1F
100
AcDbEntity
  8
VRSTVA_1
100
AcDbSpline
210
0.0
220
0.0
230
1.0
 70
    24
 71
     3
 72
     8
 73
     4
 74
     0
 42
0.0000000001
 43
0.0000000001
 40
0.0
 40
0.0
 40
0.0
 40
0.0
 40
1.0
 40
1.0
 40
1.0
 40
1.0
 10
28.6387
 20
-2.6698
 30
0.0
 10
28.6387
 20
-2.6698
 30
0.0
 10
28.6404
 20
-2.6748
 30
0.0
 10
28.6404
 20
-2.6748
 30
0.0
  0
SPLINE
  5
90
330
1F
100
AcDbEntity
  8
VRSTVA_1
100
AcDbSpline
210
0.0
220
0.0
230
1.0
 70
    24
 71
     3
 72
     8
 73
     4
 74
     0
 42
0.0000000001
 43
0.0000000001
 40
0.0
 40
0.0
 40
0.0
 40
0.0
 40
1.0
 40
1.0
 40
1.0
 40
1.0
 10
28.6385
 20
-2.6693
 30
0.0
 10
28.6385
 20
-2.6693
 30
0.0
 10
28.6396
 20
-2.6728
 30
0.0
 10
28.6396
 20
-2.6728
 30
0.0
  0
SPLINE
  5
91
330
1F
100
AcDbEntity
  8
VRSTVA_1
100
AcDbSpline
210
0.0
220
0.0
230
1.0
 70
    24
 71
     3
 72
     8
 73
     4
 74
     0
 42
0.0000000001
 43
0.0000000001
 40
0.0
 40
0.0
 40
0.0
 40
0.0
 40
1.0
 40
1.0
 40
1.0
 40
1.0
 10
28.6356
 20
-2.6612
 30
0.0
 10
28.6356
 20
-2.6612
 30
0.0
 10
28.6377
 20
-2.6671
 30
0.0
 10
28.6377
 20
-2.6671
 30
0.0
  0
SPLINE
  5
92
330
1F
100
AcDbEntity
  8
VRSTVA_1
100
AcDbSpline
210
0.0
220
0.0
230
1.0
 70
    24
 71
     3
 72
     8
 73
     4
 74
     0
 42
0.0000000001
 43
0.0000000001
 40
0.0
 40
0.0
 40
0.0
 40
0.0
 40
1.0
 40
1.0
 40
1.0
 40
1.0
 10
28.5982
 20
-2.559
 30
0.0
 10
28.5982
 20
-2.559
 30
0.0
 10
28.629
 20
-2.643
 30
0.0
 10
28.629
 20
-2.643
 30
0.0
  0
SPLINE
  5
93
330
1F
100
AcDbEntity
  8
VRSTVA_1
100
AcDbSpline
210
0.0
220
0.0
230
1.0
 70
    24
 71
     3
 72
     8
 73
     4
 74
     0
 42
0.0000000001
 43
0.0000000001
 40
0.0
 40
0.0
 40
0.0
 40
0.0
 40
1.0
 40
1.0
 40
1.0
 40
1.0
 10
28.5408
 20
-2.4107
 30
0.0
 10
28.5408
 20
-2.4107
 30
0.0
 10
28.4969
 20
-2.304
 30
0.0
 10
28.4969
 20
-2.304
 30
0.0
  0
SPLINE
  5
94
330
1F
100
AcDbEntity
  8
VRSTVA_1
100
AcDbSpline
210
0.0
220
0.0
230
1.0
 70
    24
 71
     3
 72
     8
 73
     4
 74
     0
 42
0.0000000001
 43
0.0000000001
 40
0.0
 40
0.0
 40
0.0
 40
0.0
 40
1.0
 40
1.0
 40
1.0
 40
1.0
 10
28.4924
 20
-2.2929
 30
0.0
 10
28.4924
 20
-2.2929
 30
0.0
 10
28.4423
 20
-2.1771
 30
0.0
 10
28.4423
 20
-2.1771
 30
0.0
  0
SPLINE
  5
95
330
1F
100
AcDbEntity
  8
VRSTVA_1
100
AcDbSpline
210
0.0
220
0.0
230
1.0
 70
    24
 71
     3
 72
     8
 73
     4
 74
     0
 42
0.0000000001
 43
0.0000000001
 40
0.0
 40
0.0
 40
0.0
 40
0.0
 40
1.0
 40
1.0
 40
1.0
 40
1.0
 10
29.0468
 20
-5.0458
 30
0.0
 10
29.0468
 20
-5.0458
 30
0.0
 10
29.0468
 20
-5.0252
 30
0.0
 10
29.0468
 20
-5.0252
 30
0.0
  0
SPLINE
  5
96
330
1F
100
AcDbEntity
  8
VRSTVA_1
100
AcDbSpline
210
0.0
220
0.0
230
1.0
 70
    24
 71
     3
 72
     8
 73
     4
 74
     0
 42
0.0000000001
 43
0.0000000001
 40
0.0
 40
0.0
 40
0.0
 40
0.0
 40
1.0
 40
1.0
 40
1.0
 40
1.0
 10
29.0454
 20
-5.1763
 30
0.0
 10
29.0454
 20
-5.1763
 30
0.0
 10
29.0457
 20
-5.1557
 30
0.0
 10
29.0457
 20
-5.1557
 30
0.0
  0
SPLINE
  5
97
330
1F
100
AcDbEntity
  8
VRSTVA_1
100
AcDbSpline
210
0.0
220
0.0
230
1.0
 70
    24
 71
     3
 72
     8
 73
     4
 74
     0
 42
0.0000000001
 43
0.0000000001
 40
0.0
 40
0.0
 40
0.0
 40
0.0
 40
1.0
 40
1.0
 40
1.0
 40
1.0
 10
29.0423
 20
-5.2863
 30
0.0
 10
29.0423
 20
-5.2863
 30
0.0
 10
29.0416
 20
-5.3068
 30
0.0
 10
29.0416
 20
-5.3068
 30
0.0
  0
SPLINE
  5
98
330
1F
100
AcDbEntity
  8
VRSTVA_1
100
AcDbSpline
210
0.0
220
0.0
230
1.0
 70
    24
 71
     3
 72
     8
 73
     4
 74
     0
 42
0.0000000001
 43
0.0000000001
 40
0.0
 40
0.0
 40
0.0
 40
0.0
 40
1.0
 40
1.0
 40
1.0
 40
1.0
 10
29.0117
 20
-5.7372
 30
0.0
 10
29.0117
 20
-5.7372
 30
0.0
 10
29.0157
 20
-5.6986
 30
0.0
 10
29.0157
 20
-5.6986
 30
0.0
  0
SPLINE
  5
99
330
1F
100
AcDbEntity
  8
VRSTVA_1
100
AcDbSpline
210
0.0
220
0.0
230
1.0
 70
    24
 71
     3
 72
     8
 73
     4
 74
     0
 42
0.0000000001
 43
0.0000000001
 40
0.0
 40
0.0
 40
0.0
 40
0.0
 40
1.0
 40
1.0
 40
1.0
 40
1.0
 10
28.9975
 20
-5.8673
 30
0.0
 10
28.9975
 20
-5.8673
 30
0.0
 10
29.002
 20
-5.8294
 30
0.0
 10
29.002
 20
-5.8294
 30
0.0
  0
SPLINE
  5
9A
330
1F
100
AcDbEntity
  8
VRSTVA_1
100
AcDbSpline
210
0.0
220
0.0
230
1.0
 70
    24
 71
     3
 72
     8
 73
     4
 74
     0
 42
0.0000000001
 43
0.0000000001
 40
0.0
 40
0.0
 40
0.0
 40
0.0
 40
1.0
 40
1.0
 40
1.0
 40
1.0
 10
28.981
 20
-5.997
 30
0.0
 10
28.981
 20
-5.997
 30
0.0
 10
28.9864
 20
-5.9565
 30
0.0
 10
28.9864
 20
-5.9565
 30
0.0
  0
SPLINE
  5
9B
330
1F
100
AcDbEntity
  8
VRSTVA_1
100
AcDbSpline
210
0.0
220
0.0
230
1.0
 70
    24
 71
     3
 72
     8
 73
     4
 74
     0
 42
0.0000000001
 43
0.0000000001
 40
0.0
 40
0.0
 40
0.0
 40
0.0
 40
1.0
 40
1.0
 40
1.0
 40
1.0
 10
28.9406
 20
-6.2554
 30
0.0
 10
28.9406
 20
-6.2554
 30
0.0
 10
28.9476
 20
-6.2147
 30
0.0
 10
28.9476
 20
-6.2147
 30
0.0
  0
SPLINE
  5
9C
330
1F
100
AcDbEntity
  8
VRSTVA_1
100
AcDbSpline
210
0.0
220
0.0
230
1.0
 70
    24
 71
     3
 72
     8
 73
     4
 74
     0
 42
0.0000000001
 43
0.0000000001
 40
0.0
 40
0.0
 40
0.0
 40
0.0
 40
1.0
 40
1.0
 40
1.0
 40
1.0
 10
28.9168
 20
-6.3839
 30
0.0
 10
28.9168
 20
-6.3839
 30
0.0
 10
28.9245
 20
-6.3433
 30
0.0
 10
28.9245
 20
-6.3433
 30
0.0
  0
SPLINE
  5
9D
330
1F
100
AcDbEntity
  8
VRSTVA_1
100
AcDbSpline
210
0.0
220
0.0
230
1.0
 70
    24
 71
     3
 72
     8
 73
     4
 74
     0
 42
0.0000000001
 43
0.0000000001
 40
0.0
 40
0.0
 40
0.0
 40
0.0
 40
1.0
 40
1.0
 40
1.0
 40
1.0
 10
28.8991
 20
-6.4715
 30
0.0
 10
28.8991
 20
-6.4715
 30
0.0
 10
28.8907
 20
-6.5118
 30
0.0
 10
28.8907
 20
-6.5118
 30
0.0
  0
SPLINE
  5
9E
330
1F
100
AcDbEntity
  8
VRSTVA_1
100
AcDbSpline
210
0.0
220
0.0
230
1.0
 70
    24
 71
     3
 72
     8
 73
     4
 74
     0
 42
0.0000000001
 43
0.0000000001
 40
0.0
 40
0.0
 40
0.0
 40
0.0
 40
1.0
 40
1.0
 40
1.0
 40
1.0
 10
28.8629
 20
-6.6364
 30
0.0
 10
28.8629
 20
-6.6364
 30
0.0
 10
28.8713
 20
-6.5992
 30
0.0
 10
28.8713
 20
-6.5992
 30
0.0
  0
SPLINE
  5
9F
330
1F
100
AcDbEntity
  8
VRSTVA_1
100
AcDbSpline
210
0.0
220
0.0
230
1.0
 70
    24
 71
     3
 72
     8
 73
     4
 74
     0
 42
0.0000000001
 43
0.0000000001
 40
0.0
 40
0.0
 40
0.0
 40
0.0
 40
1.0
 40
1.0
 40
1.0
 40
1.0
 10
28.9619
 20
-6.1264
 30
0.0
 10
28.9619
 20
-6.1264
 30
0.0
 10
28.9682
 20
-6.0859
 30
0.0
 10
28.9682
 20
-6.0859
 30
0.0
  0
SPLINE
  5
A0
330
1F
100
AcDbEntity
  8
VRSTVA_1
100
AcDbSpline
210
0.0
220
0.0
230
1.0
 70
    24
 71
     3
 72
     8
 73
     4
 74
     0
 42
0.0000000001
 43
0.0000000001
 40
0.0
 40
0.0
 40
0.0
 40
0.0
 40
1.0
 40
1.0
 40
1.0
 40
1.0
 10
28.8412
 20
-6.7263
 30
0.0
 10
28.8412
 20
-6.7263
 30
0.0
 10
28.832
 20
-6.7642
 30
0.0
 10
28.832
 20
-6.7642
 30
0.0
  0
SPLINE
  5
A1
330
1F
100
AcDbEntity
  8
VRSTVA_1
100
AcDbSpline
210
0.0
220
0.0
230
1.0
 70
    24
 71
     3
 72
     8
 73
     4
 74
     0
 42
0.0000000001
 43
0.0000000001
 40
0.0
 40
0.0
 40
0.0
 40
0.0
 40
1.0
 40
1.0
 40
1.0
 40
1.0
 10
28.8086
 20
-6.8533
 30
0.0
 10
28.8086
 20
-6.8533
 30
0.0
 10
28.7979
 20
-6.8939
 30
0.0
 10
28.7979
 20
-6.8939
 30
0.0
  0
SPLINE
  5
A2
330
1F
100
AcDbEntity
  8
VRSTVA_1
100
AcDbSpline
210
0.0
220
0.0
230
1.0
 70
     8
 71
     3
 72
     8
 73
     4
 74
     0
 42
0.0000000001
 43
0.0000000001
 40
0.0
 40
0.0
 40
0.0
 40
0.0
 40
1.0
 40
1.0
 40
1.0
 40
1.0
 10
28.4392
 20
-7.9015
 30
0.0
 10
28.3823
 20
-8.0056
 30
0.0
 10
28.155
 20
-7.9547
 30
0.0
 10
28.1017
 20
-7.9555
 30
0.0
  0
SPLINE
  5
A3
330
1F
100
AcDbEntity
  8
VRSTVA_1
100
AcDbSpline
210
0.0
220
0.0
230
1.0
 70
    24
 71
     3
 72
     8
 73
     4
 74
     0
 42
0.0000000001
 43
0.0000000001
 40
0.0
 40
0.0
 40
0.0
 40
0.0
 40
1.0
 40
1.0
 40
1.0
 40
1.0
 10
28.1017
 20
-7.9555
 30
0.0
 10
28.1017
 20
-7.9555
 30
0.0
 10
27.839
 20
-7.9601
 30
0.0
 10
27.839
 20
-7.9601
 30
0.0
  0
SPLINE
  5
A4
330
1F
100
AcDbEntity
  8
VRSTVA_1
100
AcDbSpline
210
0.0
220
0.0
230
1.0
 70
     8
 71
     3
 72
     8
 73
     4
 74
     0
 42
0.0000000001
 43
0.0000000001
 40
0.0
 40
0.0
 40
0.0
 40
0.0
 40
1.0
 40
1.0
 40
1.0
 40
1.0
 10
28.2536
 20
-7.9529
 30
0.0
 10
28.0523
 20
-8.1542
 30
0.0
 10
28.182
 20
-8.0873
 30
0.0
 10
27.839
 20
-8.0933
 30
0.0
  0
SPLINE
  5
A5
330
1F
100
AcDbEntity
  8
VRSTVA_1
100
AcDbSpline
210
0.0
220
0.0
230
1.0
 70
    24
 71
     3
 72
     8
 73
     4
 74
     0
 42
0.0000000001
 43
0.0000000001
 40
0.0
 40
0.0
 40
0.0
 40
0.0
 40
1.0
 40
1.0
 40
1.0
 40
1.0
 10
29.0235
 20
-4.4645
 30
0.0
 10
29.0235
 20
-4.4645
 30
0.0
 10
29.0267
 20
-4.5043
 30
0.0
 10
29.0267
 20
-4.5043
 30
0.0
  0
SPLINE
  5
A6
330
1F
100
AcDbEntity
  8
VRSTVA_1
100
AcDbSpline
210
0.0
220
0.0
230
1.0
 70
    24
 71
     3
 72
     8
 73
     4
 74
     0
 42
0.0000000001
 43
0.0000000001
 40
0.0
 40
0.0
 40
0.0
 40
0.0
 40
1.0
 40
1.0
 40
1.0
 40
1.0
 10
29.0117
 20
-4.3341
 30
0.0
 10
29.0117
 20
-4.3341
 30
0.0
 10
29.0155
 20
-4.3712
 30
0.0
 10
29.0155
 20
-4.3712
 30
0.0
  0
SPLINE
  5
A7
330
1F
100
AcDbEntity
  8
VRSTVA_1
100
AcDbSpline
210
0.0
220
0.0
230
1.0
 70
    24
 71
     3
 72
     8
 73
     4
 74
     0
 42
0.0000000001
 43
0.0000000001
 40
0.0
 40
0.0
 40
0.0
 40
0.0
 40
1.0
 40
1.0
 40
1.0
 40
1.0
 10
28.9975
 20
-4.2043
 30
0.0
 10
28.9975
 20
-4.2043
 30
0.0
 10
29.0022
 20
-4.2434
 30
0.0
 10
29.0022
 20
-4.2434
 30
0.0
  0
SPLINE
  5
A8
330
1F
100
AcDbEntity
  8
VRSTVA_1
100
AcDbSpline
210
0.0
220
0.0
230
1.0
 70
    24
 71
     3
 72
     8
 73
     4
 74
     0
 42
0.0000000001
 43
0.0000000001
 40
0.0
 40
0.0
 40
0.0
 40
0.0
 40
1.0
 40
1.0
 40
1.0
 40
1.0
 10
28.981
 20
-4.0746
 30
0.0
 10
28.981
 20
-4.0746
 30
0.0
 10
28.9863
 20
-4.1137
 30
0.0
 10
28.9863
 20
-4.1137
 30
0.0
  0
SPLINE
  5
A9
330
1F
100
AcDbEntity
  8
VRSTVA_1
100
AcDbSpline
210
0.0
220
0.0
230
1.0
 70
    24
 71
     3
 72
     8
 73
     4
 74
     0
 42
0.0000000001
 43
0.0000000001
 40
0.0
 40
0.0
 40
0.0
 40
0.0
 40
1.0
 40
1.0
 40
1.0
 40
1.0
 10
28.968
 20
-3.9844
 30
0.0
 10
28.968
 20
-3.9844
 30
0.0
 10
28.962
 20
-3.9454
 30
0.0
 10
28.962
 20
-3.9454
 30
0.0
  0
SPLINE
  5
AA
330
1F
100
AcDbEntity
  8
VRSTVA_1
100
AcDbSpline
210
0.0
220
0.0
230
1.0
 70
    24
 71
     3
 72
     8
 73
     4
 74
     0
 42
0.0000000001
 43
0.0000000001
 40
0.0
 40
0.0
 40
0.0
 40
0.0
 40
1.0
 40
1.0
 40
1.0
 40
1.0
 10
28.871
 20
-3.4707
 30
0.0
 10
28.871
 20
-3.4707
 30
0.0
 10
28.8629
 20
-3.4349
 30
0.0
 10
28.8629
 20
-3.4349
 30
0.0
  0
SPLINE
  5
AB
330
1F
100
AcDbEntity
  8
VRSTVA_1
100
AcDbSpline
210
0.0
220
0.0
230
1.0
 70
    24
 71
     3
 72
     8
 73
     4
 74
     0
 42
0.0000000001
 43
0.0000000001
 40
0.0
 40
0.0
 40
0.0
 40
0.0
 40
1.0
 40
1.0
 40
1.0
 40
1.0
 10
28.9473
 20
-3.8554
 30
0.0
 10
28.9473
 20
-3.8554
 30
0.0
 10
28.9406
 20
-3.8165
 30
0.0
 10
28.9406
 20
-3.8165
 30
0.0
  0
SPLINE
  5
AC
330
1F
100
AcDbEntity
  8
VRSTVA_1
100
AcDbSpline
210
0.0
220
0.0
230
1.0
 70
    24
 71
     3
 72
     8
 73
     4
 74
     0
 42
0.0000000001
 43
0.0000000001
 40
0.0
 40
0.0
 40
0.0
 40
0.0
 40
1.0
 40
1.0
 40
1.0
 40
1.0
 10
28.9242
 20
-3.7267
 30
0.0
 10
28.9242
 20
-3.7267
 30
0.0
 10
28.917
 20
-3.6882
 30
0.0
 10
28.917
 20
-3.6882
 30
0.0
  0
SPLINE
  5
AD
330
1F
100
AcDbEntity
  8
VRSTVA_1
100
AcDbSpline
210
0.0
220
0.0
230
1.0
 70
    24
 71
     3
 72
     8
 73
     4
 74
     0
 42
0.0000000001
 43
0.0000000001
 40
0.0
 40
0.0
 40
0.0
 40
0.0
 40
1.0
 40
1.0
 40
1.0
 40
1.0
 10
28.7186
 20
-2.9082
 30
0.0
 10
28.7186
 20
-2.9082
 30
0.0
 10
28.7243
 20
-2.9261
 30
0.0
 10
28.7243
 20
-2.9261
 30
0.0
  0
SPLINE
  5
AE
330
1F
100
AcDbEntity
  8
VRSTVA_1
100
AcDbSpline
210
0.0
220
0.0
230
1.0
 70
    24
 71
     3
 72
     8
 73
     4
 74
     0
 42
0.0000000001
 43
0.0000000001
 40
0.0
 40
0.0
 40
0.0
 40
0.0
 40
1.0
 40
1.0
 40
1.0
 40
1.0
 10
28.6781
 20
-2.7842
 30
0.0
 10
28.6781
 20
-2.7842
 30
0.0
 10
28.6832
 20
-2.7993
 30
0.0
 10
28.6832
 20
-2.7993
 30
0.0
  0
SPLINE
  5
AF
330
1F
100
AcDbEntity
  8
VRSTVA_1
100
AcDbSpline
210
0.0
220
0.0
230
1.0
 70
    24
 71
     3
 72
     8
 73
     4
 74
     0
 42
0.0000000001
 43
0.0000000001
 40
0.0
 40
0.0
 40
0.0
 40
0.0
 40
1.0
 40
1.0
 40
1.0
 40
1.0
 10
28.5488
 20
-2.4309
 30
0.0
 10
28.5488
 20
-2.4309
 30
0.0
 10
28.5935
 20
-2.5466
 30
0.0
 10
28.5935
 20
-2.5466
 30
0.0
  0
SPLINE
  5
B0
330
1F
100
AcDbEntity
  8
VRSTVA_1
100
AcDbSpline
210
0.0
220
0.0
230
1.0
 70
    24
 71
     3
 72
     8
 73
     4
 74
     0
 42
0.0000000001
 43
0.0000000001
 40
0.0
 40
0.0
 40
0.0
 40
0.0
 40
1.0
 40
1.0
 40
1.0
 40
1.0
 10
27.839
 20
-2.1113
 30
0.0
 10
27.839
 20
-2.1113
 30
0.0
 10
28.1017
 20
-2.1159
 30
0.0
 10
28.1017
 20
-2.1159
 30
0.0
  0
SPLINE
  5
B1
330
1F
100
AcDbEntity
  8
VRSTVA_1
100
AcDbSpline
210
0.0
220
0.0
230
1.0
 70
     8
 71
     3
 72
     8
 73
     4
 74
     0
 42
0.0000000001
 43
0.0000000001
 40
0.0
 40
0.0
 40
0.0
 40
0.0
 40
1.0
 40
1.0
 40
1.0
 40
1.0
 10
28.1017
 20
-2.1159
 30
0.0
 10
28.1499
 20
-2.1166
 30
0.0
 10
28.3587
 20
-2.0749
 30
0.0
 10
28.43
 20
-2.1543
 30
0.0
  0
SPLINE
  5
B2
330
1F
100
AcDbEntity
  8
VRSTVA_1
 62
   250
100
AcDbSpline
210
0.0
220
0.0
230
1.0
 70
    11
 71
     3
 72
    20
 73
    16
 74
     0
 42
0.0000000001
 43
0.0000000001
 40
0.0
 40
0.0
 40
0.0
 40
0.0
 40
0.2
 40
0.2
 40
0.2
 40
0.2
 40
0.4
 40
0.4
 40
0.4
 40
0.4
 40
0.6
 40
0.6
 40
0.6
 40
0.6
 40
1.0
 40
1.0
 40
1.0
 40
1.0
 10
-30.0889
 20
-11.1076
 30
0.0
 10
-30.0889
 20
-11.1076
 30
0.0
 10
-30.5123
 20
-14.1078
 30
0.0
 10
-30.5123
 20
-14.1078
 30
0.0
 10
-30.5123
 20
-14.1078
 30
0.0
 10
-30.5123
 20
-14.1078
 30
0.0
 10
-30.6063
 20
-14.1078
 30
0.0
 10
-30.6063
 20
-14.1078
 30
0.0
 10
-30.6063
 20
-14.1078
 30
0.0
 10
-30.6063
 20
-14.1078
 30
0.0
 10
-31.0579
 20
-11.1076
 30
0.0
 10
-31.0579
 20
-11.1076
 30
0.0
 10
-31.0579
 20
-11.1076
 30
0.0
 10
-31.0579
 20
-11.1076
 30
0.0
 10
-30.0889
 20
-11.1076
 30
0.0
 10
-30.0889
 20
-11.1076
 30
0.0
  0
SPLINE
  5
B3
330
1F
100
AcDbEntity
  8
VRSTVA_1
 62
   250
100
AcDbSpline
210
0.0
220
0.0
230
1.0
 70
    11
 71
     3
 72
    20
 73
    16
 74
     0
 42
0.0000000001
 43
0.0000000001
 40
0.0
 40
0.0
 40
0.0
 40
0.0
 40
0.2
 40
0.2
 40
0.2
 40
0.2
 40
0.4
 40
0.4
 40
0.4
 40
0.4
 40
0.6
 40
0.6
 40
0.6
 40
0.6
 40
1.0
 40
1.0
 40
1.0
 40
1.0
 10
-31.0131
 20
10.2112
 30
0.0
 10
-31.0131
 20
10.2112
 30
0.0
 10
-30.5897
 20
13.2115
 30
0.0
 10
-30.5897
 20
13.2115
 30
0.0
 10
-30.5897
 20
13.2115
 30
0.0
 10
-30.5897
 20
13.2115
 30
0.0
 10
-30.4956
 20
13.2115
 30
0.0
 10
-30.4956
 20
13.2115
 30
0.0
 10
-30.4956
 20
13.2115
 30
0.0
 10
-30.4956
 20
13.2115
 30
0.0
 10
-30.0441
 20
10.2112
 30
0.0
 10
-30.0441
 20
10.2112
 30
0.0
 10
-30.0441
 20
10.2112
 30
0.0
 10
-30.0441
 20
10.2112
 30
0.0
 10
-31.0131
 20
10.2112
 30
0.0
 10
-31.0131
 20
10.2112
 30
0.0
  0
SPLINE
  5
B4
330
1F
100
AcDbEntity
  8
VRSTVA_1
 62
   250
100
AcDbSpline
210
0.0
220
0.0
230
1.0
 70
    11
 71
     3
 72
    20
 73
    16
 74
     0
 42
0.0000000001
 43
0.0000000001
 40
0.0
 40
0.0
 40
0.0
 40
0.0
 40
0.2
 40
0.2
 40
0.2
 40
0.2
 40
0.4
 40
0.4
 40
0.4
 40
0.4
 40
0.6
 40
0.6
 40
0.6
 40
0.6
 40
1.0
 40
1.0
 40
1.0
 40
1.0
 10
14.1199
 20
17.107
 30
0.0
 10
14.1199
 20
17.107
 30
0.0
 10
17.1229
 20
16.6832
 30
0.0
 10
17.1229
 20
16.6832
 30
0.0
 10
17.1229
 20
16.6832
 30
0.0
 10
17.1229
 20
16.6832
 30
0.0
 10
17.1229
 20
16.5891
 30
0.0
 10
17.1229
 20
16.5891
 30
0.0
 10
17.1229
 20
16.5891
 30
0.0
 10
17.1229
 20
16.5891
 30
0.0
 10
14.1199
 20
16.1371
 30
0.0
 10
14.1199
 20
16.1371
 30
0.0
 10
14.1199
 20
16.1371
 30
0.0
 10
14.1199
 20
16.1371
 30
0.0
 10
14.1199
 20
17.107
 30
0.0
 10
14.1199
 20
17.107
 30
0.0
  0
SPLINE
  5
B5
330
1F
100
AcDbEntity
  8
VRSTVA_1
 62
   250
100
AcDbSpline
210
0.0
220
0.0
230
1.0
 70
    11
 71
     3
 72
    20
 73
    16
 74
     0
 42
0.0000000001
 43
0.0000000001
 40
0.0
 40
0.0
 40
0.0
 40
0.0
 40
0.2
 40
0.2
 40
0.2
 40
0.2
 40
0.4
 40
0.4
 40
0.4
 40
0.4
 40
0.6
 40
0.6
 40
0.6
 40
0.6
 40
1.0
 40
1.0
 40
1.0
 40
1.0
 10
-2.5264
 20
-17.8764
 30
0.0
 10
-2.5264
 20
-17.8764
 30
0.0
 10
0.4766
 20
-18.3002
 30
0.0
 10
0.4766
 20
-18.3002
 30
0.0
 10
0.4766
 20
-18.3002
 30
0.0
 10
0.4766
 20
-18.3002
 30
0.0
 10
0.4766
 20
-18.3943
 30
0.0
 10
0.4766
 20
-18.3943
 30
0.0
 10
0.4766
 20
-18.3943
 30
0.0
 10
0.4766
 20
-18.3943
 30
0.0
 10
-2.5264
 20
-18.8463
 30
0.0
 10
-2.5264
 20
-18.8463
 30
0.0
 10
-2.5264
 20
-18.8463
 30
0.0
 10
-2.5264
 20
-18.8463
 30
0.0
 10
-2.5264
 20
-17.8764
 30
0.0
 10
-2.5264
 20
-17.8764
 30
0.0
  0
SPLINE
  5
B6
330
1F
100
AcDbEntity
  8
VRSTVA_1
 62
   250
100
AcDbSpline
210
0.0
220
0.0
230
1.0
 70
    11
 71
     3
 72
    20
 73
    16
 74
     0
 42
0.0000000001
 43
0.0000000001
 40
0.0
 40
0.0
 40
0.0
 40
0.0
 40
0.2
 40
0.2
 40
0.2
 40
0.2
 40
0.4
 40
0.4
 40
0.4
 40
0.4
 40
0.6
 40
0.6
 40
0.6
 40
0.6
 40
1.0
 40
1.0
 40
1.0
 40
1.0
 10
-20.848
 20
16.1591
 30
0.0
 10
-20.848
 20
16.1591
 30
0.0
 10
-23.848
 20
16.5824
 30
0.0
 10
-23.848
 20
16.5824
 30
0.0
 10
-23.848
 20
16.5824
 30
0.0
 10
-23.848
 20
16.5824
 30
0.0
 10
-23.848
 20
16.6765
 30
0.0
 10
-23.848
 20
16.6765
 30
0.0
 10
-23.848
 20
16.6765
 30
0.0
 10
-23.848
 20
16.6765
 30
0.0
 10
-20.848
 20
17.128
 30
0.0
 10
-20.848
 20
17.128
 30
0.0
 10
-20.848
 20
17.128
 30
0.0
 10
-20.848
 20
17.128
 30
0.0
 10
-20.848
 20
16.1591
 30
0.0
 10
-20.848
 20
16.1591
 30
0.0
  0
SPLINE
  5
B7
330
1F
100
AcDbEntity
  8
VRSTVA_1
 62
   250
100
AcDbSpline
210
0.0
220
0.0
230
1.0
 70
    11
 71
     3
 72
    20
 73
    16
 74
     0
 42
0.0000000001
 43
0.0000000001
 40
0.0
 40
0.0
 40
0.0
 40
0.0
 40
0.2
 40
0.2
 40
0.2
 40
0.2
 40
0.4
 40
0.4
 40
0.4
 40
0.4
 40
0.6
 40
0.6
 40
0.6
 40
0.6
 40
1.0
 40
1.0
 40
1.0
 40
1.0
 10
-20.842
 20
-18.8573
 30
0.0
 10
-20.842
 20
-18.8573
 30
0.0
 10
-23.842
 20
-18.434
 30
0.0
 10
-23.842
 20
-18.434
 30
0.0
 10
-23.842
 20
-18.434
 30
0.0
 10
-23.842
 20
-18.434
 30
0.0
 10
-23.842
 20
-18.3399
 30
0.0
 10
-23.842
 20
-18.3399
 30
0.0
 10
-23.842
 20
-18.3399
 30
0.0
 10
-23.842
 20
-18.3399
 30
0.0
 10
-20.842
 20
-17.8884
 30
0.0
 10
-20.842
 20
-17.8884
 30
0.0
 10
-20.842
 20
-17.8884
 30
0.0
 10
-20.842
 20
-17.8884
 30
0.0
 10
-20.842
 20
-18.8573
 30
0.0
 10
-20.842
 20
-18.8573
 30
0.0
  0
SPLINE
  5
B8
330
1F
100
AcDbEntity
  8
VRSTVA_1
 62
   250
100
AcDbSpline
210
0.0
220
0.0
230
1.0
 70
    24
 71
     3
 72
     8
 73
     4
 74
     0
 42
0.0000000001
 43
0.0000000001
 40
0.0
 40
0.0
 40
0.0
 40
0.0
 40
1.0
 40
1.0
 40
1.0
 40
1.0
 10
-24.4151
 20
-14.1605
 30
0.0
 10
-24.4151
 20
-14.1605
 30
0.0
 10
-30.7988
 20
-14.1605
 30
0.0
 10
-30.7988
 20
-14.1605
 30
0.0
  0
SPLINE
  5
B9
330
1F
100
AcDbEntity
  8
VRSTVA_1
 62
   250
100
AcDbSpline
210
0.0
220
0.0
230
1.0
 70
    24
 71
     3
 72
     8
 73
     4
 74
     0
 42
0.0000000001
 43
0.0000000001
 40
0.0
 40
0.0
 40
0.0
 40
0.0
 40
1.0
 40
1.0
 40
1.0
 40
1.0
 10
-24.4813
 20
13.3107
 30
0.0
 10
-24.4813
 20
13.3107
 30
0.0
 10
-30.7988
 20
13.3107
 30
0.0
 10
-30.7988
 20
13.3107
 30
0.0
  0
SPLINE
  5
BA
330
1F
100
AcDbEntity
  8
VRSTVA_1
 62
   250
100
AcDbSpline
210
0.0
220
0.0
230
1.0
 70
    24
 71
     3
 72
     8
 73
     4
 74
     0
 42
0.0000000001
 43
0.0000000001
 40
0.0
 40
0.0
 40
0.0
 40
0.0
 40
1.0
 40
1.0
 40
1.0
 40
1.0
 10
-30.5609
 20
13.3107
 30
0.0
 10
-30.5609
 20
13.3107
 30
0.0
 10
-30.5609
 20
-13.7338
 30
0.0
 10
-30.5609
 20
-13.7338
 30
0.0
  0
SPLINE
  5
BB
330
1F
100
AcDbEntity
  8
VRSTVA_1
 62
   250
100
AcDbSpline
210
0.0
220
0.0
230
1.0
 70
    24
 71
     3
 72
     8
 73
     4
 74
     0
 42
0.0000000001
 43
0.0000000001
 40
0.0
 40
0.0
 40
0.0
 40
0.0
 40
1.0
 40
1.0
 40
1.0
 40
1.0
 10
17.1939
 20
13.7402
 30
0.0
 10
17.1939
 20
13.7402
 30
0.0
 10
17.1939
 20
17.2459
 30
0.0
 10
17.1939
 20
17.2459
 30
0.0
  0
SPLINE
  5
BC
330
1F
100
AcDbEntity
  8
VRSTVA_1
 62
   250
100
AcDbSpline
210
0.0
220
0.0
230
1.0
 70
    24
 71
     3
 72
     8
 73
     4
 74
     0
 42
0.0000000001
 43
0.0000000001
 40
0.0
 40
0.0
 40
0.0
 40
0.0
 40
1.0
 40
1.0
 40
1.0
 40
1.0
 10
0.5311
 20
-18.9857
 30
0.0
 10
0.5311
 20
-18.9857
 30
0.0
 10
0.5311
 20
-8.289
 30
0.0
 10
0.5311
 20
-8.289
 30
0.0
  0
SPLINE
  5
BD
330
1F
100
AcDbEntity
  8
VRSTVA_1
 62
   250
100
AcDbSpline
210
0.0
220
0.0
230
1.0
 70
    24
 71
     3
 72
     8
 73
     4
 74
     0
 42
0.0000000001
 43
0.0000000001
 40
0.0
 40
0.0
 40
0.0
 40
0.0
 40
1.0
 40
1.0
 40
1.0
 40
1.0
 10
-23.9294
 20
13.9387
 30
0.0
 10
-23.9294
 20
13.9387
 30
0.0
 10
-23.9294
 20
17.1135
 30
0.0
 10
-23.9294
 20
17.1135
 30
0.0
  0
SPLINE
  5
BE
330
1F
100
AcDbEntity
  8
VRSTVA_1
 62
   250
100
AcDbSpline
210
0.0
220
0.0
230
1.0
 70
    24
 71
     3
 72
     8
 73
     4
 74
     0
 42
0.0000000001
 43
0.0000000001
 40
0.0
 40
0.0
 40
0.0
 40
0.0
 40
1.0
 40
1.0
 40
1.0
 40
1.0
 10
-23.9227
 20
-18.7045
 30
0.0
 10
-23.9227
 20
-18.7045
 30
0.0
 10
-23.9227
 20
-14.7696
 30
0.0
 10
-23.9227
 20
-14.7696
 30
0.0
  0
SPLINE
  5
BF
330
1F
100
AcDbEntity
  8
VRSTVA_1
 62
   250
100
AcDbSpline
210
0.0
220
0.0
230
1.0
 70
    24
 71
     3
 72
     8
 73
     4
 74
     0
 42
0.0000000001
 43
0.0000000001
 40
0.0
 40
0.0
 40
0.0
 40
0.0
 40
1.0
 40
1.0
 40
1.0
 40
1.0
 10
17.1939
 20
16.6418
 30
0.0
 10
17.1939
 20
16.6418
 30
0.0
 10
-23.5362
 20
16.6418
 30
0.0
 10
-23.5362
 20
16.6418
 30
0.0
  0
SPLINE
  5
C0
330
1F
100
AcDbEntity
  8
VRSTVA_1
 62
   250
100
AcDbSpline
210
0.0
220
0.0
230
1.0
 70
    24
 71
     3
 72
     8
 73
     4
 74
     0
 42
0.0000000001
 43
0.0000000001
 40
0.0
 40
0.0
 40
0.0
 40
0.0
 40
1.0
 40
1.0
 40
1.0
 40
1.0
 10
0.1576
 20
-18.3746
 30
0.0
 10
0.1576
 20
-18.3746
 30
0.0
 10
-23.5302
 20
-18.3746
 30
0.0
 10
-23.5302
 20
-18.3746
 30
0.0
  0
SPLINE
  5
C1
330
1F
100
AcDbEntity
  8
VRSTVA_1
 62
   250
100
AcDbSpline
210
0.0
220
0.0
230
1.0
 70
    11
 71
     3
 72
    92
 73
    88
 74
     0
 42
0.0000000001
 43
0.0000000001
 40
0.0
 40
0.0
 40
0.0
 40
0.0
 40
0.0434782608695652
 40
0.0434782608695652
 40
0.0434782608695652
 40
0.0434782608695652
 40
0.0869565217391304
 40
0.0869565217391304
 40
0.0869565217391304
 40
0.0869565217391304
 40
0.1304347826086956
 40
0.1304347826086956
 40
0.1304347826086956
 40
0.1304347826086956
 40
0.1739130434782609
 40
0.1739130434782609
 40
0.1739130434782609
 40
0.1739130434782609
 40
0.2173913043478261
 40
0.2173913043478261
 40
0.2173913043478261
 40
0.2173913043478261
 40
0.2608695652173913
 40
0.2608695652173913
 40
0.2608695652173913
 40
0.2608695652173913
 40
0.3043478260869565
 40
0.3043478260869565
 40
0.3043478260869565
 40
0.3043478260869565
 40
0.3478260869565217
 40
0.3478260869565217
 40
0.3478260869565217
 40
0.3478260869565217
 40
0.391304347826087
 40
0.391304347826087
 40
0.391304347826087
 40
0.391304347826087
 40
0.4347826086956522
 40
0.4347826086956522
 40
0.4347826086956522
 40
0.4347826086956522
 40
0.4782608695652174
 40
0.4782608695652174
 40
0.4782608695652174
 40
0.4782608695652174
 40
0.5217391304347826
 40
0.5217391304347826
 40
0.5217391304347826
 40
0.5217391304347826
 40
0.5652173913043478
 40
0.5652173913043478
 40
0.5652173913043478
 40
0.5652173913043478
 40
0.6086956521739131
 40
0.6086956521739131
 40
0.6086956521739131
 40
0.6086956521739131
 40
0.6521739130434783
 40
0.6521739130434783
 40
0.6521739130434783
 40
0.6521739130434783
 40
0.6956521739130435
 40
0.6956521739130435
 40
0.6956521739130435
 40
0.6956521739130435
 40
0.7391304347826086
 40
0.7391304347826086
 40
0.7391304347826086
 40
0.7391304347826086
 40
0.782608695652174
 40
0.782608695652174
 40
0.782608695652174
 40
0.782608695652174
 40
0.8260869565217391
 40
0.8260869565217391
 40
0.8260869565217391
 40
0.8260869565217391
 40
0.8695652173913043
 40
0.8695652173913043
 40
0.8695652173913043
 40
0.8695652173913043
 40
0.9130434782608695
 40
0.9130434782608695
 40
0.9130434782608695
 40
0.9130434782608695
 40
1.0
 40
1.0
 40
1.0
 40
1.0
 10
-4.169
 20
17.2751
 30
0.0
 10
-4.169
 20
17.2751
 30
0.0
 10
-4.169
 20
17.0366
 30
0.0
 10
-4.169
 20
17.0366
 30
0.0
 10
-4.169
 20
17.0366
 30
0.0
 10
-4.169
 20
17.0366
 30
0.0
 10
-5.5044
 20
17.0366
 30
0.0
 10
-5.5044
 20
17.0366
 30
0.0
 10
-5.5044
 20
17.0366
 30
0.0
 10
-5.5063
 20
17.0963
 30
0.0
 10
-5.4969
 20
17.1537
 30
0.0
 10
-5.4757
 20
17.2088
 30
0.0
 10
-5.4757
 20
17.2088
 30
0.0
 10
-5.4418
 20
17.3
 30
0.0
 10
-5.3873
 20
17.3894
 30
0.0
 10
-5.3125
 20
17.4778
 30
0.0
 10
-5.3125
 20
17.4778
 30
0.0
 10
-5.2372
 20
17.5658
 30
0.0
 10
-5.129
 20
17.6678
 30
0.0
 10
-4.9879
 20
17.7835
 30
0.0
 10
-4.9879
 20
17.7835
 30
0.0
 10
-4.7683
 20
17.9637
 30
0.0
 10
-4.6196
 20
18.1062
 30
0.0
 10
-4.5425
 20
18.2116
 30
0.0
 10
-4.5425
 20
18.2116
 30
0.0
 10
-4.4654
 20
18.3165
 30
0.0
 10
-4.4268
 20
18.4162
 30
0.0
 10
-4.4268
 20
18.5098
 30
0.0
 10
-4.4268
 20
18.5098
 30
0.0
 10
-4.4268
 20
18.6081
 30
0.0
 10
-4.4621
 20
18.6909
 30
0.0
 10
-4.5321
 20
18.7586
 30
0.0
 10
-4.5321
 20
18.7586
 30
0.0
 10
-4.6027
 20
18.8259
 30
0.0
 10
-4.6944
 20
18.8597
 30
0.0
 10
-4.8073
 20
18.8597
 30
0.0
 10
-4.8073
 20
18.8597
 30
0.0
 10
-4.9268
 20
18.8597
 30
0.0
 10
-5.0223
 20
18.824
 30
0.0
 10
-5.0938
 20
18.752
 30
0.0
 10
-5.0938
 20
18.752
 30
0.0
 10
-5.1657
 20
18.6805
 30
0.0
 10
-5.2019
 20
18.5813
 30
0.0
 10
-5.2029
 20
18.4548
 30
0.0
 10
-5.2029
 20
18.4548
 30
0.0
 10
-5.2029
 20
18.4548
 30
0.0
 10
-5.4578
 20
18.4806
 30
0.0
 10
-5.4578
 20
18.4806
 30
0.0
 10
-5.4578
 20
18.4806
 30
0.0
 10
-5.4404
 20
18.6711
 30
0.0
 10
-5.3746
 20
18.816
 30
0.0
 10
-5.2607
 20
18.9157
 30
0.0
 10
-5.2607
 20
18.9157
 30
0.0
 10
-5.1469
 20
19.0154
 30
0.0
 10
-4.9936
 20
19.0653
 30
0.0
 10
-4.8017
 20
19.0653
 30
0.0
 10
-4.8017
 20
19.0653
 30
0.0
 10
-4.6079
 20
19.0653
 30
0.0
 10
-4.4545
 20
19.0112
 30
0.0
 10
-4.3416
 20
18.904
 30
0.0
 10
-4.3416
 20
18.904
 30
0.0
 10
-4.2283
 20
18.7962
 30
0.0
 10
-4.1718
 20
18.6631
 30
0.0
 10
-4.1718
 20
18.5041
 30
0.0
 10
-4.1718
 20
18.5041
 30
0.0
 10
-4.1718
 20
18.4232
 30
0.0
 10
-4.1883
 20
18.3437
 30
0.0
 10
-4.2217
 20
18.2657
 30
0.0
 10
-4.2217
 20
18.2657
 30
0.0
 10
-4.2546
 20
18.1876
 30
0.0
 10
-4.3097
 20
18.1053
 30
0.0
 10
-4.3863
 20
18.0192
 30
0.0
 10
-4.3863
 20
18.0192
 30
0.0
 10
-4.463
 20
17.9326
 30
0.0
 10
-4.5905
 20
17.8141
 30
0.0
 10
-4.7687
 20
17.6636
 30
0.0
 10
-4.7687
 20
17.6636
 30
0.0
 10
-4.9174
 20
17.5385
 30
0.0
 10
-5.0129
 20
17.4538
 30
0.0
 10
-5.0552
 20
17.4091
 30
0.0
 10
-5.0552
 20
17.4091
 30
0.0
 10
-5.0975
 20
17.3649
 30
0.0
 10
-5.1323
 20
17.3202
 30
0.0
 10
-5.1601
 20
17.2751
 30
0.0
 10
-5.1601
 20
17.2751
 30
0.0
 10
-5.1601
 20
17.2751
 30
0.0
 10
-4.169
 20
17.2751
 30
0.0
 10
-4.169
 20
17.2751
 30
0.0
  0
SPLINE
  5
C2
330
1F
100
AcDbEntity
  8
VRSTVA_1
 62
   250
100
AcDbSpline
210
0.0
220
0.0
230
1.0
 70
    11
 71
     3
 72
    48
 73
    44
 74
     0
 42
0.0000000001
 43
0.0000000001
 40
0.0
 40
0.0
 40
0.0
 40
0.0
 40
0.0833333333333333
 40
0.0833333333333333
 40
0.0833333333333333
 40
0.0833333333333333
 40
0.1666666666666667
 40
0.1666666666666667
 40
0.1666666666666667
 40
0.1666666666666667
 40
0.25
 40
0.25
 40
0.25
 40
0.25
 40
0.3333333333333333
 40
0.3333333333333333
 40
0.3333333333333333
 40
0.3333333333333333
 40
0.4166666666666667
 40
0.4166666666666667
 40
0.4166666666666667
 40
0.4166666666666667
 40
0.5
 40
0.5
 40
0.5
 40
0.5
 40
0.5833333333333334
 40
0.5833333333333334
 40
0.5833333333333334
 40
0.5833333333333334
 40
0.6666666666666666
 40
0.6666666666666666
 40
0.6666666666666666
 40
0.6666666666666666
 40
0.75
 40
0.75
 40
0.75
 40
0.75
 40
0.8333333333333334
 40
0.8333333333333334
 40
0.8333333333333334
 40
0.8333333333333334
 40
1.0
 40
1.0
 40
1.0
 40
1.0
 10
-3.1084
 20
17.0366
 30
0.0
 10
-3.1084
 20
17.0366
 30
0.0
 10
-3.1084
 20
17.5201
 30
0.0
 10
-3.1084
 20
17.5201
 30
0.0
 10
-3.1084
 20
17.5201
 30
0.0
 10
-3.1084
 20
17.5201
 30
0.0
 10
-3.9847
 20
17.5201
 30
0.0
 10
-3.9847
 20
17.5201
 30
0.0
 10
-3.9847
 20
17.5201
 30
0.0
 10
-3.9847
 20
17.5201
 30
0.0
 10
-3.9847
 20
17.7478
 30
0.0
 10
-3.9847
 20
17.7478
 30
0.0
 10
-3.9847
 20
17.7478
 30
0.0
 10
-3.9847
 20
17.7478
 30
0.0
 10
-3.0627
 20
19.0568
 30
0.0
 10
-3.0627
 20
19.0568
 30
0.0
 10
-3.0627
 20
19.0568
 30
0.0
 10
-3.0627
 20
19.0568
 30
0.0
 10
-2.86
 20
19.0568
 30
0.0
 10
-2.86
 20
19.0568
 30
0.0
 10
-2.86
 20
19.0568
 30
0.0
 10
-2.86
 20
19.0568
 30
0.0
 10
-2.86
 20
17.7478
 30
0.0
 10
-2.86
 20
17.7478
 30
0.0
 10
-2.86
 20
17.7478
 30
0.0
 10
-2.86
 20
17.7478
 30
0.0
 10
-2.5872
 20
17.7478
 30
0.0
 10
-2.5872
 20
17.7478
 30
0.0
 10
-2.5872
 20
17.7478
 30
0.0
 10
-2.5872
 20
17.7478
 30
0.0
 10
-2.5872
 20
17.5201
 30
0.0
 10
-2.5872
 20
17.5201
 30
0.0
 10
-2.5872
 20
17.5201
 30
0.0
 10
-2.5872
 20
17.5201
 30
0.0
 10
-2.86
 20
17.5201
 30
0.0
 10
-2.86
 20
17.5201
 30
0.0
 10
-2.86
 20
17.5201
 30
0.0
 10
-2.86
 20
17.5201
 30
0.0
 10
-2.86
 20
17.0366
 30
0.0
 10
-2.86
 20
17.0366
 30
0.0
 10
-2.86
 20
17.0366
 30
0.0
 10
-2.86
 20
17.0366
 30
0.0
 10
-3.1084
 20
17.0366
 30
0.0
 10
-3.1084
 20
17.0366
 30
0.0
  0
SPLINE
  5
C3
330
1F
100
AcDbEntity
  8
VRSTVA_1
 62
   250
100
AcDbSpline
210
0.0
220
0.0
230
1.0
 70
    11
 71
     3
 72
    16
 73
    12
 74
     0
 42
0.0000000001
 43
0.0000000001
 40
0.0
 40
0.0
 40
0.0
 40
0.0
 40
0.25
 40
0.25
 40
0.25
 40
0.25
 40
0.5
 40
0.5
 40
0.5
 40
0.5
 40
1.0
 40
1.0
 40
1.0
 40
1.0
 10
-3.1084
 20
17.7478
 30
0.0
 10
-3.1084
 20
17.7478
 30
0.0
 10
-3.1084
 20
18.6584
 30
0.0
 10
-3.1084
 20
18.6584
 30
0.0
 10
-3.1084
 20
18.6584
 30
0.0
 10
-3.1084
 20
18.6584
 30
0.0
 10
-3.7405
 20
17.7478
 30
0.0
 10
-3.7405
 20
17.7478
 30
0.0
 10
-3.7405
 20
17.7478
 30
0.0
 10
-3.7405
 20
17.7478
 30
0.0
 10
-3.1084
 20
17.7478
 30
0.0
 10
-3.1084
 20
17.7478
 30
0.0
  0
SPLINE
  5
C4
330
1F
100
AcDbEntity
  8
VRSTVA_1
 62
   250
100
AcDbSpline
210
0.0
220
0.0
230
1.0
 70
    11
 71
     3
 72
    48
 73
    44
 74
     0
 42
0.0000000001
 43
0.0000000001
 40
0.0
 40
0.0
 40
0.0
 40
0.0
 40
0.0833333333333333
 40
0.0833333333333333
 40
0.0833333333333333
 40
0.0833333333333333
 40
0.1666666666666667
 40
0.1666666666666667
 40
0.1666666666666667
 40
0.1666666666666667
 40
0.25
 40
0.25
 40
0.25
 40
0.25
 40
0.3333333333333333
 40
0.3333333333333333
 40
0.3333333333333333
 40
0.3333333333333333
 40
0.4166666666666667
 40
0.4166666666666667
 40
0.4166666666666667
 40
0.4166666666666667
 40
0.5
 40
0.5
 40
0.5
 40
0.5
 40
0.5833333333333334
 40
0.5833333333333334
 40
0.5833333333333334
 40
0.5833333333333334
 40
0.6666666666666666
 40
0.6666666666666666
 40
0.6666666666666666
 40
0.6666666666666666
 40
0.75
 40
0.75
 40
0.75
 40
0.75
 40
0.8333333333333334
 40
0.8333333333333334
 40
0.8333333333333334
 40
0.8333333333333334
 40
1.0
 40
1.0
 40
1.0
 40
1.0
 10
-2.3172
 20
18.792
 30
0.0
 10
-2.3172
 20
18.792
 30
0.0
 10
-2.3172
 20
19.0305
 30
0.0
 10
-2.3172
 20
19.0305
 30
0.0
 10
-2.3172
 20
19.0305
 30
0.0
 10
-2.3172
 20
19.0305
 30
0.0
 10
-1.0096
 20
19.0305
 30
0.0
 10
-1.0096
 20
19.0305
 30
0.0
 10
-1.0096
 20
19.0305
 30
0.0
 10
-1.0096
 20
19.0305
 30
0.0
 10
-1.0096
 20
18.8376
 30
0.0
 10
-1.0096
 20
18.8376
 30
0.0
 10
-1.0096
 20
18.8376
 30
0.0
 10
-1.138
 20
18.7008
 30
0.0
 10
-1.2655
 20
18.5187
 30
0.0
 10
-1.392
 20
18.292
 30
0.0
 10
-1.392
 20
18.292
 30
0.0
 10
-1.5181
 20
18.0653
 30
0.0
 10
-1.6159
 20
17.8315
 30
0.0
 10
-1.6846
 20
17.5921
 30
0.0
 10
-1.6846
 20
17.5921
 30
0.0
 10
-1.7344
 20
17.4228
 30
0.0
 10
-1.7659
 20
17.2379
 30
0.0
 10
-1.7796
 20
17.0366
 30
0.0
 10
-1.7796
 20
17.0366
 30
0.0
 10
-1.7796
 20
17.0366
 30
0.0
 10
-2.0345
 20
17.0366
 30
0.0
 10
-2.0345
 20
17.0366
 30
0.0
 10
-2.0345
 20
17.0366
 30
0.0
 10
-2.0317
 20
17.1956
 30
0.0
 10
-2.0007
 20
17.3875
 30
0.0
 10
-1.9409
 20
17.6128
 30
0.0
 10
-1.9409
 20
17.6128
 30
0.0
 10
-1.8812
 20
17.8376
 30
0.0
 10
-1.7956
 20
18.0549
 30
0.0
 10
-1.6841
 20
18.2638
 30
0.0
 10
-1.6841
 20
18.2638
 30
0.0
 10
-1.5722
 20
18.4726
 30
0.0
 10
-1.4536
 20
18.649
 30
0.0
 10
-1.3276
 20
18.792
 30
0.0
 10
-1.3276
 20
18.792
 30
0.0
 10
-1.3276
 20
18.792
 30
0.0
 10
-2.3172
 20
18.792
 30
0.0
 10
-2.3172
 20
18.792
 30
0.0
  0
SPLINE
  5
C5
330
1F
100
AcDbEntity
  8
VRSTVA_1
 62
   250
100
AcDbSpline
210
0.0
220
0.0
230
1.0
 70
    11
 71
     3
 72
    40
 73
    36
 74
     0
 42
0.0000000001
 43
0.0000000001
 40
0.0
 40
0.0
 40
0.0
 40
0.0
 40
0.1
 40
0.1
 40
0.1
 40
0.1
 40
0.2
 40
0.2
 40
0.2
 40
0.2
 40
0.3
 40
0.3
 40
0.3
 40
0.3
 40
0.4
 40
0.4
 40
0.4
 40
0.4
 40
0.5
 40
0.5
 40
0.5
 40
0.5
 40
0.6
 40
0.6
 40
0.6
 40
0.6
 40
0.7
 40
0.7
 40
0.7
 40
0.7
 40
0.8
 40
0.8
 40
0.8
 40
0.8
 40
1.0
 40
1.0
 40
1.0
 40
1.0
 10
-13.2309
 20
-17.8475
 30
0.0
 10
-13.2309
 20
-17.8475
 30
0.0
 10
-13.4788
 20
-17.8475
 30
0.0
 10
-13.4788
 20
-17.8475
 30
0.0
 10
-13.4788
 20
-17.8475
 30
0.0
 10
-13.4788
 20
-17.8475
 30
0.0
 10
-13.4788
 20
-16.2671
 30
0.0
 10
-13.4788
 20
-16.2671
 30
0.0
 10
-13.4788
 20
-16.2671
 30
0.0
 10
-13.5386
 20
-16.324
 30
0.0
 10
-13.6166
 20
-16.3809
 30
0.0
 10
-13.7135
 20
-16.4378
 30
0.0
 10
-13.7135
 20
-16.4378
 30
0.0
 10
-13.8109
 20
-16.4947
 30
0.0
 10
-13.8979
 20
-16.5375
 30
0.0
 10
-13.9751
 20
-16.5658
 30
0.0
 10
-13.9751
 20
-16.5658
 30
0.0
 10
-13.9751
 20
-16.5658
 30
0.0
 10
-13.9751
 20
-16.3263
 30
0.0
 10
-13.9751
 20
-16.3263
 30
0.0
 10
-13.9751
 20
-16.3263
 30
0.0
 10
-13.8363
 20
-16.261
 30
0.0
 10
-13.7149
 20
-16.1819
 30
0.0
 10
-13.611
 20
-16.0893
 30
0.0
 10
-13.611
 20
-16.0893
 30
0.0
 10
-13.5075
 20
-15.9961
 30
0.0
 10
-13.4337
 20
-15.9063
 30
0.0
 10
-13.3904
 20
-15.8188
 30
0.0
 10
-13.3904
 20
-15.8188
 30
0.0
 10
-13.3904
 20
-15.8188
 30
0.0
 10
-13.2309
 20
-15.8188
 30
0.0
 10
-13.2309
 20
-15.8188
 30
0.0
 10
-13.2309
 20
-15.8188
 30
0.0
 10
-13.2309
 20
-15.8188
 30
0.0
 10
-13.2309
 20
-17.8475
 30
0.0
 10
-13.2309
 20
-17.8475
 30
0.0
  0
SPLINE
  5
C6
330
1F
100
AcDbEntity
  8
VRSTVA_1
 62
   250
100
AcDbSpline
210
0.0
220
0.0
230
1.0
 70
    11
 71
     3
 72
    48
 73
    44
 74
     0
 42
0.0000000001
 43
0.0000000001
 40
0.0
 40
0.0
 40
0.0
 40
0.0
 40
0.0833333333333333
 40
0.0833333333333333
 40
0.0833333333333333
 40
0.0833333333333333
 40
0.1666666666666667
 40
0.1666666666666667
 40
0.1666666666666667
 40
0.1666666666666667
 40
0.25
 40
0.25
 40
0.25
 40
0.25
 40
0.3333333333333333
 40
0.3333333333333333
 40
0.3333333333333333
 40
0.3333333333333333
 40
0.4166666666666667
 40
0.4166666666666667
 40
0.4166666666666667
 40
0.4166666666666667
 40
0.5
 40
0.5
 40
0.5
 40
0.5
 40
0.5833333333333334
 40
0.5833333333333334
 40
0.5833333333333334
 40
0.5833333333333334
 40
0.6666666666666666
 40
0.6666666666666666
 40
0.6666666666666666
 40
0.6666666666666666
 40
0.75
 40
0.75
 40
0.75
 40
0.75
 40
0.8333333333333334
 40
0.8333333333333334
 40
0.8333333333333334
 40
0.8333333333333334
 40
1.0
 40
1.0
 40
1.0
 40
1.0
 10
-11.8006
 20
-17.8475
 30
0.0
 10
-11.8006
 20
-17.8475
 30
0.0
 10
-11.8006
 20
-17.364
 30
0.0
 10
-11.8006
 20
-17.364
 30
0.0
 10
-11.8006
 20
-17.364
 30
0.0
 10
-11.8006
 20
-17.364
 30
0.0
 10
-12.6769
 20
-17.364
 30
0.0
 10
-12.6769
 20
-17.364
 30
0.0
 10
-12.6769
 20
-17.364
 30
0.0
 10
-12.6769
 20
-17.364
 30
0.0
 10
-12.6769
 20
-17.1363
 30
0.0
 10
-12.6769
 20
-17.1363
 30
0.0
 10
-12.6769
 20
-17.1363
 30
0.0
 10
-12.6769
 20
-17.1363
 30
0.0
 10
-11.7549
 20
-15.8273
 30
0.0
 10
-11.7549
 20
-15.8273
 30
0.0
 10
-11.7549
 20
-15.8273
 30
0.0
 10
-11.7549
 20
-15.8273
 30
0.0
 10
-11.5522
 20
-15.8273
 30
0.0
 10
-11.5522
 20
-15.8273
 30
0.0
 10
-11.5522
 20
-15.8273
 30
0.0
 10
-11.5522
 20
-15.8273
 30
0.0
 10
-11.5522
 20
-17.1363
 30
0.0
 10
-11.5522
 20
-17.1363
 30
0.0
 10
-11.5522
 20
-17.1363
 30
0.0
 10
-11.5522
 20
-17.1363
 30
0.0
 10
-11.2794
 20
-17.1363
 30
0.0
 10
-11.2794
 20
-17.1363
 30
0.0
 10
-11.2794
 20
-17.1363
 30
0.0
 10
-11.2794
 20
-17.1363
 30
0.0
 10
-11.2794
 20
-17.364
 30
0.0
 10
-11.2794
 20
-17.364
 30
0.0
 10
-11.2794
 20
-17.364
 30
0.0
 10
-11.2794
 20
-17.364
 30
0.0
 10
-11.5522
 20
-17.364
 30
0.0
 10
-11.5522
 20
-17.364
 30
0.0
 10
-11.5522
 20
-17.364
 30
0.0
 10
-11.5522
 20
-17.364
 30
0.0
 10
-11.5522
 20
-17.8475
 30
0.0
 10
-11.5522
 20
-17.8475
 30
0.0
 10
-11.5522
 20
-17.8475
 30
0.0
 10
-11.5522
 20
-17.8475
 30
0.0
 10
-11.8006
 20
-17.8475
 30
0.0
 10
-11.8006
 20
-17.8475
 30
0.0
  0
SPLINE
  5
C7
330
1F
100
AcDbEntity
  8
VRSTVA_1
 62
   250
100
AcDbSpline
210
0.0
220
0.0
230
1.0
 70
    11
 71
     3
 72
    16
 73
    12
 74
     0
 42
0.0000000001
 43
0.0000000001
 40
0.0
 40
0.0
 40
0.0
 40
0.0
 40
0.25
 40
0.25
 40
0.25
 40
0.25
 40
0.5
 40
0.5
 40
0.5
 40
0.5
 40
1.0
 40
1.0
 40
1.0
 40
1.0
 10
-11.8006
 20
-17.1363
 30
0.0
 10
-11.8006
 20
-17.1363
 30
0.0
 10
-11.8006
 20
-16.2257
 30
0.0
 10
-11.8006
 20
-16.2257
 30
0.0
 10
-11.8006
 20
-16.2257
 30
0.0
 10
-11.8006
 20
-16.2257
 30
0.0
 10
-12.4327
 20
-17.1363
 30
0.0
 10
-12.4327
 20
-17.1363
 30
0.0
 10
-12.4327
 20
-17.1363
 30
0.0
 10
-12.4327
 20
-17.1363
 30
0.0
 10
-11.8006
 20
-17.1363
 30
0.0
 10
-11.8006
 20
-17.1363
 30
0.0
  0
SPLINE
  5
C8
330
1F
100
AcDbEntity
  8
VRSTVA_1
 62
   250
100
AcDbSpline
210
0.0
220
0.0
230
1.0
 70
    11
 71
     3
 72
    80
 73
    76
 74
     0
 42
0.0000000001
 43
0.0000000001
 40
0.0
 40
0.0
 40
0.0
 40
0.0
 40
0.05
 40
0.05
 40
0.05
 40
0.05
 40
0.1
 40
0.1
 40
0.1
 40
0.1
 40
0.15
 40
0.15
 40
0.15
 40
0.15
 40
0.2
 40
0.2
 40
0.2
 40
0.2
 40
0.25
 40
0.25
 40
0.25
 40
0.25
 40
0.3
 40
0.3
 40
0.3
 40
0.3
 40
0.35
 40
0.35
 40
0.35
 40
0.35
 40
0.4
 40
0.4
 40
0.4
 40
0.4
 40
0.45
 40
0.45
 40
0.45
 40
0.45
 40
0.5
 40
0.5
 40
0.5
 40
0.5
 40
0.55
 40
0.55
 40
0.55
 40
0.55
 40
0.6
 40
0.6
 40
0.6
 40
0.6
 40
0.65
 40
0.65
 40
0.65
 40
0.65
 40
0.7
 40
0.7
 40
0.7
 40
0.7
 40
0.75
 40
0.75
 40
0.75
 40
0.75
 40
0.8
 40
0.8
 40
0.8
 40
0.8
 40
0.85
 40
0.85
 40
0.85
 40
0.85
 40
0.9
 40
0.9
 40
0.9
 40
0.9
 40
1.0
 40
1.0
 40
1.0
 40
1.0
 10
-9.739
 20
-16.3221
 30
0.0
 10
-9.739
 20
-16.3221
 30
0.0
 10
-9.9854
 20
-16.3414
 30
0.0
 10
-9.9854
 20
-16.3414
 30
0.0
 10
-9.9854
 20
-16.3414
 30
0.0
 10
-10.0075
 20
-16.244
 30
0.0
 10
-10.0386
 20
-16.173
 30
0.0
 10
-10.079
 20
-16.1293
 30
0.0
 10
-10.079
 20
-16.1293
 30
0.0
 10
-10.1463
 20
-16.0582
 30
0.0
 10
-10.2291
 20
-16.0229
 30
0.0
 10
-10.3274
 20
-16.0229
 30
0.0
 10
-10.3274
 20
-16.0229
 30
0.0
 10
-10.4064
 20
-16.0229
 30
0.0
 10
-10.4755
 20
-16.0451
 30
0.0
 10
-10.5353
 20
-16.0893
 30
0.0
 10
-10.5353
 20
-16.0893
 30
0.0
 10
-10.6134
 20
-16.1462
 30
0.0
 10
-10.675
 20
-16.2294
 30
0.0
 10
-10.7201
 20
-16.3386
 30
0.0
 10
-10.7201
 20
-16.3386
 30
0.0
 10
-10.7648
 20
-16.4477
 30
0.0
 10
-10.7883
 20
-16.6034
 30
0.0
 10
-10.7902
 20
-16.8056
 30
0.0
 10
-10.7902
 20
-16.8056
 30
0.0
 10
-10.7305
 20
-16.7149
 30
0.0
 10
-10.6576
 20
-16.6471
 30
0.0
 10
-10.571
 20
-16.6029
 30
0.0
 10
-10.571
 20
-16.6029
 30
0.0
 10
-10.485
 20
-16.5592
 30
0.0
 10
-10.3942
 20
-16.5371
 30
0.0
 10
-10.2996
 20
-16.5371
 30
0.0
 10
-10.2996
 20
-16.5371
 30
0.0
 10
-10.1341
 20
-16.5371
 30
0.0
 10
-9.9934
 20
-16.5977
 30
0.0
 10
-9.8772
 20
-16.7196
 30
0.0
 10
-9.8772
 20
-16.7196
 30
0.0
 10
-9.7611
 20
-16.8414
 30
0.0
 10
-9.7027
 20
-16.9985
 30
0.0
 10
-9.7027
 20
-17.1913
 30
0.0
 10
-9.7027
 20
-17.1913
 30
0.0
 10
-9.7027
 20
-17.3183
 30
0.0
 10
-9.7305
 20
-17.4359
 30
0.0
 10
-9.7851
 20
-17.5451
 30
0.0
 10
-9.7851
 20
-17.5451
 30
0.0
 10
-9.8396
 20
-17.6537
 30
0.0
 10
-9.9149
 20
-17.7374
 30
0.0
 10
-10.0104
 20
-17.7953
 30
0.0
 10
-10.0104
 20
-17.7953
 30
0.0
 10
-10.1058
 20
-17.8531
 30
0.0
 10
-10.214
 20
-17.8818
 30
0.0
 10
-10.3354
 20
-17.8818
 30
0.0
 10
-10.3354
 20
-17.8818
 30
0.0
 10
-10.5423
 20
-17.8818
 30
0.0
 10
-10.7107
 20
-17.8061
 30
0.0
 10
-10.841
 20
-17.6537
 30
0.0
 10
-10.841
 20
-17.6537
 30
0.0
 10
-10.9718
 20
-17.5018
 30
0.0
 10
-11.0367
 20
-17.2511
 30
0.0
 10
-11.0367
 20
-16.9021
 30
0.0
 10
-11.0367
 20
-16.9021
 30
0.0
 10
-11.0367
 20
-16.5117
 30
0.0
 10
-10.9647
 20
-16.228
 30
0.0
 10
-10.8203
 20
-16.0507
 30
0.0
 10
-10.8203
 20
-16.0507
 30
0.0
 10
-10.6947
 20
-15.8964
 30
0.0
 10
-10.5254
 20
-15.8188
 30
0.0
 10
-10.3119
 20
-15.8188
 30
0.0
 10
-10.3119
 20
-15.8188
 30
0.0
 10
-10.1533
 20
-15.8188
 30
0.0
 10
-10.0231
 20
-15.8635
 30
0.0
 10
-9.9215
 20
-15.9529
 30
0.0
 10
-9.9215
 20
-15.9529
 30
0.0
 10
-9.8199
 20
-16.0418
 30
0.0
 10
-9.7592
 20
-16.165
 30
0.0
 10
-9.739
 20
-16.3221
 30
0.0
  0
SPLINE
  5
C9
330
1F
100
AcDbEntity
  8
VRSTVA_1
 62
   250
100
AcDbSpline
210
0.0
220
0.0
230
1.0
 70
    11
 71
     3
 72
    40
 73
    36
 74
     0
 42
0.0000000001
 43
0.0000000001
 40
0.0
 40
0.0
 40
0.0
 40
0.0
 40
0.1
 40
0.1
 40
0.1
 40
0.1
 40
0.2
 40
0.2
 40
0.2
 40
0.2
 40
0.3
 40
0.3
 40
0.3
 40
0.3
 40
0.4
 40
0.4
 40
0.4
 40
0.4
 40
0.5
 40
0.5
 40
0.5
 40
0.5
 40
0.6
 40
0.6
 40
0.6
 40
0.6
 40
0.7
 40
0.7
 40
0.7
 40
0.7
 40
0.8
 40
0.8
 40
0.8
 40
0.8
 40
1.0
 40
1.0
 40
1.0
 40
1.0
 10
-10.7517
 20
-17.1927
 30
0.0
 10
-10.7517
 20
-17.2784
 30
0.0
 10
-10.7333
 20
-17.3602
 30
0.0
 10
-10.6971
 20
-17.4383
 30
0.0
 10
-10.6971
 20
-17.4383
 30
0.0
 10
-10.6609
 20
-17.5164
 30
0.0
 10
-10.6101
 20
-17.5756
 30
0.0
 10
-10.5452
 20
-17.6165
 30
0.0
 10
-10.5452
 20
-17.6165
 30
0.0
 10
-10.4798
 20
-17.6575
 30
0.0
 10
-10.4111
 20
-17.6782
 30
0.0
 10
-10.3396
 20
-17.6782
 30
0.0
 10
-10.3396
 20
-17.6782
 30
0.0
 10
-10.2347
 20
-17.6782
 30
0.0
 10
-10.1449
 20
-17.6358
 30
0.0
 10
-10.0696
 20
-17.5512
 30
0.0
 10
-10.0696
 20
-17.5512
 30
0.0
 10
-9.9944
 20
-17.4665
 30
0.0
 10
-9.9567
 20
-17.3517
 30
0.0
 10
-9.9567
 20
-17.2069
 30
0.0
 10
-9.9567
 20
-17.2069
 30
0.0
 10
-9.9567
 20
-17.0672
 30
0.0
 10
-9.9939
 20
-16.9571
 30
0.0
 10
-10.0682
 20
-16.8767
 30
0.0
 10
-10.0682
 20
-16.8767
 30
0.0
 10
-10.1425
 20
-16.7962
 30
0.0
 10
-10.2361
 20
-16.7562
 30
0.0
 10
-10.349
 20
-16.7562
 30
0.0
 10
-10.349
 20
-16.7562
 30
0.0
 10
-10.4614
 20
-16.7562
 30
0.0
 10
-10.5565
 20
-16.7962
 30
0.0
 10
-10.6345
 20
-16.8767
 30
0.0
 10
-10.6345
 20
-16.8767
 30
0.0
 10
-10.7126
 20
-16.9571
 30
0.0
 10
-10.7517
 20
-17.0625
 30
0.0
 10
-10.7517
 20
-17.1927
 30
0.0
  0
SPLINE
  5
CA
330
1F
100
AcDbEntity
  8
VRSTVA_1
 62
   250
100
AcDbSpline
210
0.0
220
0.0
230
1.0
 70
    11
 71
     3
 72
    40
 73
    36
 74
     0
 42
0.0000000001
 43
0.0000000001
 40
0.0
 40
0.0
 40
0.0
 40
0.0
 40
0.1
 40
0.1
 40
0.1
 40
0.1
 40
0.2
 40
0.2
 40
0.2
 40
0.2
 40
0.3
 40
0.3
 40
0.3
 40
0.3
 40
0.4
 40
0.4
 40
0.4
 40
0.4
 40
0.5
 40
0.5
 40
0.5
 40
0.5
 40
0.6
 40
0.6
 40
0.6
 40
0.6
 40
0.7
 40
0.7
 40
0.7
 40
0.7
 40
0.8
 40
0.8
 40
0.8
 40
0.8
 40
1.0
 40
1.0
 40
1.0
 40
1.0
 10
-30.8069
 20
-1.5994
 30
0.0
 10
-30.8069
 20
-1.5994
 30
0.0
 10
-30.8069
 20
-1.8473
 30
0.0
 10
-30.8069
 20
-1.8473
 30
0.0
 10
-30.8069
 20
-1.8473
 30
0.0
 10
-30.8069
 20
-1.8473
 30
0.0
 10
-32.3873
 20
-1.8473
 30
0.0
 10
-32.3873
 20
-1.8473
 30
0.0
 10
-32.3873
 20
-1.8473
 30
0.0
 10
-32.3304
 20
-1.9071
 30
0.0
 10
-32.2735
 20
-1.9851
 30
0.0
 10
-32.2166
 20
-2.082
 30
0.0
 10
-32.2166
 20
-2.082
 30
0.0
 10
-32.1597
 20
-2.1794
 30
0.0
 10
-32.1169
 20
-2.2664
 30
0.0
 10
-32.0886
 20
-2.3436
 30
0.0
 10
-32.0886
 20
-2.3436
 30
0.0
 10
-32.0886
 20
-2.3436
 30
0.0
 10
-32.3281
 20
-2.3436
 30
0.0
 10
-32.3281
 20
-2.3436
 30
0.0
 10
-32.3281
 20
-2.3436
 30
0.0
 10
-32.3934
 20
-2.2048
 30
0.0
 10
-32.4725
 20
-2.0834
 30
0.0
 10
-32.5651
 20
-1.9795
 30
0.0
 10
-32.5651
 20
-1.9795
 30
0.0
 10
-32.6583
 20
-1.876
 30
0.0
 10
-32.7481
 20
-1.8022
 30
0.0
 10
-32.8356
 20
-1.7589
 30
0.0
 10
-32.8356
 20
-1.7589
 30
0.0
 10
-32.8356
 20
-1.7589
 30
0.0
 10
-32.8356
 20
-1.5994
 30
0.0
 10
-32.8356
 20
-1.5994
 30
0.0
 10
-32.8356
 20
-1.5994
 30
0.0
 10
-32.8356
 20
-1.5994
 30
0.0
 10
-30.8069
 20
-1.5994
 30
0.0
 10
-30.8069
 20
-1.5994
 30
0.0
  0
SPLINE
  5
CB
330
1F
100
AcDbEntity
  8
VRSTVA_1
 62
   250
100
AcDbSpline
210
0.0
220
0.0
230
1.0
 70
    11
 71
     3
 72
    80
 73
    76
 74
     0
 42
0.0000000001
 43
0.0000000001
 40
0.0
 40
0.0
 40
0.0
 40
0.0
 40
0.05
 40
0.05
 40
0.05
 40
0.05
 40
0.1
 40
0.1
 40
0.1
 40
0.1
 40
0.15
 40
0.15
 40
0.15
 40
0.15
 40
0.2
 40
0.2
 40
0.2
 40
0.2
 40
0.25
 40
0.25
 40
0.25
 40
0.25
 40
0.3
 40
0.3
 40
0.3
 40
0.3
 40
0.35
 40
0.35
 40
0.35
 40
0.35
 40
0.4
 40
0.4
 40
0.4
 40
0.4
 40
0.45
 40
0.45
 40
0.45
 40
0.45
 40
0.5
 40
0.5
 40
0.5
 40
0.5
 40
0.55
 40
0.55
 40
0.55
 40
0.55
 40
0.6
 40
0.6
 40
0.6
 40
0.6
 40
0.65
 40
0.65
 40
0.65
 40
0.65
 40
0.7
 40
0.7
 40
0.7
 40
0.7
 40
0.75
 40
0.75
 40
0.75
 40
0.75
 40
0.8
 40
0.8
 40
0.8
 40
0.8
 40
0.85
 40
0.85
 40
0.85
 40
0.85
 40
0.9
 40
0.9
 40
0.9
 40
0.9
 40
1.0
 40
1.0
 40
1.0
 40
1.0
 10
-32.3323
 20
0.3229
 30
0.0
 10
-32.3323
 20
0.3229
 30
0.0
 10
-32.313
 20
0.0765
 30
0.0
 10
-32.313
 20
0.0765
 30
0.0
 10
-32.313
 20
0.0765
 30
0.0
 10
-32.4104
 20
0.0544
 30
0.0
 10
-32.4814
 20
0.0233
 30
0.0
 10
-32.5251
 20
-0.0171
 30
0.0
 10
-32.5251
 20
-0.0171
 30
0.0
 10
-32.5962
 20
-0.0844
 30
0.0
 10
-32.6315
 20
-0.1672
 30
0.0
 10
-32.6315
 20
-0.2655
 30
0.0
 10
-32.6315
 20
-0.2655
 30
0.0
 10
-32.6315
 20
-0.3445
 30
0.0
 10
-32.6093
 20
-0.4136
 30
0.0
 10
-32.5651
 20
-0.4734
 30
0.0
 10
-32.5651
 20
-0.4734
 30
0.0
 10
-32.5082
 20
-0.5515
 30
0.0
 10
-32.425
 20
-0.6131
 30
0.0
 10
-32.3158
 20
-0.6582
 30
0.0
 10
-32.3158
 20
-0.6582
 30
0.0
 10
-32.2067
 20
-0.7029
 30
0.0
 10
-32.051
 20
-0.7264
 30
0.0
 10
-31.8488
 20
-0.7283
 30
0.0
 10
-31.8488
 20
-0.7283
 30
0.0
 10
-31.9395
 20
-0.6686
 30
0.0
 10
-32.0073
 20
-0.5957
 30
0.0
 10
-32.0515
 20
-0.5091
 30
0.0
 10
-32.0515
 20
-0.5091
 30
0.0
 10
-32.0952
 20
-0.4231
 30
0.0
 10
-32.1173
 20
-0.3323
 30
0.0
 10
-32.1173
 20
-0.2377
 30
0.0
 10
-32.1173
 20
-0.2377
 30
0.0
 10
-32.1173
 20
-0.0722
 30
0.0
 10
-32.0567
 20
0.0685
 30
0.0
 10
-31.9348
 20
0.1847
 30
0.0
 10
-31.9348
 20
0.1847
 30
0.0
 10
-31.813
 20
0.3008
 30
0.0
 10
-31.6559
 20
0.3592
 30
0.0
 10
-31.4631
 20
0.3592
 30
0.0
 10
-31.4631
 20
0.3592
 30
0.0
 10
-31.3361
 20
0.3592
 30
0.0
 10
-31.2185
 20
0.3314
 30
0.0
 10
-31.1093
 20
0.2768
 30
0.0
 10
-31.1093
 20
0.2768
 30
0.0
 10
-31.0007
 20
0.2223
 30
0.0
 10
-30.917
 20
0.147
 30
0.0
 10
-30.8591
 20
0.0515
 30
0.0
 10
-30.8591
 20
0.0515
 30
0.0
 10
-30.8013
 20
-0.0439
 30
0.0
 10
-30.7726
 20
-0.1521
 30
0.0
 10
-30.7726
 20
-0.2735
 30
0.0
 10
-30.7726
 20
-0.2735
 30
0.0
 10
-30.7726
 20
-0.4804
 30
0.0
 10
-30.8483
 20
-0.6488
 30
0.0
 10
-31.0007
 20
-0.7791
 30
0.0
 10
-31.0007
 20
-0.7791
 30
0.0
 10
-31.1526
 20
-0.9099
 30
0.0
 10
-31.4033
 20
-0.9748
 30
0.0
 10
-31.7523
 20
-0.9748
 30
0.0
 10
-31.7523
 20
-0.9748
 30
0.0
 10
-32.1427
 20
-0.9748
 30
0.0
 10
-32.4264
 20
-0.9028
 30
0.0
 10
-32.6037
 20
-0.7584
 30
0.0
 10
-32.6037
 20
-0.7584
 30
0.0
 10
-32.758
 20
-0.6328
 30
0.0
 10
-32.8356
 20
-0.4635
 30
0.0
 10
-32.8356
 20
-0.25
 30
0.0
 10
-32.8356
 20
-0.25
 30
0.0
 10
-32.8356
 20
-0.0914
 30
0.0
 10
-32.7909
 20
0.0388
 30
0.0
 10
-32.7015
 20
0.1404
 30
0.0
 10
-32.7015
 20
0.1404
 30
0.0
 10
-32.6126
 20
0.242
 30
0.0
 10
-32.4894
 20
0.3027
 30
0.0
 10
-32.3323
 20
0.3229
 30
0.0
  0
SPLINE
  5
CC
330
1F
100
AcDbEntity
  8
VRSTVA_1
 62
   250
100
AcDbSpline
210
0.0
220
0.0
230
1.0
 70
    11
 71
     3
 72
    40
 73
    36
 74
     0
 42
0.0000000001
 43
0.0000000001
 40
0.0
 40
0.0
 40
0.0
 40
0.0
 40
0.1
 40
0.1
 40
0.1
 40
0.1
 40
0.2
 40
0.2
 40
0.2
 40
0.2
 40
0.3
 40
0.3
 40
0.3
 40
0.3
 40
0.4
 40
0.4
 40
0.4
 40
0.4
 40
0.5
 40
0.5
 40
0.5
 40
0.5
 40
0.6
 40
0.6
 40
0.6
 40
0.6
 40
0.7
 40
0.7
 40
0.7
 40
0.7
 40
0.8
 40
0.8
 40
0.8
 40
0.8
 40
1.0
 40
1.0
 40
1.0
 40
1.0
 10
-31.4617
 20
-0.6898
 30
0.0
 10
-31.376
 20
-0.6898
 30
0.0
 10
-31.2942
 20
-0.6714
 30
0.0
 10
-31.2161
 20
-0.6352
 30
0.0
 10
-31.2161
 20
-0.6352
 30
0.0
 10
-31.138
 20
-0.599
 30
0.0
 10
-31.0788
 20
-0.5482
 30
0.0
 10
-31.0379
 20
-0.4833
 30
0.0
 10
-31.0379
 20
-0.4833
 30
0.0
 10
-30.9969
 20
-0.4179
 30
0.0
 10
-30.9762
 20
-0.3492
 30
0.0
 10
-30.9762
 20
-0.2777
 30
0.0
 10
-30.9762
 20
-0.2777
 30
0.0
 10
-30.9762
 20
-0.1728
 30
0.0
 10
-31.0186
 20
-0.083
 30
0.0
 10
-31.1032
 20
-0.0077
 30
0.0
 10
-31.1032
 20
-0.0077
 30
0.0
 10
-31.1879
 20
0.0675
 30
0.0
 10
-31.3027
 20
0.1052
 30
0.0
 10
-31.4475
 20
0.1052
 30
0.0
 10
-31.4475
 20
0.1052
 30
0.0
 10
-31.5872
 20
0.1052
 30
0.0
 10
-31.6973
 20
0.068
 30
0.0
 10
-31.7777
 20
-0.0063
 30
0.0
 10
-31.7777
 20
-0.0063
 30
0.0
 10
-31.8582
 20
-0.0806
 30
0.0
 10
-31.8982
 20
-0.1742
 30
0.0
 10
-31.8982
 20
-0.2871
 30
0.0
 10
-31.8982
 20
-0.2871
 30
0.0
 10
-31.8982
 20
-0.3995
 30
0.0
 10
-31.8582
 20
-0.4946
 30
0.0
 10
-31.7777
 20
-0.5726
 30
0.0
 10
-31.7777
 20
-0.5726
 30
0.0
 10
-31.6973
 20
-0.6507
 30
0.0
 10
-31.5919
 20
-0.6898
 30
0.0
 10
-31.4617
 20
-0.6898
 30
0.0
  0
SPLINE
  5
CD
330
1F
100
AcDbEntity
  8
VRSTVA_1
 62
   250
100
AcDbSpline
210
0.0
220
0.0
230
1.0
 70
    11
 71
     3
 72
    92
 73
    88
 74
     0
 42
0.0000000001
 43
0.0000000001
 40
0.0
 40
0.0
 40
0.0
 40
0.0
 40
0.0434782608695652
 40
0.0434782608695652
 40
0.0434782608695652
 40
0.0434782608695652
 40
0.0869565217391304
 40
0.0869565217391304
 40
0.0869565217391304
 40
0.0869565217391304
 40
0.1304347826086956
 40
0.1304347826086956
 40
0.1304347826086956
 40
0.1304347826086956
 40
0.1739130434782609
 40
0.1739130434782609
 40
0.1739130434782609
 40
0.1739130434782609
 40
0.2173913043478261
 40
0.2173913043478261
 40
0.2173913043478261
 40
0.2173913043478261
 40
0.2608695652173913
 40
0.2608695652173913
 40
0.2608695652173913
 40
0.2608695652173913
 40
0.3043478260869565
 40
0.3043478260869565
 40
0.3043478260869565
 40
0.3043478260869565
 40
0.3478260869565217
 40
0.3478260869565217
 40
0.3478260869565217
 40
0.3478260869565217
 40
0.391304347826087
 40
0.391304347826087
 40
0.391304347826087
 40
0.391304347826087
 40
0.4347826086956522
 40
0.4347826086956522
 40
0.4347826086956522
 40
0.4347826086956522
 40
0.4782608695652174
 40
0.4782608695652174
 40
0.4782608695652174
 40
0.4782608695652174
 40
0.5217391304347826
 40
0.5217391304347826
 40
0.5217391304347826
 40
0.5217391304347826
 40
0.5652173913043478
 40
0.5652173913043478
 40
0.5652173913043478
 40
0.5652173913043478
 40
0.6086956521739131
 40
0.6086956521739131
 40
0.6086956521739131
 40
0.6086956521739131
 40
0.6521739130434783
 40
0.6521739130434783
 40
0.6521739130434783
 40
0.6521739130434783
 40
0.6956521739130435
 40
0.6956521739130435
 40
0.6956521739130435
 40
0.6956521739130435
 40
0.7391304347826086
 40
0.7391304347826086
 40
0.7391304347826086
 40
0.7391304347826086
 40
0.782608695652174
 40
0.782608695652174
 40
0.782608695652174
 40
0.782608695652174
 40
0.8260869565217391
 40
0.8260869565217391
 40
0.8260869565217391
 40
0.8260869565217391
 40
0.8695652173913043
 40
0.8695652173913043
 40
0.8695652173913043
 40
0.8695652173913043
 40
0.9130434782608695
 40
0.9130434782608695
 40
0.9130434782608695
 40
0.9130434782608695
 40
1.0
 40
1.0
 40
1.0
 40
1.0
 10
-31.3361
 20
0.6056
 30
0.0
 10
-31.3361
 20
0.6056
 30
0.0
 10
-31.3582
 20
0.8662
 30
0.0
 10
-31.3582
 20
0.8662
 30
0.0
 10
-31.3582
 20
0.8662
 30
0.0
 10
-31.2312
 20
0.8855
 30
0.0
 10
-31.1362
 20
0.9302
 30
0.0
 10
-31.0722
 20
1.0003
 30
0.0
 10
-31.0722
 20
1.0003
 30
0.0
 10
-31.0082
 20
1.0708
 30
0.0
 10
-30.9762
 20
1.1555
 30
0.0
 10
-30.9762
 20
1.2547
 30
0.0
 10
-30.9762
 20
1.2547
 30
0.0
 10
-30.9762
 20
1.3742
 30
0.0
 10
-31.0214
 20
1.4753
 30
0.0
 10
-31.1112
 20
1.5576
 30
0.0
 10
-31.1112
 20
1.5576
 30
0.0
 10
-31.2015
 20
1.6404
 30
0.0
 10
-31.321
 20
1.6818
 30
0.0
 10
-31.4696
 20
1.6818
 30
0.0
 10
-31.4696
 20
1.6818
 30
0.0
 10
-31.6112
 20
1.6818
 30
0.0
 10
-31.7227
 20
1.6423
 30
0.0
 10
-31.8045
 20
1.5628
 30
0.0
 10
-31.8045
 20
1.5628
 30
0.0
 10
-31.8864
 20
1.4833
 30
0.0
 10
-31.9273
 20
1.3794
 30
0.0
 10
-31.9273
 20
1.2505
 30
0.0
 10
-31.9273
 20
1.2505
 30
0.0
 10
-31.9273
 20
1.1705
 30
0.0
 10
-31.909
 20
1.0986
 30
0.0
 10
-31.8728
 20
1.0341
 30
0.0
 10
-31.8728
 20
1.0341
 30
0.0
 10
-31.8365
 20
0.9697
 30
0.0
 10
-31.7895
 20
0.9194
 30
0.0
 10
-31.7316
 20
0.8827
 30
0.0
 10
-31.7316
 20
0.8827
 30
0.0
 10
-31.7316
 20
0.8827
 30
0.0
 10
-31.7617
 20
0.6498
 30
0.0
 10
-31.7617
 20
0.6498
 30
0.0
 10
-31.7617
 20
0.6498
 30
0.0
 10
-31.7617
 20
0.6498
 30
0.0
 10
-32.7994
 20
0.8455
 30
0.0
 10
-32.7994
 20
0.8455
 30
0.0
 10
-32.7994
 20
0.8455
 30
0.0
 10
-32.7994
 20
0.8455
 30
0.0
 10
-32.7994
 20
1.8502
 30
0.0
 10
-32.7994
 20
1.8502
 30
0.0
 10
-32.7994
 20
1.8502
 30
0.0
 10
-32.7994
 20
1.8502
 30
0.0
 10
-32.5623
 20
1.8502
 30
0.0
 10
-32.5623
 20
1.8502
 30
0.0
 10
-32.5623
 20
1.8502
 30
0.0
 10
-32.5623
 20
1.8502
 30
0.0
 10
-32.5623
 20
1.044
 30
0.0
 10
-32.5623
 20
1.044
 30
0.0
 10
-32.5623
 20
1.044
 30
0.0
 10
-32.5623
 20
1.044
 30
0.0
 10
-32.0195
 20
0.9349
 30
0.0
 10
-32.0195
 20
0.9349
 30
0.0
 10
-32.0195
 20
0.9349
 30
0.0
 10
-32.1042
 20
1.0562
 30
0.0
 10
-32.1465
 20
1.1837
 30
0.0
 10
-32.1465
 20
1.3168
 30
0.0
 10
-32.1465
 20
1.3168
 30
0.0
 10
-32.1465
 20
1.4932
 30
0.0
 10
-32.0854
 20
1.6418
 30
0.0
 10
-31.9631
 20
1.7632
 30
0.0
 10
-31.9631
 20
1.7632
 30
0.0
 10
-31.8408
 20
1.8845
 30
0.0
 10
-31.6837
 20
1.9452
 30
0.0
 10
-31.4918
 20
1.9452
 30
0.0
 10
-31.4918
 20
1.9452
 30
0.0
 10
-31.3088
 20
1.9452
 30
0.0
 10
-31.1507
 20
1.8916
 30
0.0
 10
-31.0176
 20
1.7853
 30
0.0
 10
-31.0176
 20
1.7853
 30
0.0
 10
-30.8544
 20
1.6555
 30
0.0
 10
-30.7726
 20
1.4786
 30
0.0
 10
-30.7726
 20
1.2547
 30
0.0
 10
-30.7726
 20
1.2547
 30
0.0
 10
-30.7726
 20
1.0708
 30
0.0
 10
-30.8238
 20
0.9208
 30
0.0
 10
-30.9268
 20
0.8046
 30
0.0
 10
-30.9268
 20
0.8046
 30
0.0
 10
-31.0299
 20
0.6884
 30
0.0
 10
-31.1663
 20
0.6221
 30
0.0
 10
-31.3361
 20
0.6056
 30
0.0
  0
SPLINE
  5
CE
330
1F
100
AcDbEntity
  8
VRSTVA_1
 62
   250
100
AcDbSpline
210
0.0
220
0.0
230
1.0
 70
    11
 71
     3
 72
    20
 73
    16
 74
     0
 42
0.0000000001
 43
0.0000000001
 40
0.0
 40
0.0
 40
0.0
 40
0.0
 40
0.2
 40
0.2
 40
0.2
 40
0.2
 40
0.4
 40
0.4
 40
0.4
 40
0.4
 40
0.6
 40
0.6
 40
0.6
 40
0.6
 40
1.0
 40
1.0
 40
1.0
 40
1.0
 10
22.7734
 20
-17.9289
 30
0.0
 10
22.7734
 20
-17.9289
 30
0.0
 10
25.7751
 20
-18.3525
 30
0.0
 10
25.7751
 20
-18.3525
 30
0.0
 10
25.7751
 20
-18.3525
 30
0.0
 10
25.7751
 20
-18.3525
 30
0.0
 10
25.7751
 20
-18.4466
 30
0.0
 10
25.7751
 20
-18.4466
 30
0.0
 10
25.7751
 20
-18.4466
 30
0.0
 10
25.7751
 20
-18.4466
 30
0.0
 10
22.7734
 20
-18.8984
 30
0.0
 10
22.7734
 20
-18.8984
 30
0.0
 10
22.7734
 20
-18.8984
 30
0.0
 10
22.7734
 20
-18.8984
 30
0.0
 10
22.7734
 20
-17.9289
 30
0.0
 10
22.7734
 20
-17.9289
 30
0.0
  0
SPLINE
  5
CF
330
1F
100
AcDbEntity
  8
VRSTVA_1
 62
   250
100
AcDbSpline
210
0.0
220
0.0
230
1.0
 70
    11
 71
     3
 72
    20
 73
    16
 74
     0
 42
0.0000000001
 43
0.0000000001
 40
0.0
 40
0.0
 40
0.0
 40
0.0
 40
0.2
 40
0.2
 40
0.2
 40
0.2
 40
0.4
 40
0.4
 40
0.4
 40
0.4
 40
0.6
 40
0.6
 40
0.6
 40
0.6
 40
1.0
 40
1.0
 40
1.0
 40
1.0
 10
32.3701
 20
-18.8902
 30
0.0
 10
32.3701
 20
-18.8902
 30
0.0
 10
29.3679
 20
-18.4666
 30
0.0
 10
29.3679
 20
-18.4666
 30
0.0
 10
29.3679
 20
-18.4666
 30
0.0
 10
29.3679
 20
-18.4666
 30
0.0
 10
29.3679
 20
-18.3725
 30
0.0
 10
29.3679
 20
-18.3725
 30
0.0
 10
29.3679
 20
-18.3725
 30
0.0
 10
29.3679
 20
-18.3725
 30
0.0
 10
32.3701
 20
-17.9206
 30
0.0
 10
32.3701
 20
-17.9206
 30
0.0
 10
32.3701
 20
-17.9206
 30
0.0
 10
32.3701
 20
-17.9206
 30
0.0
 10
32.3701
 20
-18.8902
 30
0.0
 10
32.3701
 20
-18.8902
 30
0.0
  0
SPLINE
  5
D0
330
1F
100
AcDbEntity
  8
VRSTVA_1
 62
   250
100
AcDbSpline
210
0.0
220
0.0
230
1.0
 70
    24
 71
     3
 72
     8
 73
     4
 74
     0
 42
0.0000000001
 43
0.0000000001
 40
0.0
 40
0.0
 40
0.0
 40
0.0
 40
1.0
 40
1.0
 40
1.0
 40
1.0
 10
25.8472
 20
-14.7253
 30
0.0
 10
25.8472
 20
-14.7253
 30
0.0
 10
25.8472
 20
-19.0653
 30
0.0
 10
25.8472
 20
-19.0653
 30
0.0
  0
SPLINE
  5
D1
330
1F
100
AcDbEntity
  8
VRSTVA_1
 62
   250
100
AcDbSpline
210
0.0
220
0.0
230
1.0
 70
    24
 71
     3
 72
     8
 73
     4
 74
     0
 42
0.0000000001
 43
0.0000000001
 40
0.0
 40
0.0
 40
0.0
 40
0.0
 40
1.0
 40
1.0
 40
1.0
 40
1.0
 10
29.2424
 20
-6.2932
 30
0.0
 10
29.2424
 20
-6.2932
 30
0.0
 10
29.2424
 20
-18.911
 30
0.0
 10
29.2424
 20
-18.911
 30
0.0
  0
SPLINE
  5
D2
330
1F
100
AcDbEntity
  8
VRSTVA_1
 62
   250
100
AcDbSpline
210
0.0
220
0.0
230
1.0
 70
    24
 71
     3
 72
     8
 73
     4
 74
     0
 42
0.0000000001
 43
0.0000000001
 40
0.0
 40
0.0
 40
0.0
 40
0.0
 40
1.0
 40
1.0
 40
1.0
 40
1.0
 10
32.8356
 20
-18.4246
 30
0.0
 10
32.8356
 20
-18.4246
 30
0.0
 10
19.4139
 20
-18.4246
 30
0.0
 10
19.4139
 20
-18.4246
 30
0.0
  0
SPLINE
  5
D3
330
1F
100
AcDbEntity
  8
VRSTVA_1
 62
   250
100
AcDbSpline
210
0.0
220
0.0
230
1.0
 70
    11
 71
     3
 72
    40
 73
    36
 74
     0
 42
0.0000000001
 43
0.0000000001
 40
0.0
 40
0.0
 40
0.0
 40
0.0
 40
0.1
 40
0.1
 40
0.1
 40
0.1
 40
0.2
 40
0.2
 40
0.2
 40
0.2
 40
0.3
 40
0.3
 40
0.3
 40
0.3
 40
0.4
 40
0.4
 40
0.4
 40
0.4
 40
0.5
 40
0.5
 40
0.5
 40
0.5
 40
0.6
 40
0.6
 40
0.6
 40
0.6
 40
0.7
 40
0.7
 40
0.7
 40
0.7
 40
0.8
 40
0.8
 40
0.8
 40
0.8
 40
1.0
 40
1.0
 40
1.0
 40
1.0
 10
20.4157
 20
-17.9462
 30
0.0
 10
20.4157
 20
-17.9462
 30
0.0
 10
20.1678
 20
-17.9462
 30
0.0
 10
20.1678
 20
-17.9462
 30
0.0
 10
20.1678
 20
-17.9462
 30
0.0
 10
20.1678
 20
-17.9462
 30
0.0
 10
20.1678
 20
-16.3658
 30
0.0
 10
20.1678
 20
-16.3658
 30
0.0
 10
20.1678
 20
-16.3658
 30
0.0
 10
20.108
 20
-16.4227
 30
0.0
 10
20.03
 20
-16.4796
 30
0.0
 10
19.9331
 20
-16.5365
 30
0.0
 10
19.9331
 20
-16.5365
 30
0.0
 10
19.8357
 20
-16.5934
 30
0.0
 10
19.7487
 20
-16.6362
 30
0.0
 10
19.6715
 20
-16.6645
 30
0.0
 10
19.6715
 20
-16.6645
 30
0.0
 10
19.6715
 20
-16.6645
 30
0.0
 10
19.6715
 20
-16.425
 30
0.0
 10
19.6715
 20
-16.425
 30
0.0
 10
19.6715
 20
-16.425
 30
0.0
 10
19.8103
 20
-16.3597
 30
0.0
 10
19.9317
 20
-16.2806
 30
0.0
 10
20.0356
 20
-16.188
 30
0.0
 10
20.0356
 20
-16.188
 30
0.0
 10
20.1391
 20
-16.0948
 30
0.0
 10
20.2129
 20
-16.005
 30
0.0
 10
20.2562
 20
-15.9175
 30
0.0
 10
20.2562
 20
-15.9175
 30
0.0
 10
20.2562
 20
-15.9175
 30
0.0
 10
20.4157
 20
-15.9175
 30
0.0
 10
20.4157
 20
-15.9175
 30
0.0
 10
20.4157
 20
-15.9175
 30
0.0
 10
20.4157
 20
-15.9175
 30
0.0
 10
20.4157
 20
-17.9462
 30
0.0
 10
20.4157
 20
-17.9462
 30
0.0
  0
SPLINE
  5
D4
330
1F
100
AcDbEntity
  8
VRSTVA_1
 62
   250
100
AcDbSpline
210
0.0
220
0.0
230
1.0
 70
    11
 71
     3
 72
    92
 73
    88
 74
     0
 42
0.0000000001
 43
0.0000000001
 40
0.0
 40
0.0
 40
0.0
 40
0.0
 40
0.0434782608695652
 40
0.0434782608695652
 40
0.0434782608695652
 40
0.0434782608695652
 40
0.0869565217391304
 40
0.0869565217391304
 40
0.0869565217391304
 40
0.0869565217391304
 40
0.1304347826086956
 40
0.1304347826086956
 40
0.1304347826086956
 40
0.1304347826086956
 40
0.1739130434782609
 40
0.1739130434782609
 40
0.1739130434782609
 40
0.1739130434782609
 40
0.2173913043478261
 40
0.2173913043478261
 40
0.2173913043478261
 40
0.2173913043478261
 40
0.2608695652173913
 40
0.2608695652173913
 40
0.2608695652173913
 40
0.2608695652173913
 40
0.3043478260869565
 40
0.3043478260869565
 40
0.3043478260869565
 40
0.3043478260869565
 40
0.3478260869565217
 40
0.3478260869565217
 40
0.3478260869565217
 40
0.3478260869565217
 40
0.391304347826087
 40
0.391304347826087
 40
0.391304347826087
 40
0.391304347826087
 40
0.4347826086956522
 40
0.4347826086956522
 40
0.4347826086956522
 40
0.4347826086956522
 40
0.4782608695652174
 40
0.4782608695652174
 40
0.4782608695652174
 40
0.4782608695652174
 40
0.5217391304347826
 40
0.5217391304347826
 40
0.5217391304347826
 40
0.5217391304347826
 40
0.5652173913043478
 40
0.5652173913043478
 40
0.5652173913043478
 40
0.5652173913043478
 40
0.6086956521739131
 40
0.6086956521739131
 40
0.6086956521739131
 40
0.6086956521739131
 40
0.6521739130434783
 40
0.6521739130434783
 40
0.6521739130434783
 40
0.6521739130434783
 40
0.6956521739130435
 40
0.6956521739130435
 40
0.6956521739130435
 40
0.6956521739130435
 40
0.7391304347826086
 40
0.7391304347826086
 40
0.7391304347826086
 40
0.7391304347826086
 40
0.782608695652174
 40
0.782608695652174
 40
0.782608695652174
 40
0.782608695652174
 40
0.8260869565217391
 40
0.8260869565217391
 40
0.8260869565217391
 40
0.8260869565217391
 40
0.8695652173913043
 40
0.8695652173913043
 40
0.8695652173913043
 40
0.8695652173913043
 40
0.9130434782608695
 40
0.9130434782608695
 40
0.9130434782608695
 40
0.9130434782608695
 40
1.0
 40
1.0
 40
1.0
 40
1.0
 10
21.0883
 20
-17.4791
 30
0.0
 10
21.0883
 20
-17.4791
 30
0.0
 10
21.3268
 20
-17.457
 30
0.0
 10
21.3268
 20
-17.457
 30
0.0
 10
21.3268
 20
-17.457
 30
0.0
 10
21.347
 20
-17.569
 30
0.0
 10
21.3856
 20
-17.6503
 30
0.0
 10
21.4425
 20
-17.7011
 30
0.0
 10
21.4425
 20
-17.7011
 30
0.0
 10
21.4994
 20
-17.7515
 30
0.0
 10
21.5723
 20
-17.7769
 30
0.0
 10
21.6617
 20
-17.7769
 30
0.0
 10
21.6617
 20
-17.7769
 30
0.0
 10
21.7379
 20
-17.7769
 30
0.0
 10
21.8046
 20
-17.7595
 30
0.0
 10
21.862
 20
-17.7242
 30
0.0
 10
21.862
 20
-17.7242
 30
0.0
 10
21.9194
 20
-17.6894
 30
0.0
 10
21.9665
 20
-17.6428
 30
0.0
 10
22.0031
 20
-17.5845
 30
0.0
 10
22.0031
 20
-17.5845
 30
0.0
 10
22.0403
 20
-17.5262
 30
0.0
 10
22.0709
 20
-17.4471
 30
0.0
 10
22.0958
 20
-17.3484
 30
0.0
 10
22.0958
 20
-17.3484
 30
0.0
 10
22.1203
 20
-17.2491
 30
0.0
 10
22.133
 20
-17.148
 30
0.0
 10
22.133
 20
-17.045
 30
0.0
 10
22.133
 20
-17.045
 30
0.0
 10
22.133
 20
-17.0342
 30
0.0
 10
22.1325
 20
-17.0172
 30
0.0
 10
22.1316
 20
-16.9956
 30
0.0
 10
22.1316
 20
-16.9956
 30
0.0
 10
22.0817
 20
-17.0741
 30
0.0
 10
22.014
 20
-17.1386
 30
0.0
 10
21.9284
 20
-17.1875
 30
0.0
 10
21.9284
 20
-17.1875
 30
0.0
 10
21.8423
 20
-17.2369
 30
0.0
 10
21.7491
 20
-17.2613
 30
0.0
 10
21.6494
 20
-17.2613
 30
0.0
 10
21.6494
 20
-17.2613
 30
0.0
 10
21.482
 20
-17.2613
 30
0.0
 10
21.3404
 20
-17.2007
 30
0.0
 10
21.2247
 20
-17.0793
 30
0.0
 10
21.2247
 20
-17.0793
 30
0.0
 10
21.109
 20
-16.958
 30
0.0
 10
21.0511
 20
-16.7985
 30
0.0
 10
21.0511
 20
-16.6
 30
0.0
 10
21.0511
 20
-16.6
 30
0.0
 10
21.0511
 20
-16.3949
 30
0.0
 10
21.1113
 20
-16.2303
 30
0.0
 10
21.2322
 20
-16.1052
 30
0.0
 10
21.2322
 20
-16.1052
 30
0.0
 10
21.3531
 20
-15.9801
 30
0.0
 10
21.5046
 20
-15.9175
 30
0.0
 10
21.6866
 20
-15.9175
 30
0.0
 10
21.6866
 20
-15.9175
 30
0.0
 10
21.8178
 20
-15.9175
 30
0.0
 10
21.9378
 20
-15.9533
 30
0.0
 10
22.0469
 20
-16.0238
 30
0.0
 10
22.0469
 20
-16.0238
 30
0.0
 10
22.1555
 20
-16.0944
 30
0.0
 10
22.2383
 20
-16.1955
 30
0.0
 10
22.2948
 20
-16.3263
 30
0.0
 10
22.2948
 20
-16.3263
 30
0.0
 10
22.3512
 20
-16.457
 30
0.0
 10
22.3794
 20
-16.6466
 30
0.0
 10
22.3794
 20
-16.8949
 30
0.0
 10
22.3794
 20
-16.8949
 30
0.0
 10
22.3794
 20
-17.1527
 30
0.0
 10
22.3517
 20
-17.3582
 30
0.0
 10
22.2957
 20
-17.5116
 30
0.0
 10
22.2957
 20
-17.5116
 30
0.0
 10
22.2393
 20
-17.6645
 30
0.0
 10
22.156
 20
-17.7806
 30
0.0
 10
22.0455
 20
-17.8606
 30
0.0
 10
22.0455
 20
-17.8606
 30
0.0
 10
21.9345
 20
-17.9406
 30
0.0
 10
21.8051
 20
-17.9805
 30
0.0
 10
21.656
 20
-17.9805
 30
0.0
 10
21.656
 20
-17.9805
 30
0.0
 10
21.498
 20
-17.9805
 30
0.0
 10
21.3691
 20
-17.9368
 30
0.0
 10
21.2689
 20
-17.8488
 30
0.0
 10
21.2689
 20
-17.8488
 30
0.0
 10
21.1687
 20
-17.7613
 30
0.0
 10
21.1085
 20
-17.6381
 30
0.0
 10
21.0883
 20
-17.4791
 30
0.0
  0
SPLINE
  5
D5
330
1F
100
AcDbEntity
  8
VRSTVA_1
 62
   250
100
AcDbSpline
210
0.0
220
0.0
230
1.0
 70
    11
 71
     3
 72
    36
 73
    32
 74
     0
 42
0.0000000001
 43
0.0000000001
 40
0.0
 40
0.0
 40
0.0
 40
0.0
 40
0.1111111111111111
 40
0.1111111111111111
 40
0.1111111111111111
 40
0.1111111111111111
 40
0.2222222222222222
 40
0.2222222222222222
 40
0.2222222222222222
 40
0.2222222222222222
 40
0.3333333333333333
 40
0.3333333333333333
 40
0.3333333333333333
 40
0.3333333333333333
 40
0.4444444444444444
 40
0.4444444444444444
 40
0.4444444444444444
 40
0.4444444444444444
 40
0.5555555555555556
 40
0.5555555555555556
 40
0.5555555555555556
 40
0.5555555555555556
 40
0.6666666666666666
 40
0.6666666666666666
 40
0.6666666666666666
 40
0.6666666666666666
 40
0.7777777777777778
 40
0.7777777777777778
 40
0.7777777777777778
 40
0.7777777777777778
 40
1.0
 40
1.0
 40
1.0
 40
1.0
 10
22.1038
 20
-16.5873
 30
0.0
 10
22.1038
 20
-16.4453
 30
0.0
 10
22.0662
 20
-16.3319
 30
0.0
 10
21.9904
 20
-16.2486
 30
0.0
 10
21.9904
 20
-16.2486
 30
0.0
 10
21.9142
 20
-16.1649
 30
0.0
 10
21.8235
 20
-16.1231
 30
0.0
 10
21.7167
 20
-16.1231
 30
0.0
 10
21.7167
 20
-16.1231
 30
0.0
 10
21.6066
 20
-16.1231
 30
0.0
 10
21.5107
 20
-16.1682
 30
0.0
 10
21.4288
 20
-16.2581
 30
0.0
 10
21.4288
 20
-16.2581
 30
0.0
 10
21.347
 20
-16.3484
 30
0.0
 10
21.3061
 20
-16.465
 30
0.0
 10
21.3061
 20
-16.608
 30
0.0
 10
21.3061
 20
-16.608
 30
0.0
 10
21.3061
 20
-16.7369
 30
0.0
 10
21.3451
 20
-16.8413
 30
0.0
 10
21.4227
 20
-16.9217
 30
0.0
 10
21.4227
 20
-16.9217
 30
0.0
 10
21.5003
 20
-17.0022
 30
0.0
 10
21.5958
 20
-17.0422
 30
0.0
 10
21.7096
 20
-17.0422
 30
0.0
 10
21.7096
 20
-17.0422
 30
0.0
 10
21.8249
 20
-17.0422
 30
0.0
 10
21.9189
 20
-17.0022
 30
0.0
 10
21.9928
 20
-16.9217
 30
0.0
 10
21.9928
 20
-16.9217
 30
0.0
 10
22.0671
 20
-16.8413
 30
0.0
 10
22.1038
 20
-16.7298
 30
0.0
 10
22.1038
 20
-16.5873
 30
0.0
  0
SPLINE
  5
D6
330
1F
100
AcDbEntity
  8
VRSTVA_1
 62
   250
100
AcDbSpline
210
0.0
220
0.0
230
1.0
 70
    11
 71
     3
 72
    20
 73
    16
 74
     0
 42
0.0000000001
 43
0.0000000001
 40
0.0
 40
0.0
 40
0.0
 40
0.0
 40
0.2
 40
0.2
 40
0.2
 40
0.2
 40
0.4
 40
0.4
 40
0.4
 40
0.4
 40
0.6
 40
0.6
 40
0.6
 40
0.6
 40
1.0
 40
1.0
 40
1.0
 40
1.0
 10
-26.1054
 20
1.0301
 30
0.0
 10
-26.1054
 20
1.0301
 30
0.0
 10
-26.5288
 20
-1.9701
 30
0.0
 10
-26.5288
 20
-1.9701
 30
0.0
 10
-26.5288
 20
-1.9701
 30
0.0
 10
-26.5288
 20
-1.9701
 30
0.0
 10
-26.6228
 20
-1.9701
 30
0.0
 10
-26.6228
 20
-1.9701
 30
0.0
 10
-26.6228
 20
-1.9701
 30
0.0
 10
-26.6228
 20
-1.9701
 30
0.0
 10
-27.0744
 20
1.0301
 30
0.0
 10
-27.0744
 20
1.0301
 30
0.0
 10
-27.0744
 20
1.0301
 30
0.0
 10
-27.0744
 20
1.0301
 30
0.0
 10
-26.1054
 20
1.0301
 30
0.0
 10
-26.1054
 20
1.0301
 30
0.0
  0
SPLINE
  5
D7
330
1F
100
AcDbEntity
  8
VRSTVA_1
 62
   250
100
AcDbSpline
210
0.0
220
0.0
230
1.0
 70
    11
 71
     3
 72
    20
 73
    16
 74
     0
 42
0.0000000001
 43
0.0000000001
 40
0.0
 40
0.0
 40
0.0
 40
0.0
 40
0.2
 40
0.2
 40
0.2
 40
0.2
 40
0.4
 40
0.4
 40
0.4
 40
0.4
 40
0.6
 40
0.6
 40
0.6
 40
0.6
 40
1.0
 40
1.0
 40
1.0
 40
1.0
 10
-27.0462
 20
-10.972
 30
0.0
 10
-27.0462
 20
-10.972
 30
0.0
 10
-26.6228
 20
-7.9717
 30
0.0
 10
-26.6228
 20
-7.9717
 30
0.0
 10
-26.6228
 20
-7.9717
 30
0.0
 10
-26.6228
 20
-7.9717
 30
0.0
 10
-26.5287
 20
-7.9717
 30
0.0
 10
-26.5287
 20
-7.9717
 30
0.0
 10
-26.5287
 20
-7.9717
 30
0.0
 10
-26.5287
 20
-7.9717
 30
0.0
 10
-26.0772
 20
-10.972
 30
0.0
 10
-26.0772
 20
-10.972
 30
0.0
 10
-26.0772
 20
-10.972
 30
0.0
 10
-26.0772
 20
-10.972
 30
0.0
 10
-27.0462
 20
-10.972
 30
0.0
 10
-27.0462
 20
-10.972
 30
0.0
  0
SPLINE
  5
D8
330
1F
100
AcDbEntity
  8
VRSTVA_1
 62
   250
100
AcDbSpline
210
0.0
220
0.0
230
1.0
 70
    24
 71
     3
 72
     8
 73
     4
 74
     0
 42
0.0000000001
 43
0.0000000001
 40
0.0
 40
0.0
 40
0.0
 40
0.0
 40
1.0
 40
1.0
 40
1.0
 40
1.0
 10
-24.2095
 20
-7.9428
 30
0.0
 10
-24.2095
 20
-7.9428
 30
0.0
 10
-27.127
 20
-7.9428
 30
0.0
 10
-27.127
 20
-7.9428
 30
0.0
  0
SPLINE
  5
D9
330
1F
100
AcDbEntity
  8
VRSTVA_1
 62
   250
100
AcDbSpline
210
0.0
220
0.0
230
1.0
 70
    24
 71
     3
 72
     8
 73
     4
 74
     0
 42
0.0000000001
 43
0.0000000001
 40
0.0
 40
0.0
 40
0.0
 40
0.0
 40
1.0
 40
1.0
 40
1.0
 40
1.0
 10
-24.2995
 20
-2.0517
 30
0.0
 10
-24.2995
 20
-2.0517
 30
0.0
 10
-27.127
 20
-2.0517
 30
0.0
 10
-27.127
 20
-2.0517
 30
0.0
  0
SPLINE
  5
DA
330
1F
100
AcDbEntity
  8
VRSTVA_1
 62
   250
100
AcDbSpline
210
0.0
220
0.0
230
1.0
 70
    24
 71
     3
 72
     8
 73
     4
 74
     0
 42
0.0000000001
 43
0.0000000001
 40
0.0
 40
0.0
 40
0.0
 40
0.0
 40
1.0
 40
1.0
 40
1.0
 40
1.0
 10
-26.5609
 20
1.5362
 30
0.0
 10
-26.5609
 20
1.5362
 30
0.0
 10
-26.5609
 20
-11.6599
 30
0.0
 10
-26.5609
 20
-11.6599
 30
0.0
  0
SPLINE
  5
DB
330
1F
100
AcDbEntity
  8
VRSTVA_1
 62
   250
100
AcDbSpline
210
0.0
220
0.0
230
1.0
 70
    11
 71
     3
 72
   124
 73
   120
 74
     0
 42
0.0000000001
 43
0.0000000001
 40
0.0
 40
0.0
 40
0.0
 40
0.0
 40
0.032258064516129
 40
0.032258064516129
 40
0.032258064516129
 40
0.032258064516129
 40
0.0645161290322581
 40
0.0645161290322581
 40
0.0645161290322581
 40
0.0645161290322581
 40
0.0967741935483871
 40
0.0967741935483871
 40
0.0967741935483871
 40
0.0967741935483871
 40
0.1290322580645161
 40
0.1290322580645161
 40
0.1290322580645161
 40
0.1290322580645161
 40
0.1612903225806452
 40
0.1612903225806452
 40
0.1612903225806452
 40
0.1612903225806452
 40
0.1935483870967742
 40
0.1935483870967742
 40
0.1935483870967742
 40
0.1935483870967742
 40
0.2258064516129032
 40
0.2258064516129032
 40
0.2258064516129032
 40
0.2258064516129032
 40
0.2580645161290323
 40
0.2580645161290323
 40
0.2580645161290323
 40
0.2580645161290323
 40
0.2903225806451613
 40
0.2903225806451613
 40
0.2903225806451613
 40
0.2903225806451613
 40
0.3225806451612903
 40
0.3225806451612903
 40
0.3225806451612903
 40
0.3225806451612903
 40
0.3548387096774194
 40
0.3548387096774194
 40
0.3548387096774194
 40
0.3548387096774194
 40
0.3870967741935484
 40
0.3870967741935484
 40
0.3870967741935484
 40
0.3870967741935484
 40
0.4193548387096774
 40
0.4193548387096774
 40
0.4193548387096774
 40
0.4193548387096774
 40
0.4516129032258064
 40
0.4516129032258064
 40
0.4516129032258064
 40
0.4516129032258064
 40
0.4838709677419355
 40
0.4838709677419355
 40
0.4838709677419355
 40
0.4838709677419355
 40
0.5161290322580645
 40
0.5161290322580645
 40
0.5161290322580645
 40
0.5161290322580645
 40
0.5483870967741935
 40
0.5483870967741935
 40
0.5483870967741935
 40
0.5483870967741935
 40
0.5806451612903226
 40
0.5806451612903226
 40
0.5806451612903226
 40
0.5806451612903226
 40
0.6129032258064516
 40
0.6129032258064516
 40
0.6129032258064516
 40
0.6129032258064516
 40
0.6451612903225806
 40
0.6451612903225806
 40
0.6451612903225806
 40
0.6451612903225806
 40
0.6774193548387096
 40
0.6774193548387096
 40
0.6774193548387096
 40
0.6774193548387096
 40
0.7096774193548387
 40
0.7096774193548387
 40
0.7096774193548387
 40
0.7096774193548387
 40
0.7419354838709677
 40
0.7419354838709677
 40
0.7419354838709677
 40
0.7419354838709677
 40
0.7741935483870968
 40
0.7741935483870968
 40
0.7741935483870968
 40
0.7741935483870968
 40
0.8064516129032258
 40
0.8064516129032258
 40
0.8064516129032258
 40
0.8064516129032258
 40
0.8387096774193549
 40
0.8387096774193549
 40
0.8387096774193549
 40
0.8387096774193549
 40
0.8709677419354839
 40
0.8709677419354839
 40
0.8709677419354839
 40
0.8709677419354839
 40
0.9032258064516129
 40
0.9032258064516129
 40
0.9032258064516129
 40
0.9032258064516129
 40
0.9354838709677419
 40
0.9354838709677419
 40
0.9354838709677419
 40
0.9354838709677419
 40
1.0
 40
1.0
 40
1.0
 40
1.0
 10
-27.4561
 20
-6.2859
 30
0.0
 10
-27.4561
 20
-6.2859
 30
0.0
 10
-27.489
 20
-6.038
 30
0.0
 10
-27.489
 20
-6.038
 30
0.0
 10
-27.489
 20
-6.038
 30
0.0
 10
-27.3484
 20
-6.0093
 30
0.0
 10
-27.2473
 20
-5.9608
 30
0.0
 10
-27.1852
 20
-5.8926
 30
0.0
 10
-27.1852
 20
-5.8926
 30
0.0
 10
-27.1231
 20
-5.824
 30
0.0
 10
-27.092
 20
-5.7407
 30
0.0
 10
-27.092
 20
-5.6424
 30
0.0
 10
-27.092
 20
-5.6424
 30
0.0
 10
-27.092
 20
-5.5258
 30
0.0
 10
-27.1325
 20
-5.427
 30
0.0
 10
-27.2134
 20
-5.3465
 30
0.0
 10
-27.2134
 20
-5.3465
 30
0.0
 10
-27.2943
 20
-5.2666
 30
0.0
 10
-27.3945
 20
-5.2261
 30
0.0
 10
-27.514
 20
-5.2261
 30
0.0
 10
-27.514
 20
-5.2261
 30
0.0
 10
-27.6278
 20
-5.2261
 30
0.0
 10
-27.7219
 20
-5.2633
 30
0.0
 10
-27.7957
 20
-5.3376
 30
0.0
 10
-27.7957
 20
-5.3376
 30
0.0
 10
-27.8695
 20
-5.4124
 30
0.0
 10
-27.9067
 20
-5.5069
 30
0.0
 10
-27.9067
 20
-5.6217
 30
0.0
 10
-27.9067
 20
-5.6217
 30
0.0
 10
-27.9067
 20
-5.6687
 30
0.0
 10
-27.8973
 20
-5.7271
 30
0.0
 10
-27.879
 20
-5.7967
 30
0.0
 10
-27.879
 20
-5.7967
 30
0.0
 10
-27.879
 20
-5.7967
 30
0.0
 10
-28.0967
 20
-5.7689
 30
0.0
 10
-28.0967
 20
-5.7689
 30
0.0
 10
-28.0967
 20
-5.7689
 30
0.0
 10
-28.0949
 20
-5.7525
 30
0.0
 10
-28.0939
 20
-5.7393
 30
0.0
 10
-28.0939
 20
-5.729
 30
0.0
 10
-28.0939
 20
-5.729
 30
0.0
 10
-28.0939
 20
-5.6236
 30
0.0
 10
-28.1217
 20
-5.5286
 30
0.0
 10
-28.1767
 20
-5.4439
 30
0.0
 10
-28.1767
 20
-5.4439
 30
0.0
 10
-28.2317
 20
-5.3592
 30
0.0
 10
-28.3169
 20
-5.3169
 30
0.0
 10
-28.4316
 20
-5.3169
 30
0.0
 10
-28.4316
 20
-5.3169
 30
0.0
 10
-28.5224
 20
-5.3169
 30
0.0
 10
-28.5981
 20
-5.348
 30
0.0
 10
-28.6574
 20
-5.4096
 30
0.0
 10
-28.6574
 20
-5.4096
 30
0.0
 10
-28.7171
 20
-5.4712
 30
0.0
 10
-28.7473
 20
-5.5507
 30
0.0
 10
-28.7473
 20
-5.6481
 30
0.0
 10
-28.7473
 20
-5.6481
 30
0.0
 10
-28.7473
 20
-5.7445
 30
0.0
 10
-28.7167
 20
-5.8249
 30
0.0
 10
-28.6565
 20
-5.8889
 30
0.0
 10
-28.6565
 20
-5.8889
 30
0.0
 10
-28.5958
 20
-5.9533
 30
0.0
 10
-28.5045
 20
-5.9947
 30
0.0
 10
-28.3832
 20
-6.0131
 30
0.0
 10
-28.3832
 20
-6.0131
 30
0.0
 10
-28.3832
 20
-6.0131
 30
0.0
 10
-28.4274
 20
-6.2609
 30
0.0
 10
-28.4274
 20
-6.2609
 30
0.0
 10
-28.4274
 20
-6.2609
 30
0.0
 10
-28.5939
 20
-6.2308
 30
0.0
 10
-28.7228
 20
-6.1617
 30
0.0
 10
-28.814
 20
-6.0544
 30
0.0
 10
-28.814
 20
-6.0544
 30
0.0
 10
-28.9053
 20
-5.9467
 30
0.0
 10
-28.9514
 20
-5.8131
 30
0.0
 10
-28.9514
 20
-5.6532
 30
0.0
 10
-28.9514
 20
-5.6532
 30
0.0
 10
-28.9514
 20
-5.5432
 30
0.0
 10
-28.9274
 20
-5.4416
 30
0.0
 10
-28.8804
 20
-5.3489
 30
0.0
 10
-28.8804
 20
-5.3489
 30
0.0
 10
-28.8329
 20
-5.2562
 30
0.0
 10
-28.7684
 20
-5.1852
 30
0.0
 10
-28.6866
 20
-5.1358
 30
0.0
 10
-28.6866
 20
-5.1358
 30
0.0
 10
-28.6047
 20
-5.0869
 30
0.0
 10
-28.5182
 20
-5.062
 30
0.0
 10
-28.426
 20
-5.062
 30
0.0
 10
-28.426
 20
-5.062
 30
0.0
 10
-28.339
 20
-5.062
 30
0.0
 10
-28.2595
 20
-5.0855
 30
0.0
 10
-28.1875
 20
-5.1325
 30
0.0
 10
-28.1875
 20
-5.1325
 30
0.0
 10
-28.116
 20
-5.1796
 30
0.0
 10
-28.0591
 20
-5.2487
 30
0.0
 10
-28.0168
 20
-5.3404
 30
0.0
 10
-28.0168
 20
-5.3404
 30
0.0
 10
-27.9895
 20
-5.221
 30
0.0
 10
-27.9321
 20
-5.1283
 30
0.0
 10
-27.8451
 20
-5.062
 30
0.0
 10
-27.8451
 20
-5.062
 30
0.0
 10
-27.7585
 20
-4.9961
 30
0.0
 10
-27.6499
 20
-4.9632
 30
0.0
 10
-27.5196
 20
-4.9632
 30
0.0
 10
-27.5196
 20
-4.9632
 30
0.0
 10
-27.3432
 20
-4.9632
 30
0.0
 10
-27.1936
 20
-5.0272
 30
0.0
 10
-27.0709
 20
-5.156
 30
0.0
 10
-27.0709
 20
-5.156
 30
0.0
 10
-26.9481
 20
-5.2845
 30
0.0
 10
-26.887
 20
-5.4472
 30
0.0
 10
-26.887
 20
-5.6438
 30
0.0
 10
-26.887
 20
-5.6438
 30
0.0
 10
-26.887
 20
-5.8211
 30
0.0
 10
-26.9396
 20
-5.9684
 30
0.0
 10
-27.0455
 20
-6.0855
 30
0.0
 10
-27.0455
 20
-6.0855
 30
0.0
 10
-27.1508
 20
-6.2026
 30
0.0
 10
-27.2877
 20
-6.2694
 30
0.0
 10
-27.4561
 20
-6.2859
 30
0.0
  0
SPLINE
  5
DC
330
1F
100
AcDbEntity
  8
VRSTVA_1
 62
   250
100
AcDbSpline
210
0.0
220
0.0
230
1.0
 70
    11
 71
     3
 72
    92
 73
    88
 74
     0
 42
0.0000000001
 43
0.0000000001
 40
0.0
 40
0.0
 40
0.0
 40
0.0
 40
0.0434782608695652
 40
0.0434782608695652
 40
0.0434782608695652
 40
0.0434782608695652
 40
0.0869565217391304
 40
0.0869565217391304
 40
0.0869565217391304
 40
0.0869565217391304
 40
0.1304347826086956
 40
0.1304347826086956
 40
0.1304347826086956
 40
0.1304347826086956
 40
0.1739130434782609
 40
0.1739130434782609
 40
0.1739130434782609
 40
0.1739130434782609
 40
0.2173913043478261
 40
0.2173913043478261
 40
0.2173913043478261
 40
0.2173913043478261
 40
0.2608695652173913
 40
0.2608695652173913
 40
0.2608695652173913
 40
0.2608695652173913
 40
0.3043478260869565
 40
0.3043478260869565
 40
0.3043478260869565
 40
0.3043478260869565
 40
0.3478260869565217
 40
0.3478260869565217
 40
0.3478260869565217
 40
0.3478260869565217
 40
0.391304347826087
 40
0.391304347826087
 40
0.391304347826087
 40
0.391304347826087
 40
0.4347826086956522
 40
0.4347826086956522
 40
0.4347826086956522
 40
0.4347826086956522
 40
0.4782608695652174
 40
0.4782608695652174
 40
0.4782608695652174
 40
0.4782608695652174
 40
0.5217391304347826
 40
0.5217391304347826
 40
0.5217391304347826
 40
0.5217391304347826
 40
0.5652173913043478
 40
0.5652173913043478
 40
0.5652173913043478
 40
0.5652173913043478
 40
0.6086956521739131
 40
0.6086956521739131
 40
0.6086956521739131
 40
0.6086956521739131
 40
0.6521739130434783
 40
0.6521739130434783
 40
0.6521739130434783
 40
0.6521739130434783
 40
0.6956521739130435
 40
0.6956521739130435
 40
0.6956521739130435
 40
0.6956521739130435
 40
0.7391304347826086
 40
0.7391304347826086
 40
0.7391304347826086
 40
0.7391304347826086
 40
0.782608695652174
 40
0.782608695652174
 40
0.782608695652174
 40
0.782608695652174
 40
0.8260869565217391
 40
0.8260869565217391
 40
0.8260869565217391
 40
0.8260869565217391
 40
0.8695652173913043
 40
0.8695652173913043
 40
0.8695652173913043
 40
0.8695652173913043
 40
0.9130434782608695
 40
0.9130434782608695
 40
0.9130434782608695
 40
0.9130434782608695
 40
1.0
 40
1.0
 40
1.0
 40
1.0
 10
-27.4519
 20
-4.7177
 30
0.0
 10
-27.4519
 20
-4.7177
 30
0.0
 10
-27.474
 20
-4.4571
 30
0.0
 10
-27.474
 20
-4.4571
 30
0.0
 10
-27.474
 20
-4.4571
 30
0.0
 10
-27.347
 20
-4.4378
 30
0.0
 10
-27.252
 20
-4.3931
 30
0.0
 10
-27.188
 20
-4.323
 30
0.0
 10
-27.188
 20
-4.323
 30
0.0
 10
-27.124
 20
-4.2525
 30
0.0
 10
-27.092
 20
-4.1678
 30
0.0
 10
-27.092
 20
-4.0686
 30
0.0
 10
-27.092
 20
-4.0686
 30
0.0
 10
-27.092
 20
-3.9491
 30
0.0
 10
-27.1372
 20
-3.848
 30
0.0
 10
-27.227
 20
-3.7657
 30
0.0
 10
-27.227
 20
-3.7657
 30
0.0
 10
-27.3173
 20
-3.6829
 30
0.0
 10
-27.4368
 20
-3.6415
 30
0.0
 10
-27.5854
 20
-3.6415
 30
0.0
 10
-27.5854
 20
-3.6415
 30
0.0
 10
-27.727
 20
-3.6415
 30
0.0
 10
-27.8385
 20
-3.681
 30
0.0
 10
-27.9203
 20
-3.7605
 30
0.0
 10
-27.9203
 20
-3.7605
 30
0.0
 10
-28.0022
 20
-3.84
 30
0.0
 10
-28.0431
 20
-3.9439
 30
0.0
 10
-28.0431
 20
-4.0728
 30
0.0
 10
-28.0431
 20
-4.0728
 30
0.0
 10
-28.0431
 20
-4.1528
 30
0.0
 10
-28.0248
 20
-4.2247
 30
0.0
 10
-27.9886
 20
-4.2892
 30
0.0
 10
-27.9886
 20
-4.2892
 30
0.0
 10
-27.9523
 20
-4.3536
 30
0.0
 10
-27.9053
 20
-4.4039
 30
0.0
 10
-27.8474
 20
-4.4406
 30
0.0
 10
-27.8474
 20
-4.4406
 30
0.0
 10
-27.8474
 20
-4.4406
 30
0.0
 10
-27.8775
 20
-4.6735
 30
0.0
 10
-27.8775
 20
-4.6735
 30
0.0
 10
-27.8775
 20
-4.6735
 30
0.0
 10
-27.8775
 20
-4.6735
 30
0.0
 10
-28.9152
 20
-4.4778
 30
0.0
 10
-28.9152
 20
-4.4778
 30
0.0
 10
-28.9152
 20
-4.4778
 30
0.0
 10
-28.9152
 20
-4.4778
 30
0.0
 10
-28.9152
 20
-3.4731
 30
0.0
 10
-28.9152
 20
-3.4731
 30
0.0
 10
-28.9152
 20
-3.4731
 30
0.0
 10
-28.9152
 20
-3.4731
 30
0.0
 10
-28.6781
 20
-3.4731
 30
0.0
 10
-28.6781
 20
-3.4731
 30
0.0
 10
-28.6781
 20
-3.4731
 30
0.0
 10
-28.6781
 20
-3.4731
 30
0.0
 10
-28.6781
 20
-4.2793
 30
0.0
 10
-28.6781
 20
-4.2793
 30
0.0
 10
-28.6781
 20
-4.2793
 30
0.0
 10
-28.6781
 20
-4.2793
 30
0.0
 10
-28.1353
 20
-4.3884
 30
0.0
 10
-28.1353
 20
-4.3884
 30
0.0
 10
-28.1353
 20
-4.3884
 30
0.0
 10
-28.22
 20
-4.2671
 30
0.0
 10
-28.2623
 20
-4.1396
 30
0.0
 10
-28.2623
 20
-4.0065
 30
0.0
 10
-28.2623
 20
-4.0065
 30
0.0
 10
-28.2623
 20
-3.8301
 30
0.0
 10
-28.2012
 20
-3.6815
 30
0.0
 10
-28.0789
 20
-3.5601
 30
0.0
 10
-28.0789
 20
-3.5601
 30
0.0
 10
-27.9566
 20
-3.4388
 30
0.0
 10
-27.7995
 20
-3.3781
 30
0.0
 10
-27.6076
 20
-3.3781
 30
0.0
 10
-27.6076
 20
-3.3781
 30
0.0
 10
-27.4246
 20
-3.3781
 30
0.0
 10
-27.2665
 20
-3.4317
 30
0.0
 10
-27.1334
 20
-3.538
 30
0.0
 10
-27.1334
 20
-3.538
 30
0.0
 10
-26.9702
 20
-3.6678
 30
0.0
 10
-26.8884
 20
-3.8447
 30
0.0
 10
-26.8884
 20
-4.0686
 30
0.0
 10
-26.8884
 20
-4.0686
 30
0.0
 10
-26.8884
 20
-4.2525
 30
0.0
 10
-26.9396
 20
-4.4025
 30
0.0
 10
-27.0426
 20
-4.5187
 30
0.0
 10
-27.0426
 20
-4.5187
 30
0.0
 10
-27.1457
 20
-4.6349
 30
0.0
 10
-27.2821
 20
-4.7012
 30
0.0
 10
-27.4519
 20
-4.7177
 30
0.0
  0
ENDSEC
  0
SECTION
  2
OBJECTS
  0
DICTIONARY
  5
C
330
0
100
AcDbDictionary
  3
ACAD_GROUP
350
D
  3
ACAD_LAYOUT
350
1A
  3
ACAD_MATERIAL
350
3B
  3
ACAD_MLEADERSTYLE
350
FF
  3
ACAD_MLINESTYLE
350
17
  3
ACAD_PLOTSETTINGS
350
19
  3
ACAD_VISUALSTYLE
350
2A
  3
ACDBHEADERROUNDTRIPXREC
350
DD
  3
ACDBVARIABLEDICTIONARY
350
FD
  0
DICTIONARY
  5
D
102
{ACAD_REACTORS
330
C
102
}
330
C
100
AcDbDictionary
  0
DICTIONARY
  5
1A
102
{ACAD_REACTORS
330
C
102
}
330
C
100
AcDbDictionary
  0
DICTIONARY
  5
3B
102
{ACAD_REACTORS
330
C
102
}
330
C
100
AcDbDictionary
  3
BYBLOCK
350
3D
  3
BYLAYER
350
3C
  3
GLOBAL
350
3E
  0
DICTIONARY
  5
FF
102
{ACAD_REACTORS
330
C
102
}
330
C
100
AcDbDictionary
  0
DICTIONARY
  5
17
102
{ACAD_REACTORS
330
C
102
}
330
C
100
AcDbDictionary
  3
STANDARD
350
18
  0
DICTIONARY
  5
19
102
{ACAD_REACTORS
330
C
102
}
330
C
100
AcDbDictionary
  0
DICTIONARY
  5
2A
102
{ACAD_REACTORS
330
C
102
}
330
C
100
AcDbDictionary
  3
2DWIREFRAME
350
2F
  3
3D_HIDDEN
350
31
  3
3DWIREFRAME
350
30
  3
BASIC
350
32
  3
BRIGHTEN
350
36
  3
COLORCHANGE
350
3A
  3
CONCEPTUAL
350
34
  3
DIM
350
35
  3
FACEPATTERN
350
39
  3
FLAT
350
2B
  3
FLATWITHEDGES
350
2C
  3
GOURAUD
350
2D
  3
GOURAUDWITHEDGES
350
2E
  3
LINEPATTERN
350
38
  3
REALISTIC
350
33
  3
THICKEN
350
37
  0
DICTIONARY
  5
DD
102
{ACAD_REACTORS
330
C
102
}
330
C
100
AcDbDictionary
  3
CEPSNTYPE
350
E6
  3
DIMSTYLEDATA
350
FC
  3
FINGERPRINTGUID
350
E7
  3
HYPERLINKBASE
350
E0
  3
INSUNITS
350
E5
  3
LAYOUTDICT
350
E2
  3
LWETCUNION
350
E4
  3
PLOTSETDICT
350
E3
  3
PSVPSCALE
350
E9
  3
PUCSBASE
350
EC
  3
PUCSORGBACK
350
F2
  3
PUCSORGBOTTOM
350
EE
  3
PUCSORGFRONT
350
F1
  3
PUCSORGLEFT
350
EF
  3
PUCSORGRIGHT
350
F0
  3
PUCSORGTOP
350
ED
  3
PUCSORTHOREF
350
EA
  3
PUCSORTHOVIEW
350
EB
  3
STYLESHEET
350
E1
  3
TSTACKALIGN
350
DE
  3
TSTACKSIZE
350
DF
  3
UCSBASE
350
F5
  3
UCSORGBACK
350
FB
  3
UCSORGBOTTOM
350
F7
  3
UCSORGFRONT
350
FA
  3
UCSORGLEFT
350
F8
  3
UCSORGRIGHT
350
F9
  3
UCSORGTOP
350
F6
  3
UCSORTHOREF
350
F3
  3
UCSORTHOVIEW
350
F4
  3
VERSIONGUID
350
E8
  0
DICTIONARY
  5
FD
102
{ACAD_REACTORS
330
C
102
}
330
C
100
AcDbDictionary
  3
DIMASSOC
350
100
  3
HIDETEXT
350
101
  0
MATERIAL
  5
3D
102
{ACAD_REACTORS
330
3B
102
}
102
{ACAD_XDICTIONARY
360
104
102
}
330
3B
100
AcDbMaterial
  1
ByBlock
  0
MATERIAL
  5
3C
102
{ACAD_REACTORS
330
3B
102
}
102
{ACAD_XDICTIONARY
360
102
102
}
330
3B
100
AcDbMaterial
  1
ByLayer
  0
MATERIAL
  5
3E
102
{ACAD_REACTORS
330
3B
102
}
102
{ACAD_XDICTIONARY
360
106
102
}
330
3B
100
AcDbMaterial
  1
Global
  0
MLINESTYLE
  5
18
102
{ACAD_REACTORS
330
17
102
}
330
17
100
AcDbMlineStyle
  2
Standard
 70
     0
  3

 62
   256
 51
90.0
 52
90.0
 71
     2
 49
0.5
 62
   256
  6
BYLAYER
 49
-0.5
 62
   256
  6
BYLAYER
  0
ACAD_PROXY_OBJECT
  5
2F
102
{ACAD_REACTORS
330
2A
102
}
330
2A
100
AcDbProxyObject
 90
      499
 91
      501
 93
      436
310
42CC9915DA5C99599C985B595049028333333333333E3BF0000000000000FB0107901411070040501600405405064090741402480A0340
1001
ACAD
1000
AcDbSavedByObjectVersion
1070
     0
  0
ACAD_PROXY_OBJECT
  5
31
102
{ACAD_REACTORS
330
2A
102
}
330
2A
100
AcDbProxyObject
 90
      499
 91
      501
 93
      500
310
424CD108121A5919195B90640502408333333333333E3BF0000000000000FB01079024090700405020000000000001110200405405064090740C02480A0340
1001
ACAD
1000
AcDbSavedByObjectVersion
1070
     0
  0
ACAD_PROXY_OBJECT
  5
30
102
{ACAD_REACTORS
330
2A
102
}
330
2A
100
AcDbProxyObject
 90
      499
 91
      501
 93
      436
310
42CCD915DA5C99599C985B595059028333333333333E3BF0000000000000FB0107901411070040501600405405064090741402480A0340
1001
ACAD
1000
AcDbSavedByObjectVersion
1070
     0
  0
ACAD_PROXY_OBJECT
  5
32
102
{ACAD_REACTORS
330
2A
102
}
330
2A
100
AcDbProxyObject
 90
      499
 91
      501
 93
      388
310
4150985CDA58D07406404333333333333E3BF0000000000000FB0107A41107004050150841D405064090741402480A0350
1001
ACAD
1000
AcDbSavedByObjectVersion
1070
     0
  0
ACAD_PROXY_OBJECT
  5
36
102
{ACAD_REACTORS
330
2A
102
}
330
2A
100
AcDbProxyObject
 90
      499
 91
      501
 93
      428
310
42109C9A59DA1D195B90C409028333333333333E3BF0000000000000FB010790141107004050150841D405064090741402480A029950
1001
ACAD
1000
AcDbSavedByObjectVersion
1070
     0
  0
ACAD_PROXY_OBJECT
  5
3A
102
{ACAD_REACTORS
330
2A
102
}
330
2A
100
AcDbProxyObject
 90
      499
 91
      501
 93
      452
310
42D0DBDB1BDC90DA185B99D95104090240C333333333333E3BF0000000000000FB0108901411070040501508421405064090741402480A0350
1001
ACAD
1000
AcDbSavedByObjectVersion
1070
     0
  0
ACAD_PROXY_OBJECT
  5
34
102
{ACAD_REACTORS
330
2A
102
}
330
2A
100
AcDbProxyObject
 90
      499
 91
      501
 93
      500
310
4290DBDB98D95C1D1D585B10940D028333333333333E3BF0000000000000FB0107902409070040501000000000000111010841D405064090740C02480A0340
1001
ACAD
1000
AcDbSavedByObjectVersion
1070
     0
  0
ACAD_PROXY_OBJECT
  5
35
102
{ACAD_REACTORS
330
2A
102
}
330
2A
100
AcDbProxyObject
 90
      499
 91
      501
 93
      412
310
40D11A5B50B409028333333333333E3BF0000000000000FB010790141107004050150841D405064090741402480A02677FFFFFD0
1001
ACAD
1000
AcDbSavedByObjectVersion
1070
     0
  0
ACAD_PROXY_OBJECT
  5
39
102
{ACAD_REACTORS
330
2A
102
}
330
2A
100
AcDbProxyObject
 90
      499
 91
      501
 93
      444
310
42D19858D95C185D1D195C9B90F409028333333333333E3BF0000000000000FB010790141107004050150841D405064090741402480A0350
1001
ACAD
1000
AcDbSavedByObjectVersion
1070
     0
  0
ACAD_PROXY_OBJECT
  5
2B
102
{ACAD_REACTORS
330
2A
102
}
330
2A
100
AcDbProxyObject
 90
      499
 91
      501
 93
      388
310
41119B185D240901404333333333333E3BF0000000000000F9010740A41107004050150841D405064090741402480A1B50
1001
ACAD
1000
AcDbSavedByObjectVersion
1070
     0
  0
ACAD_PROXY_OBJECT
  5
2C
102
{ACAD_REACTORS
330
2A
102
}
330
2A
100
AcDbProxyObject
 90
      499
 91
      501
 93
      476
310
43519B185D15DA5D1A115919D95CD0140901404333333333333E3BF0000000000000F9010740901411070040501600405405064090741402480A1B50
1001
ACAD
1000
AcDbSavedByObjectVersion
1070
     0
  0
ACAD_PROXY_OBJECT
  5
2D
102
{ACAD_REACTORS
330
2A
102
}
330
2A
100
AcDbProxyObject
 90
      499
 91
      501
 93
      412
310
41D1DBDD5C985D5910240902404333333333333E3BF0000000000000F9010740A411070040501641D405064090741402480A1B50
1001
ACAD
1000
AcDbSavedByObjectVersion
1070
     0
  0
ACAD_PROXY_OBJECT
  5
2E
102
{ACAD_REACTORS
330
2A
102
}
330
2A
100
AcDbProxyObject
 90
      499
 91
      501
 93
      500
310
4411DBDD5C985D5915DA5D1A115919D95CD0340902404333333333333E3BF0000000000000F9010740901411070040501600405405064090741402480A1B50
1001
ACAD
1000
AcDbSavedByObjectVersion
1070
     0
  0
ACAD_PROXY_OBJECT
  5
38
102
{ACAD_REACTORS
330
2A
102
}
330
2A
100
AcDbProxyObject
 90
      499
 91
      501
 93
      444
310
42D31A5B995C185D1D195C9B90E409028333333333333E3BF0000000000000FB010790141107004050750841D405064090741402483A0350
1001
ACAD
1000
AcDbSavedByObjectVersion
1070
     0
  0
ACAD_PROXY_OBJECT
  5
33
102
{ACAD_REACTORS
330
2A
102
}
330
2A
100
AcDbProxyObject
 90
      499
 91
      501
 93
      420
310
425499585B1A5CDD1A58D08409028333333333333E3BF0000000000000FB01079019070040501508421405064090741402480A1B40
1001
ACAD
1000
AcDbSavedByObjectVersion
1070
     0
  0
ACAD_PROXY_OBJECT
  5
37
102
{ACAD_REACTORS
330
2A
102
}
330
2A
100
AcDbProxyObject
 90
      499
 91
      501
 93
      412
310
41D51A1A58DAD95B90D409028333333333333E3BF0000000000000FB010790141107004050150C41D405064090741402480A0350
1001
ACAD
1000
AcDbSavedByObjectVersion
1070
     0
  0
XRECORD
  5
E6
102
{ACAD_REACTORS
330
DD
102
}
330
DD
100
AcDbXrecord
 90
        0
  0
XRECORD
  5
FC
102
{ACAD_REACTORS
330
DD
102
}
330
DD
100
AcDbXrecord
1000
DSTYLE
1002
{
1070
   340
340
11
1002
}
  0
XRECORD
  5
E7
102
{ACAD_REACTORS
330
DD
102
}
330
DD
100
AcDbXrecord
  1
{07FB7095-C6E6-40DB-A429-B29A99943601}
  0
XRECORD
  5
E0
102
{ACAD_REACTORS
330
DD
102
}
330
DD
100
AcDbXrecord
  1

  0
XRECORD
  5
E5
102
{ACAD_REACTORS
330
DD
102
}
330
DD
100
AcDbXrecord
 90
        4
  0
XRECORD
  5
E2
102
{ACAD_REACTORS
330
DD
102
}
330
DD
100
AcDbXrecord
340
1A
  0
XRECORD
  5
E4
102
{ACAD_REACTORS
330
DD
102
}
330
DD
100
AcDbXrecord
 90
    10781
  0
XRECORD
  5
E3
102
{ACAD_REACTORS
330
DD
102
}
330
DD
100
AcDbXrecord
340
19
  0
XRECORD
  5
E9
102
{ACAD_REACTORS
330
DD
102
}
330
DD
100
AcDbXrecord
 40
0.0
  0
XRECORD
  5
EC
102
{ACAD_REACTORS
330
DD
102
}
330
DD
100
AcDbXrecord
340
0
  0
XRECORD
  5
F2
102
{ACAD_REACTORS
330
DD
102
}
330
DD
100
AcDbXrecord
 10
0.0
 20
0.0
 30
0.0
  0
XRECORD
  5
EE
102
{ACAD_REACTORS
330
DD
102
}
330
DD
100
AcDbXrecord
 10
0.0
 20
0.0
 30
0.0
  0
XRECORD
  5
F1
102
{ACAD_REACTORS
330
DD
102
}
330
DD
100
AcDbXrecord
 10
0.0
 20
0.0
 30
0.0
  0
XRECORD
  5
EF
102
{ACAD_REACTORS
330
DD
102
}
330
DD
100
AcDbXrecord
 10
0.0
 20
0.0
 30
0.0
  0
XRECORD
  5
F0
102
{ACAD_REACTORS
330
DD
102
}
330
DD
100
AcDbXrecord
 10
0.0
 20
0.0
 30
0.0
  0
XRECORD
  5
ED
102
{ACAD_REACTORS
330
DD
102
}
330
DD
100
AcDbXrecord
 10
0.0
 20
0.0
 30
0.0
  0
XRECORD
  5
EA
102
{ACAD_REACTORS
330
DD
102
}
330
DD
100
AcDbXrecord
340
0
  0
XRECORD
  5
EB
102
{ACAD_REACTORS
330
DD
102
}
330
DD
100
AcDbXrecord
 70
     0
  0
XRECORD
  5
E1
102
{ACAD_REACTORS
330
DD
102
}
330
DD
100
AcDbXrecord
  1

  0
XRECORD
  5
DE
102
{ACAD_REACTORS
330
DD
102
}
330
DD
100
AcDbXrecord
 90
        1
  0
XRECORD
  5
DF
102
{ACAD_REACTORS
330
DD
102
}
330
DD
100
AcDbXrecord
 90
       70
  0
XRECORD
  5
F5
102
{ACAD_REACTORS
330
DD
102
}
330
DD
100
AcDbXrecord
340
0
  0
XRECORD
  5
FB
102
{ACAD_REACTORS
330
DD
102
}
330
DD
100
AcDbXrecord
 10
0.0
 20
0.0
 30
0.0
  0
XRECORD
  5
F7
102
{ACAD_REACTORS
330
DD
102
}
330
DD
100
AcDbXrecord
 10
0.0
 20
0.0
 30
0.0
  0
XRECORD
  5
FA
102
{ACAD_REACTORS
330
DD
102
}
330
DD
100
AcDbXrecord
 10
0.0
 20
0.0
 30
0.0
  0
XRECORD
  5
F8
102
{ACAD_REACTORS
330
DD
102
}
330
DD
100
AcDbXrecord
 10
0.0
 20
0.0
 30
0.0
  0
XRECORD
  5
F9
102
{ACAD_REACTORS
330
DD
102
}
330
DD
100
AcDbXrecord
 10
0.0
 20
0.0
 30
0.0
  0
XRECORD
  5
F6
102
{ACAD_REACTORS
330
DD
102
}
330
DD
100
AcDbXrecord
 10
0.0
 20
0.0
 30
0.0
  0
XRECORD
  5
F3
102
{ACAD_REACTORS
330
DD
102
}
330
DD
100
AcDbXrecord
340
0
  0
XRECORD
  5
F4
102
{ACAD_REACTORS
330
DD
102
}
330
DD
100
AcDbXrecord
 70
     0
  0
XRECORD
  5
E8
102
{ACAD_REACTORS
330
DD
102
}
330
DD
100
AcDbXrecord
  1
{FAEB1C32-E019-11D5-929B-00C0DF256EC4}
  0
DICTIONARYVAR
  5
100
102
{ACAD_REACTORS
330
FD
102
}
330
FD
100
DictionaryVariables
280
     0
  1
2
  0
DICTIONARYVAR
  5
101
102
{ACAD_REACTORS
330
FD
102
}
330
FD
100
DictionaryVariables
280
     0
  1
1
  0
DICTIONARY
  5
104
330
3D
100
AcDbDictionary
280
     1
  3
ACAD_XREC_ROUNDTRIP
360
105
  0
DICTIONARY
  5
102
330
3C
100
AcDbDictionary
280
     1
  3
ACAD_XREC_ROUNDTRIP
360
103
  0
DICTIONARY
  5
106
330
3E
100
AcDbDictionary
280
     1
  3
ACAD_XREC_ROUNDTRIP
360
107
  0
XRECORD
  5
105
102
{ACAD_REACTORS
330
104
102
}
330
104
100
AcDbXrecord
102
MATERIAL
148
0.0
149
0.0
149
0.0
 93
        0
 94
      127
282
     0
 72
     1
 77
     1
171
     1
175
     1
179
     1
273
     0
  0
XRECORD
  5
103
102
{ACAD_REACTORS
330
102
102
}
330
102
100
AcDbXrecord
102
MATERIAL
148
0.0
149
0.0
149
0.0
 93
        0
 94
      127
282
     0
 72
     1
 77
     1
171
     1
175
     1
179
     1
273
     0
  0
XRECORD
  5
107
102
{ACAD_REACTORS
330
106
102
}
330
106
100
AcDbXrecord
102
MATERIAL
148
0.0
149
0.0
149
0.0
 93
        0
 94
      127
282
     0
 72
     1
 77
     1
171
     1
175
     1
179
     1
273
     0
  0
ENDSEC
  0
EOF
