  0
SECTION
  2
HEADER
  9
$ACADVER
  1
AC1014
  9
$ACADMAINTVER
 70
     9
  9
$DWGCODEPAGE
  3
ANSI_1250
  9
$INSBASE
 10
0.0
 20
0.0
 30
0.0
  9
$EXTMIN
 10
-27.9828
 20
-37.5187
 30
0.0
  9
$EXTMAX
 10
27.9831
 20
37.5188
 30
0.0
  9
$LIMMIN
 10
0.0
 20
0.0
  9
$LIMMAX
 10
12.0
 20
9.0
  9
$ORTHOMODE
 70
     0
  9
$REGENMODE
 70
     1
  9
$FILLMODE
 70
     1
  9
$QTEXTMODE
 70
     0
  9
$MIRRTEXT
 70
     1
  9
$DRAGMODE
 70
     2
  9
$LTSCALE
 40
1.0
  9
$OSMODE
 70
    37
  9
$ATTMODE
 70
     1
  9
$TEXTSIZE
 40
0.2
  9
$TRACEWID
 40
0.05
  9
$TEXTSTYLE
  7
STANDARD
  9
$CLAYER
  8
0
  9
$CELTYPE
  6
BYLAYER
  9
$CECOLOR
 62
   256
  9
$CELTSCALE
 40
1.0
  9
$DELOBJ
 70
     1
  9
$DISPSILH
 70
     0
  9
$DIMSCALE
 40
1.0
  9
$DIMASZ
 40
0.18
  9
$DIMEXO
 40
0.0625
  9
$DIMDLI
 40
0.38
  9
$DIMRND
 40
0.0
  9
$DIMDLE
 40
0.0
  9
$DIMEXE
 40
0.18
  9
$DIMTP
 40
0.0
  9
$DIMTM
 40
0.0
  9
$DIMTXT
 40
0.18
  9
$DIMCEN
 40
0.09
  9
$DIMTSZ
 40
0.0
  9
$DIMTOL
 70
     0
  9
$DIMLIM
 70
     0
  9
$DIMTIH
 70
     1
  9
$DIMTOH
 70
     1
  9
$DIMSE1
 70
     0
  9
$DIMSE2
 70
     0
  9
$DIMTAD
 70
     0
  9
$DIMZIN
 70
     0
  9
$DIMBLK
  1

  9
$DIMASO
 70
     1
  9
$DIMSHO
 70
     1
  9
$DIMPOST
  1

  9
$DIMAPOST
  1

  9
$DIMALT
 70
     0
  9
$DIMALTD
 70
     2
  9
$DIMALTF
 40
25.4
  9
$DIMLFAC
 40
1.0
  9
$DIMTOFL
 70
     0
  9
$DIMTVP
 40
0.0
  9
$DIMTIX
 70
     0
  9
$DIMSOXD
 70
     0
  9
$DIMSAH
 70
     0
  9
$DIMBLK1
  1

  9
$DIMBLK2
  1

  9
$DIMSTYLE
  2
STANDARD
  9
$DIMCLRD
 70
     0
  9
$DIMCLRE
 70
     0
  9
$DIMCLRT
 70
     0
  9
$DIMTFAC
 40
1.0
  9
$DIMGAP
 40
0.09
  9
$DIMJUST
 70
     0
  9
$DIMSD1
 70
     0
  9
$DIMSD2
 70
     0
  9
$DIMTOLJ
 70
     1
  9
$DIMTZIN
 70
     0
  9
$DIMALTZ
 70
     0
  9
$DIMALTTZ
 70
     0
  9
$DIMFIT
 70
     3
  9
$DIMUPT
 70
     0
  9
$DIMUNIT
 70
     2
  9
$DIMDEC
 70
     4
  9
$DIMTDEC
 70
     4
  9
$DIMALTU
 70
     2
  9
$DIMALTTD
 70
     2
  9
$DIMTXSTY
  7
STANDARD
  9
$DIMAUNIT
 70
     0
  9
$LUNITS
 70
     2
  9
$LUPREC
 70
     4
  9
$SKETCHINC
 40
0.1
  9
$FILLETRAD
 40
0.5
  9
$AUNITS
 70
     0
  9
$AUPREC
 70
     0
  9
$MENU
  1
.
  9
$ELEVATION
 40
0.0
  9
$PELEVATION
 40
0.0
  9
$THICKNESS
 40
0.0
  9
$LIMCHECK
 70
     0
  9
$CHAMFERA
 40
0.5
  9
$CHAMFERB
 40
0.5
  9
$CHAMFERC
 40
1.0
  9
$CHAMFERD
 40
0.0
  9
$SKPOLY
 70
     0
  9
$TDCREATE
 40
2456272.42879581
  9
$TDUPDATE
 40
2456272.428795822
  9
$TDINDWG
 40
0.0000000116
  9
$TDUSRTIMER
 40
0.0000000116
  9
$USRTIMER
 70
     1
  9
$ANGBASE
 50
0.0
  9
$ANGDIR
 70
     0
  9
$PDMODE
 70
     0
  9
$PDSIZE
 40
0.0
  9
$PLINEWID
 40
0.0
  9
$COORDS
 70
     1
  9
$SPLFRAME
 70
     0
  9
$SPLINETYPE
 70
     6
  9
$SPLINESEGS
 70
     8
  9
$ATTDIA
 70
     0
  9
$ATTREQ
 70
     1
  9
$HANDLING
 70
     1
  9
$HANDSEED
  5
C2
  9
$SURFTAB1
 70
     6
  9
$SURFTAB2
 70
     6
  9
$SURFTYPE
 70
     6
  9
$SURFU
 70
     6
  9
$SURFV
 70
     6
  9
$UCSNAME
  2

  9
$UCSORG
 10
0.0
 20
0.0
 30
0.0
  9
$UCSXDIR
 10
1.0
 20
0.0
 30
0.0
  9
$UCSYDIR
 10
0.0
 20
1.0
 30
0.0
  9
$PUCSNAME
  2

  9
$PUCSORG
 10
0.0
 20
0.0
 30
0.0
  9
$PUCSXDIR
 10
1.0
 20
0.0
 30
0.0
  9
$PUCSYDIR
 10
0.0
 20
1.0
 30
0.0
  9
$USERI1
 70
     0
  9
$USERI2
 70
     0
  9
$USERI3
 70
     0
  9
$USERI4
 70
     0
  9
$USERI5
 70
     0
  9
$USERR1
 40
0.0
  9
$USERR2
 40
0.0
  9
$USERR3
 40
0.0
  9
$USERR4
 40
0.0
  9
$USERR5
 40
0.0
  9
$WORLDVIEW
 70
     1
  9
$SHADEDGE
 70
     3
  9
$SHADEDIF
 70
    70
  9
$TILEMODE
 70
     1
  9
$MAXACTVP
 70
    64
  9
$PINSBASE
 10
0.0
 20
0.0
 30
0.0
  9
$PLIMCHECK
 70
     0
  9
$PEXTMIN
 10
1.000000000000000E+20
 20
1.000000000000000E+20
 30
1.000000000000000E+20
  9
$PEXTMAX
 10
-1.000000000000000E+20
 20
-1.000000000000000E+20
 30
-1.000000000000000E+20
  9
$PLIMMIN
 10
0.0
 20
0.0
  9
$PLIMMAX
 10
12.0
 20
9.0
  9
$UNITMODE
 70
     0
  9
$VISRETAIN
 70
     1
  9
$PLINEGEN
 70
     0
  9
$PSLTSCALE
 70
     1
  9
$TREEDEPTH
 70
  3020
  9
$PICKSTYLE
 70
     1
  9
$CMLSTYLE
  2
STANDARD
  9
$CMLJUST
 70
     0
  9
$CMLSCALE
 40
1.0
  9
$PROXYGRAPHICS
 70
     1
  9
$MEASUREMENT
 70
     0
  0
ENDSEC
  0
SECTION
  2
CLASSES
  0
CLASS
  1
ACDBDICTIONARYWDFLT
  2
AcDbDictionaryWithDefault
  3
ObjectDBX Classes
 90
        0
280
     0
281
     0
  0
CLASS
  1
VISUALSTYLE
  2
AcDbVisualStyle
  3
ObjectDBX Classes
 90
     4095
280
     0
281
     0
  0
CLASS
  1
MATERIAL
  2
AcDbMaterial
  3
ObjectDBX Classes
 90
     1153
280
     0
281
     0
  0
CLASS
  1
DICTIONARYVAR
  2
AcDbDictionaryVar
  3
ObjectDBX Classes
 90
        0
280
     0
281
     0
  0
CLASS
  1
XRECORD
  2
AcDbXrecord
  3
AutoCAD 2000
 90
        0
280
     0
281
     0
  0
CLASS
  1
LWPOLYLINE
  2
AcDbPolyline
  3
AutoCAD 2000
 90
        0
280
     0
281
     1
  0
CLASS
  1
HATCH
  2
AcDbHatch
  3
AutoCAD 2000
 90
        0
280
     0
281
     1
  0
CLASS
  1
ACDBPLACEHOLDER
  2
AcDbPlaceHolder
  3
ObjectDBX Classes
 90
        0
280
     0
281
     0
  0
CLASS
  1
LAYOUT
  2
AcDbLayout
  3
ObjectDBX Classes
 90
        0
280
     0
281
     0
  0
ENDSEC
  0
SECTION
  2
TABLES
  0
TABLE
  2
VPORT
  5
8
330
0
100
AcDbSymbolTable
 70
     1
  0
VPORT
  5
29
330
8
100
AcDbSymbolTableRecord
100
AcDbViewportTableRecord
  2
*ACTIVE
 70
     0
 10
0.0
 20
0.0
 11
1.0
 21
1.0
 12
10.42990654205607
 22
4.5
 13
0.0
 23
0.0
 14
0.5
 24
0.5
 15
0.5
 25
0.5
 16
0.0
 26
0.0
 36
1.0
 17
0.0
 27
0.0
 37
0.0
 40
9.0
 41
1.972972972850329
 42
50.0
 43
0.0
 44
0.0
 50
0.0
 51
0.0
 71
     0
 72
   100
 73
     1
 74
     3
 75
     0
 76
     0
 77
     0
 78
     0
  0
ENDTAB
  0
TABLE
  2
LTYPE
  5
5
330
0
100
AcDbSymbolTable
 70
     3
  0
LTYPE
  5
14
330
5
100
AcDbSymbolTableRecord
100
AcDbLinetypeTableRecord
  2
BYBLOCK
 70
     0
  3

 72
    65
 73
     0
 40
0.0
  0
LTYPE
  5
15
330
5
100
AcDbSymbolTableRecord
100
AcDbLinetypeTableRecord
  2
BYLAYER
 70
     0
  3

 72
    65
 73
     0
 40
0.0
  0
LTYPE
  5
16
330
5
100
AcDbSymbolTableRecord
100
AcDbLinetypeTableRecord
  2
CONTINUOUS
 70
     0
  3
Solid line
 72
    65
 73
     0
 40
0.0
  0
LTYPE
  5
42
330
5
100
AcDbSymbolTableRecord
100
AcDbLinetypeTableRecord
  2
NEW_LINE1
 70
     0
  3

 72
    65
 73
     4
 40
1.2
 49
0.5
 74
     4
 75
     0
340
0
 46
1.0
 50
0.0
 44
0.0
 45
0.0
 49
-0.3
 74
     4
 75
     0
340
0
 46
1.0
 50
0.0
 44
0.0
 45
0.0
 49
0.1
 74
     4
 75
     0
340
0
 46
1.0
 50
0.0
 44
0.0
 45
0.0
 49
-0.3
 74
     4
 75
     0
340
0
 46
1.0
 50
0.0
 44
0.0
 45
0.0
  0
LTYPE
  5
5C
330
5
100
AcDbSymbolTableRecord
100
AcDbLinetypeTableRecord
  2
NEW_LINE2
 70
     0
  3

 72
    65
 73
     4
 40
1.2
 49
0.5
 74
     4
 75
     0
340
0
 46
1.0
 50
0.0
 44
0.0
 45
0.0
 49
-0.3
 74
     4
 75
     0
340
0
 46
1.0
 50
0.0
 44
0.0
 45
0.0
 49
0.1
 74
     4
 75
     0
340
0
 46
1.0
 50
0.0
 44
0.0
 45
0.0
 49
-0.3
 74
     4
 75
     0
340
0
 46
1.0
 50
0.0
 44
0.0
 45
0.0
  0
ENDTAB
  0
TABLE
  2
LAYER
  5
2
330
0
100
AcDbSymbolTable
 70
     2
  0
LAYER
  5
10
330
2
100
AcDbSymbolTableRecord
100
AcDbLayerTableRecord
  2
0
 70
     0
 62
     7
  6
CONTINUOUS
  0
LAYER
  5
40
330
2
100
AcDbSymbolTableRecord
100
AcDbLayerTableRecord
  2
ROUND
 70
     0
 62
     7
  6
CONTINUOUS
  0
ENDTAB
  0
TABLE
  2
STYLE
  5
3
330
0
100
AcDbSymbolTable
 70
     1
  0
STYLE
  5
11
330
3
100
AcDbSymbolTableRecord
100
AcDbTextStyleTableRecord
  2
STANDARD
 70
     0
 40
0.0
 41
1.0
 50
0.0
 71
     0
 42
0.2
  3
txt
  4

  0
ENDTAB
  0
TABLE
  2
VIEW
  5
6
330
0
100
AcDbSymbolTable
 70
     0
  0
ENDTAB
  0
TABLE
  2
UCS
  5
7
330
0
100
AcDbSymbolTable
 70
     0
  0
ENDTAB
  0
TABLE
  2
APPID
  5
9
330
0
100
AcDbSymbolTable
 70
     2
  0
APPID
  5
12
330
9
100
AcDbSymbolTableRecord
100
AcDbRegAppTableRecord
  2
ACAD
 70
     0
  0
APPID
  5
3F
330
9
100
AcDbSymbolTableRecord
100
AcDbRegAppTableRecord
  2
ODA
 70
     0
  0
ENDTAB
  0
TABLE
  2
DIMSTYLE
  5
A
330
0
100
AcDbSymbolTable
 70
     1
  0
DIMSTYLE
105
27
330
A
100
AcDbSymbolTableRecord
100
AcDbDimStyleTableRecord
  2
STANDARD
 70
     0
  3

  4

  5

  6

  7

 40
1.0
 41
0.18
 42
0.0625
 43
0.38
 44
0.18
 45
0.0
 46
0.0
 47
0.0
 48
0.0
140
0.18
141
0.09
142
0.0
143
25.4
144
1.0
145
0.0
146
1.0
147
0.09
 71
     0
 72
     0
 73
     1
 74
     1
 75
     0
 76
     0
 77
     0
 78
     0
170
     0
171
     2
172
     0
173
     0
174
     0
175
     0
176
     0
177
     0
178
     0
270
     2
271
     4
272
     4
273
     2
274
     2
340
11
275
     0
280
     0
281
     0
282
     0
283
     1
284
     0
285
     0
286
     0
287
     3
288
     0
  0
ENDTAB
  0
TABLE
  2
BLOCK_RECORD
  5
1
330
0
100
AcDbSymbolTable
 70
     1
  0
BLOCK_RECORD
  5
1F
330
1
100
AcDbSymbolTableRecord
100
AcDbBlockTableRecord
  2
*MODEL_SPACE
  0
BLOCK_RECORD
  5
1B
330
1
100
AcDbSymbolTableRecord
100
AcDbBlockTableRecord
  2
*PAPER_SPACE
  0
ENDTAB
  0
ENDSEC
  0
SECTION
  2
BLOCKS
  0
BLOCK
  5
20
330
1F
100
AcDbEntity
  8
0
100
AcDbBlockBegin
  2
*MODEL_SPACE
 70
     0
 10
0.0
 20
0.0
 30
0.0
  3
*MODEL_SPACE
  1

  0
ENDBLK
  5
21
330
1F
100
AcDbEntity
  8
0
100
AcDbBlockEnd
  0
BLOCK
  5
1C
330
1B
100
AcDbEntity
 67
     1
  8
0
100
AcDbBlockBegin
  2
*PAPER_SPACE
 70
     0
 10
0.0
 20
0.0
 30
0.0
  3
*PAPER_SPACE
  1

  0
ENDBLK
  5
1D
330
1B
100
AcDbEntity
 67
     1
  8
0
100
AcDbBlockEnd
  0
ENDSEC
  0
SECTION
  2
ENTITIES
  0
SPLINE
  5
41
330
1F
100
AcDbEntity
  8
ROUND
  6
NEW_LINE1
 62
   250
100
AcDbSpline
210
0.0
220
0.0
230
1.0
 70
    24
 71
     3
 72
     8
 73
     4
 74
     0
 42
0.0000000001
 43
0.0000000001
 40
0.0
 40
0.0
 40
0.0
 40
0.0
 40
1.0
 40
1.0
 40
1.0
 40
1.0
 10
6.802
 20
17.8697
 30
0.0
 10
6.802
 20
17.8697
 30
0.0
 10
21.029
 20
17.8697
 30
0.0
 10
21.029
 20
17.8697
 30
0.0
  0
SPLINE
  5
43
330
1F
100
AcDbEntity
  8
ROUND
 62
   250
100
AcDbSpline
210
0.0
220
0.0
230
1.0
 70
    11
 71
     3
 72
    92
 73
    88
 74
     0
 42
0.0000000001
 43
0.0000000001
 40
0.0
 40
0.0
 40
0.0
 40
0.0
 40
0.0434782608695652
 40
0.0434782608695652
 40
0.0434782608695652
 40
0.0434782608695652
 40
0.0869565217391304
 40
0.0869565217391304
 40
0.0869565217391304
 40
0.0869565217391304
 40
0.1304347826086956
 40
0.1304347826086956
 40
0.1304347826086956
 40
0.1304347826086956
 40
0.1739130434782609
 40
0.1739130434782609
 40
0.1739130434782609
 40
0.1739130434782609
 40
0.2173913043478261
 40
0.2173913043478261
 40
0.2173913043478261
 40
0.2173913043478261
 40
0.2608695652173913
 40
0.2608695652173913
 40
0.2608695652173913
 40
0.2608695652173913
 40
0.3043478260869565
 40
0.3043478260869565
 40
0.3043478260869565
 40
0.3043478260869565
 40
0.3478260869565217
 40
0.3478260869565217
 40
0.3478260869565217
 40
0.3478260869565217
 40
0.391304347826087
 40
0.391304347826087
 40
0.391304347826087
 40
0.391304347826087
 40
0.4347826086956522
 40
0.4347826086956522
 40
0.4347826086956522
 40
0.4347826086956522
 40
0.4782608695652174
 40
0.4782608695652174
 40
0.4782608695652174
 40
0.4782608695652174
 40
0.5217391304347826
 40
0.5217391304347826
 40
0.5217391304347826
 40
0.5217391304347826
 40
0.5652173913043478
 40
0.5652173913043478
 40
0.5652173913043478
 40
0.5652173913043478
 40
0.6086956521739131
 40
0.6086956521739131
 40
0.6086956521739131
 40
0.6086956521739131
 40
0.6521739130434783
 40
0.6521739130434783
 40
0.6521739130434783
 40
0.6521739130434783
 40
0.6956521739130435
 40
0.6956521739130435
 40
0.6956521739130435
 40
0.6956521739130435
 40
0.7391304347826086
 40
0.7391304347826086
 40
0.7391304347826086
 40
0.7391304347826086
 40
0.782608695652174
 40
0.782608695652174
 40
0.782608695652174
 40
0.782608695652174
 40
0.8260869565217391
 40
0.8260869565217391
 40
0.8260869565217391
 40
0.8260869565217391
 40
0.8695652173913043
 40
0.8695652173913043
 40
0.8695652173913043
 40
0.8695652173913043
 40
0.9130434782608695
 40
0.9130434782608695
 40
0.9130434782608695
 40
0.9130434782608695
 40
1.0
 40
1.0
 40
1.0
 40
1.0
 10
-25.0521
 20
-11.3048
 30
0.0
 10
-25.0521
 20
-11.3048
 30
0.0
 10
-24.6619
 20
-11.3052
 30
0.0
 10
-24.6619
 20
-11.3052
 30
0.0
 10
-24.6619
 20
-11.3052
 30
0.0
 10
-24.6619
 20
-11.3052
 30
0.0
 10
-24.6641
 20
-13.4904
 30
0.0
 10
-24.6641
 20
-13.4904
 30
0.0
 10
-24.6641
 20
-13.4904
 30
0.0
 10
-24.7619
 20
-13.4934
 30
0.0
 10
-24.8558
 20
-13.4779
 30
0.0
 10
-24.9458
 20
-13.4432
 30
0.0
 10
-24.9458
 20
-13.4432
 30
0.0
 10
-25.095
 20
-13.3876
 30
0.0
 10
-25.2412
 20
-13.2982
 30
0.0
 10
-25.3858
 20
-13.1757
 30
0.0
 10
-25.3858
 20
-13.1757
 30
0.0
 10
-25.5296
 20
-13.0523
 30
0.0
 10
-25.6965
 20
-12.8752
 30
0.0
 10
-25.8855
 20
-12.6441
 30
0.0
 10
-25.8855
 20
-12.6441
 30
0.0
 10
-26.18
 20
-12.2843
 30
0.0
 10
-26.4129
 20
-12.0408
 30
0.0
 10
-26.5853
 20
-11.9143
 30
0.0
 10
-26.5853
 20
-11.9143
 30
0.0
 10
-26.7568
 20
-11.788
 30
0.0
 10
-26.9199
 20
-11.7247
 30
0.0
 10
-27.0731
 20
-11.7245
 30
0.0
 10
-27.0731
 20
-11.7245
 30
0.0
 10
-27.2339
 20
-11.7244
 30
0.0
 10
-27.3695
 20
-11.7819
 30
0.0
 10
-27.4804
 20
-11.8965
 30
0.0
 10
-27.4804
 20
-11.8965
 30
0.0
 10
-27.5906
 20
-12.0119
 30
0.0
 10
-27.6462
 20
-12.1619
 30
0.0
 10
-27.6463
 20
-12.3466
 30
0.0
 10
-27.6463
 20
-12.3466
 30
0.0
 10
-27.6465
 20
-12.5421
 30
0.0
 10
-27.5882
 20
-12.6985
 30
0.0
 10
-27.4706
 20
-12.8155
 30
0.0
 10
-27.4706
 20
-12.8155
 30
0.0
 10
-27.3537
 20
-12.9335
 30
0.0
 10
-27.1913
 20
-12.9929
 30
0.0
 10
-26.9843
 20
-12.9946
 30
0.0
 10
-26.9843
 20
-12.9946
 30
0.0
 10
-26.9843
 20
-12.9946
 30
0.0
 10
-27.027
 20
-13.4118
 30
0.0
 10
-27.027
 20
-13.4118
 30
0.0
 10
-27.027
 20
-13.4118
 30
0.0
 10
-27.3388
 20
-13.383
 30
0.0
 10
-27.5757
 20
-13.275
 30
0.0
 10
-27.7387
 20
-13.0886
 30
0.0
 10
-27.7387
 20
-13.0886
 30
0.0
 10
-27.9017
 20
-12.9021
 30
0.0
 10
-27.9831
 20
-12.6511
 30
0.0
 10
-27.9827
 20
-12.3371
 30
0.0
 10
-27.9827
 20
-12.3371
 30
0.0
 10
-27.9824
 20
-12.0199
 30
0.0
 10
-27.8936
 20
-11.7691
 30
0.0
 10
-27.718
 20
-11.5846
 30
0.0
 10
-27.718
 20
-11.5846
 30
0.0
 10
-27.5415
 20
-11.3993
 30
0.0
 10
-27.3236
 20
-11.3071
 30
0.0
 10
-27.0634
 20
-11.3073
 30
0.0
 10
-27.0634
 20
-11.3073
 30
0.0
 10
-26.931
 20
-11.3075
 30
0.0
 10
-26.8009
 20
-11.3345
 30
0.0
 10
-26.6733
 20
-11.3894
 30
0.0
 10
-26.6733
 20
-11.3894
 30
0.0
 10
-26.5455
 20
-11.4434
 30
0.0
 10
-26.4109
 20
-11.5335
 30
0.0
 10
-26.2701
 20
-11.6592
 30
0.0
 10
-26.2701
 20
-11.6592
 30
0.0
 10
-26.1287
 20
-11.7848
 30
0.0
 10
-25.9349
 20
-11.9936
 30
0.0
 10
-25.6889
 20
-12.2856
 30
0.0
 10
-25.6889
 20
-12.2856
 30
0.0
 10
-25.4844
 20
-12.529
 30
0.0
 10
-25.346
 20
-12.6854
 30
0.0
 10
-25.273
 20
-12.7547
 30
0.0
 10
-25.273
 20
-12.7547
 30
0.0
 10
-25.2007
 20
-12.8241
 30
0.0
 10
-25.1276
 20
-12.8811
 30
0.0
 10
-25.0537
 20
-12.9266
 30
0.0
 10
-25.0537
 20
-12.9266
 30
0.0
 10
-25.0537
 20
-12.9266
 30
0.0
 10
-25.0521
 20
-11.3048
 30
0.0
 10
-25.0521
 20
-11.3048
 30
0.0
  0
SPLINE
  5
44
330
1F
100
AcDbEntity
  8
ROUND
 62
   250
100
AcDbSpline
210
0.0
220
0.0
230
1.0
 70
    11
 71
     3
 72
    52
 73
    48
 74
     0
 42
0.0000000001
 43
0.0000000001
 40
0.0
 40
0.0
 40
0.0
 40
0.0
 40
0.0769230769230769
 40
0.0769230769230769
 40
0.0769230769230769
 40
0.0769230769230769
 40
0.1538461538461539
 40
0.1538461538461539
 40
0.1538461538461539
 40
0.1538461538461539
 40
0.2307692307692308
 40
0.2307692307692308
 40
0.2307692307692308
 40
0.2307692307692308
 40
0.3076923076923077
 40
0.3076923076923077
 40
0.3076923076923077
 40
0.3076923076923077
 40
0.3846153846153846
 40
0.3846153846153846
 40
0.3846153846153846
 40
0.3846153846153846
 40
0.4615384615384616
 40
0.4615384615384616
 40
0.4615384615384616
 40
0.4615384615384616
 40
0.5384615384615384
 40
0.5384615384615384
 40
0.5384615384615384
 40
0.5384615384615384
 40
0.6153846153846154
 40
0.6153846153846154
 40
0.6153846153846154
 40
0.6153846153846154
 40
0.6923076923076923
 40
0.6923076923076923
 40
0.6923076923076923
 40
0.6923076923076923
 40
0.7692307692307693
 40
0.7692307692307693
 40
0.7692307692307693
 40
0.7692307692307693
 40
0.8461538461538461
 40
0.8461538461538461
 40
0.8461538461538461
 40
0.8461538461538461
 40
1.0
 40
1.0
 40
1.0
 40
1.0
 10
-26.2917
 20
-10.8686
 30
0.0
 10
-26.6827
 20
-10.8682
 30
0.0
 10
-26.9975
 20
-10.8279
 30
0.0
 10
-27.2352
 20
-10.7469
 30
0.0
 10
-27.2352
 20
-10.7469
 30
0.0
 10
-27.4737
 20
-10.6665
 30
0.0
 10
-27.6576
 20
-10.5463
 30
0.0
 10
-27.7867
 20
-10.3876
 30
0.0
 10
-27.7867
 20
-10.3876
 30
0.0
 10
-27.9159
 20
-10.2289
 30
0.0
 10
-27.9804
 20
-10.0295
 30
0.0
 10
-27.9801
 20
-9.7893
 30
0.0
 10
-27.9801
 20
-9.7893
 30
0.0
 10
-27.9799
 20
-9.6115
 30
0.0
 10
-27.9436
 20
-9.456
 30
0.0
 10
-27.8718
 20
-9.3222
 30
0.0
 10
-27.8718
 20
-9.3222
 30
0.0
 10
-27.8009
 20
-9.1884
 30
0.0
 10
-27.6977
 20
-9.0784
 30
0.0
 10
-27.5629
 20
-8.9908
 30
0.0
 10
-27.5629
 20
-8.9908
 30
0.0
 10
-27.4281
 20
-8.904
 30
0.0
 10
-27.264
 20
-8.8356
 30
0.0
 10
-27.0708
 20
-8.7865
 30
0.0
 10
-27.0708
 20
-8.7865
 30
0.0
 10
-26.8775
 20
-8.7367
 30
0.0
 10
-26.6174
 20
-8.7124
 30
0.0
 10
-26.2895
 20
-8.7127
 30
0.0
 10
-26.2895
 20
-8.7127
 30
0.0
 10
-25.9015
 20
-8.7131
 30
0.0
 10
-25.589
 20
-8.7535
 30
0.0
 10
-25.3505
 20
-8.833
 30
0.0
 10
-25.3505
 20
-8.833
 30
0.0
 10
-25.112
 20
-8.9133
 30
0.0
 10
-24.9281
 20
-9.0327
 30
0.0
 10
-24.7982
 20
-9.1915
 30
0.0
 10
-24.7982
 20
-9.1915
 30
0.0
 10
-24.6684
 20
-9.3502
 30
0.0
 10
-24.6039
 20
-9.5504
 30
0.0
 10
-24.6041
 20
-9.7928
 30
0.0
 10
-24.6041
 20
-9.7928
 30
0.0
 10
-24.6044
 20
-10.1115
 30
0.0
 10
-24.7186
 20
-10.3616
 30
0.0
 10
-24.9474
 20
-10.5429
 30
0.0
 10
-24.9474
 20
-10.5429
 30
0.0
 10
-25.2224
 20
-10.7604
 30
0.0
 10
-25.6713
 20
-10.8693
 30
0.0
 10
-26.2917
 20
-10.8686
 30
0.0
  0
SPLINE
  5
45
330
1F
100
AcDbEntity
  8
ROUND
 62
   250
100
AcDbSpline
210
0.0
220
0.0
230
1.0
 70
    11
 71
     3
 72
    36
 73
    32
 74
     0
 42
0.0000000001
 43
0.0000000001
 40
0.0
 40
0.0
 40
0.0
 40
0.0
 40
0.1111111111111111
 40
0.1111111111111111
 40
0.1111111111111111
 40
0.1111111111111111
 40
0.2222222222222222
 40
0.2222222222222222
 40
0.2222222222222222
 40
0.2222222222222222
 40
0.3333333333333333
 40
0.3333333333333333
 40
0.3333333333333333
 40
0.3333333333333333
 40
0.4444444444444444
 40
0.4444444444444444
 40
0.4444444444444444
 40
0.4444444444444444
 40
0.5555555555555556
 40
0.5555555555555556
 40
0.5555555555555556
 40
0.5555555555555556
 40
0.6666666666666666
 40
0.6666666666666666
 40
0.6666666666666666
 40
0.6666666666666666
 40
0.7777777777777778
 40
0.7777777777777778
 40
0.7777777777777778
 40
0.7777777777777778
 40
1.0
 40
1.0
 40
1.0
 40
1.0
 10
-26.2913
 20
-10.4515
 30
0.0
 10
-25.7486
 20
-10.4521
 30
0.0
 10
-25.3875
 20
-10.3886
 30
0.0
 10
-25.2073
 20
-10.2618
 30
0.0
 10
-25.2073
 20
-10.2618
 30
0.0
 10
-25.0279
 20
-10.1349
 30
0.0
 10
-24.9376
 20
-9.9787
 30
0.0
 10
-24.9374
 20
-9.7924
 30
0.0
 10
-24.9374
 20
-9.7924
 30
0.0
 10
-24.9372
 20
-9.6054
 30
0.0
 10
-25.0279
 20
-9.449
 30
0.0
 10
-25.2078
 20
-9.3219
 30
0.0
 10
-25.2078
 20
-9.3219
 30
0.0
 10
-25.3879
 20
-9.1947
 30
0.0
 10
-25.7487
 20
-9.1305
 30
0.0
 10
-26.2899
 20
-9.1299
 30
0.0
 10
-26.2899
 20
-9.1299
 30
0.0
 10
-26.834
 20
-9.1294
 30
0.0
 10
-27.1959
 20
-9.1928
 30
0.0
 10
-27.3746
 20
-9.3196
 30
0.0
 10
-27.3746
 20
-9.3196
 30
0.0
 10
-27.5541
 20
-9.4464
 30
0.0
 10
-27.6435
 20
-9.6042
 30
0.0
 10
-27.6437
 20
-9.7936
 30
0.0
 10
-27.6437
 20
-9.7936
 30
0.0
 10
-27.6439
 20
-9.9806
 30
0.0
 10
-27.5648
 20
-10.1292
 30
0.0
 10
-27.4071
 20
-10.241
 30
0.0
 10
-27.4071
 20
-10.241
 30
0.0
 10
-27.2064
 20
-10.3805
 30
0.0
 10
-26.8339
 20
-10.451
 30
0.0
 10
-26.2913
 20
-10.4515
 30
0.0
  0
SPLINE
  5
46
330
1F
100
AcDbEntity
  8
ROUND
 62
   250
100
AcDbSpline
210
0.0
220
0.0
230
1.0
 70
    11
 71
     3
 72
    92
 73
    88
 74
     0
 42
0.0000000001
 43
0.0000000001
 40
0.0
 40
0.0
 40
0.0
 40
0.0
 40
0.0434782608695652
 40
0.0434782608695652
 40
0.0434782608695652
 40
0.0434782608695652
 40
0.0869565217391304
 40
0.0869565217391304
 40
0.0869565217391304
 40
0.0869565217391304
 40
0.1304347826086956
 40
0.1304347826086956
 40
0.1304347826086956
 40
0.1304347826086956
 40
0.1739130434782609
 40
0.1739130434782609
 40
0.1739130434782609
 40
0.1739130434782609
 40
0.2173913043478261
 40
0.2173913043478261
 40
0.2173913043478261
 40
0.2173913043478261
 40
0.2608695652173913
 40
0.2608695652173913
 40
0.2608695652173913
 40
0.2608695652173913
 40
0.3043478260869565
 40
0.3043478260869565
 40
0.3043478260869565
 40
0.3043478260869565
 40
0.3478260869565217
 40
0.3478260869565217
 40
0.3478260869565217
 40
0.3478260869565217
 40
0.391304347826087
 40
0.391304347826087
 40
0.391304347826087
 40
0.391304347826087
 40
0.4347826086956522
 40
0.4347826086956522
 40
0.4347826086956522
 40
0.4347826086956522
 40
0.4782608695652174
 40
0.4782608695652174
 40
0.4782608695652174
 40
0.4782608695652174
 40
0.5217391304347826
 40
0.5217391304347826
 40
0.5217391304347826
 40
0.5217391304347826
 40
0.5652173913043478
 40
0.5652173913043478
 40
0.5652173913043478
 40
0.5652173913043478
 40
0.6086956521739131
 40
0.6086956521739131
 40
0.6086956521739131
 40
0.6086956521739131
 40
0.6521739130434783
 40
0.6521739130434783
 40
0.6521739130434783
 40
0.6521739130434783
 40
0.6956521739130435
 40
0.6956521739130435
 40
0.6956521739130435
 40
0.6956521739130435
 40
0.7391304347826086
 40
0.7391304347826086
 40
0.7391304347826086
 40
0.7391304347826086
 40
0.782608695652174
 40
0.782608695652174
 40
0.782608695652174
 40
0.782608695652174
 40
0.8260869565217391
 40
0.8260869565217391
 40
0.8260869565217391
 40
0.8260869565217391
 40
0.8695652173913043
 40
0.8695652173913043
 40
0.8695652173913043
 40
0.8695652173913043
 40
0.9130434782608695
 40
0.9130434782608695
 40
0.9130434782608695
 40
0.9130434782608695
 40
1.0
 40
1.0
 40
1.0
 40
1.0
 10
-25.5247
 20
-8.3009
 30
0.0
 10
-25.5247
 20
-8.3009
 30
0.0
 10
-25.5604
 20
-7.8745
 30
0.0
 10
-25.5604
 20
-7.8745
 30
0.0
 10
-25.5604
 20
-7.8745
 30
0.0
 10
-25.3526
 20
-7.8432
 30
0.0
 10
-25.197
 20
-7.7702
 30
0.0
 10
-25.0922
 20
-7.6556
 30
0.0
 10
-25.0922
 20
-7.6556
 30
0.0
 10
-24.9874
 20
-7.5403
 30
0.0
 10
-24.9349
 20
-7.4017
 30
0.0
 10
-24.9348
 20
-7.2393
 30
0.0
 10
-24.9348
 20
-7.2393
 30
0.0
 10
-24.9346
 20
-7.0438
 30
0.0
 10
-25.0083
 20
-6.8783
 30
0.0
 10
-25.1552
 20
-6.7434
 30
0.0
 10
-25.1552
 20
-6.7434
 30
0.0
 10
-25.3028
 20
-6.6079
 30
0.0
 10
-25.4983
 20
-6.5399
 30
0.0
 10
-25.7415
 20
-6.5396
 30
0.0
 10
-25.7415
 20
-6.5396
 30
0.0
 10
-25.9732
 20
-6.5394
 30
0.0
 10
-26.1556
 20
-6.6039
 30
0.0
 10
-26.2898
 20
-6.7338
 30
0.0
 10
-26.2898
 20
-6.7338
 30
0.0
 10
-26.4238
 20
-6.8637
 30
0.0
 10
-26.491
 20
-7.0338
 30
0.0
 10
-26.4912
 20
-7.2447
 30
0.0
 10
-26.4912
 20
-7.2447
 30
0.0
 10
-26.4913
 20
-7.3755
 30
0.0
 10
-26.4613
 20
-7.4934
 30
0.0
 10
-26.4022
 20
-7.5988
 30
0.0
 10
-26.4022
 20
-7.5988
 30
0.0
 10
-26.3431
 20
-7.7044
 30
0.0
 10
-26.2661
 20
-7.7868
 30
0.0
 10
-26.1716
 20
-7.847
 30
0.0
 10
-26.1716
 20
-7.847
 30
0.0
 10
-26.1716
 20
-7.847
 30
0.0
 10
-26.2212
 20
-8.2279
 30
0.0
 10
-26.2212
 20
-8.2279
 30
0.0
 10
-26.2212
 20
-8.2279
 30
0.0
 10
-26.2212
 20
-8.2279
 30
0.0
 10
-27.9189
 20
-7.906
 30
0.0
 10
-27.9189
 20
-7.906
 30
0.0
 10
-27.9189
 20
-7.906
 30
0.0
 10
-27.9189
 20
-7.906
 30
0.0
 10
-27.9172
 20
-6.2619
 30
0.0
 10
-27.9172
 20
-6.2619
 30
0.0
 10
-27.9172
 20
-6.2619
 30
0.0
 10
-27.9172
 20
-6.2619
 30
0.0
 10
-27.5293
 20
-6.2623
 30
0.0
 10
-27.5293
 20
-6.2623
 30
0.0
 10
-27.5293
 20
-6.2623
 30
0.0
 10
-27.5293
 20
-6.2623
 30
0.0
 10
-27.5306
 20
-7.5816
 30
0.0
 10
-27.5306
 20
-7.5816
 30
0.0
 10
-27.5306
 20
-7.5816
 30
0.0
 10
-27.5306
 20
-7.5816
 30
0.0
 10
-26.6425
 20
-7.761
 30
0.0
 10
-26.6425
 20
-7.761
 30
0.0
 10
-26.6425
 20
-7.761
 30
0.0
 10
-26.7809
 20
-7.5623
 30
0.0
 10
-26.85
 20
-7.3537
 30
0.0
 10
-26.8498
 20
-7.1358
 30
0.0
 10
-26.8498
 20
-7.1358
 30
0.0
 10
-26.8495
 20
-6.8472
 30
0.0
 10
-26.7491
 20
-6.6041
 30
0.0
 10
-26.5488
 20
-6.4057
 30
0.0
 10
-26.5488
 20
-6.4057
 30
0.0
 10
-26.3484
 20
-6.2073
 30
0.0
 10
-26.0913
 20
-6.1082
 30
0.0
 10
-25.7772
 20
-6.1086
 30
0.0
 10
-25.7772
 20
-6.1086
 30
0.0
 10
-25.4778
 20
-6.1089
 30
0.0
 10
-25.2193
 20
-6.1968
 30
0.0
 10
-25.0016
 20
-6.3711
 30
0.0
 10
-25.0016
 20
-6.3711
 30
0.0
 10
-24.7347
 20
-6.5837
 30
0.0
 10
-24.6011
 20
-6.8733
 30
0.0
 10
-24.6015
 20
-7.2397
 30
0.0
 10
-24.6015
 20
-7.2397
 30
0.0
 10
-24.6018
 20
-7.5407
 30
0.0
 10
-24.6859
 20
-7.7861
 30
0.0
 10
-24.8547
 20
-7.9761
 30
0.0
 10
-24.8547
 20
-7.9761
 30
0.0
 10
-25.0234
 20
-8.1661
 30
0.0
 10
-25.2468
 20
-8.2743
 30
0.0
 10
-25.5247
 20
-8.3009
 30
0.0
  0
SPLINE
  5
47
330
1F
100
AcDbEntity
  8
ROUND
 62
   250
100
AcDbSpline
210
0.0
220
0.0
230
1.0
 70
    24
 71
     3
 72
     8
 73
     4
 74
     0
 42
0.0000000001
 43
0.0000000001
 40
0.0
 40
0.0
 40
0.0
 40
0.0
 40
1.0
 40
1.0
 40
1.0
 40
1.0
 10
-23.8243
 20
17.1407
 30
0.0
 10
-23.8243
 20
17.1407
 30
0.0
 10
-23.8243
 20
-35.8177
 30
0.0
 10
-23.8243
 20
-35.8177
 30
0.0
  0
SPLINE
  5
48
330
1F
100
AcDbEntity
  8
ROUND
 62
   250
100
AcDbSpline
210
0.0
220
0.0
230
1.0
 70
    11
 71
     3
 72
    20
 73
    16
 74
     0
 42
0.0000000001
 43
0.0000000001
 40
0.0
 40
0.0
 40
0.0
 40
0.0
 40
0.2
 40
0.2
 40
0.2
 40
0.2
 40
0.4
 40
0.4
 40
0.4
 40
0.4
 40
0.6
 40
0.6
 40
0.6
 40
0.6
 40
1.0
 40
1.0
 40
1.0
 40
1.0
 10
-23.0145
 20
12.8379
 30
0.0
 10
-23.0145
 20
12.8379
 30
0.0
 10
-23.657
 20
17.7307
 30
0.0
 10
-23.657
 20
17.7307
 30
0.0
 10
-23.657
 20
17.7307
 30
0.0
 10
-23.657
 20
17.7307
 30
0.0
 10
-23.9152
 20
17.7296
 30
0.0
 10
-23.9152
 20
17.7296
 30
0.0
 10
-23.9152
 20
17.7296
 30
0.0
 10
-23.9152
 20
17.7296
 30
0.0
 10
-24.6568
 20
12.8215
 30
0.0
 10
-24.6568
 20
12.8215
 30
0.0
 10
-24.6568
 20
12.8215
 30
0.0
 10
-24.6568
 20
12.8215
 30
0.0
 10
-23.0145
 20
12.8379
 30
0.0
 10
-23.0145
 20
12.8379
 30
0.0
  0
SPLINE
  5
49
330
1F
100
AcDbEntity
  8
ROUND
 62
   250
100
AcDbSpline
210
0.0
220
0.0
230
1.0
 70
    11
 71
     3
 72
    20
 73
    16
 74
     0
 42
0.0000000001
 43
0.0000000001
 40
0.0
 40
0.0
 40
0.0
 40
0.0
 40
0.2
 40
0.2
 40
0.2
 40
0.2
 40
0.4
 40
0.4
 40
0.4
 40
0.4
 40
0.6
 40
0.6
 40
0.6
 40
0.6
 40
1.0
 40
1.0
 40
1.0
 40
1.0
 10
-24.6355
 20
-31.0733
 30
0.0
 10
-24.6355
 20
-31.0733
 30
0.0
 10
-23.993
 20
-35.9664
 30
0.0
 10
-23.993
 20
-35.9664
 30
0.0
 10
-23.993
 20
-35.9664
 30
0.0
 10
-23.993
 20
-35.9664
 30
0.0
 10
-23.7348
 20
-35.9652
 30
0.0
 10
-23.7348
 20
-35.9652
 30
0.0
 10
-23.7348
 20
-35.9652
 30
0.0
 10
-23.7348
 20
-35.9652
 30
0.0
 10
-22.9931
 20
-31.0568
 30
0.0
 10
-22.9931
 20
-31.0568
 30
0.0
 10
-22.9931
 20
-31.0568
 30
0.0
 10
-22.9931
 20
-31.0568
 30
0.0
 10
-24.6355
 20
-31.0733
 30
0.0
 10
-24.6355
 20
-31.0733
 30
0.0
  0
SPLINE
  5
4A
330
1F
100
AcDbEntity
  8
ROUND
 62
   250
100
AcDbSpline
210
0.0
220
0.0
230
1.0
 70
    24
 71
     3
 72
     8
 73
     4
 74
     0
 42
0.0000000001
 43
0.0000000001
 40
0.0
 40
0.0
 40
0.0
 40
0.0
 40
1.0
 40
1.0
 40
1.0
 40
1.0
 10
5.8939
 20
17.8926
 30
0.0
 10
5.8939
 20
17.8926
 30
0.0
 10
-24.6321
 20
17.8926
 30
0.0
 10
-24.6321
 20
17.8926
 30
0.0
  0
SPLINE
  5
4B
330
1F
100
AcDbEntity
  8
ROUND
 62
   250
100
AcDbSpline
210
0.0
220
0.0
230
1.0
 70
    24
 71
     3
 72
     8
 73
     4
 74
     0
 42
0.0000000001
 43
0.0000000001
 40
0.0
 40
0.0
 40
0.0
 40
0.0
 40
1.0
 40
1.0
 40
1.0
 40
1.0
 10
-16.9309
 20
-36.1607
 30
0.0
 10
-16.9309
 20
-36.1607
 30
0.0
 10
-24.8395
 20
-36.1607
 30
0.0
 10
-24.8395
 20
-36.1607
 30
0.0
  0
SPLINE
  5
4C
330
1F
100
AcDbEntity
  8
ROUND
 62
   250
100
AcDbSpline
210
0.0
220
0.0
230
1.0
 70
    24
 71
     3
 72
     8
 73
     4
 74
     0
 42
0.0000000001
 43
0.0000000001
 40
0.0
 40
0.0
 40
0.0
 40
0.0
 40
1.0
 40
1.0
 40
1.0
 40
1.0
 10
27.9831
 20
29.2462
 30
0.0
 10
27.9831
 20
29.2462
 30
0.0
 10
19.6089
 20
29.2462
 30
0.0
 10
19.6089
 20
29.2462
 30
0.0
  0
SPLINE
  5
4D
330
1F
100
AcDbEntity
  8
ROUND
 62
   250
100
AcDbSpline
210
0.0
220
0.0
230
1.0
 70
    11
 71
     3
 72
    84
 73
    80
 74
     0
 42
0.0000000001
 43
0.0000000001
 40
0.0
 40
0.0
 40
0.0
 40
0.0
 40
0.0476190476190476
 40
0.0476190476190476
 40
0.0476190476190476
 40
0.0476190476190476
 40
0.0952380952380952
 40
0.0952380952380952
 40
0.0952380952380952
 40
0.0952380952380952
 40
0.1428571428571428
 40
0.1428571428571428
 40
0.1428571428571428
 40
0.1428571428571428
 40
0.1904761904761905
 40
0.1904761904761905
 40
0.1904761904761905
 40
0.1904761904761905
 40
0.2380952380952381
 40
0.2380952380952381
 40
0.2380952380952381
 40
0.2380952380952381
 40
0.2857142857142857
 40
0.2857142857142857
 40
0.2857142857142857
 40
0.2857142857142857
 40
0.3333333333333333
 40
0.3333333333333333
 40
0.3333333333333333
 40
0.3333333333333333
 40
0.3809523809523809
 40
0.3809523809523809
 40
0.3809523809523809
 40
0.3809523809523809
 40
0.4285714285714285
 40
0.4285714285714285
 40
0.4285714285714285
 40
0.4285714285714285
 40
0.4761904761904762
 40
0.4761904761904762
 40
0.4761904761904762
 40
0.4761904761904762
 40
0.5238095238095238
 40
0.5238095238095238
 40
0.5238095238095238
 40
0.5238095238095238
 40
0.5714285714285714
 40
0.5714285714285714
 40
0.5714285714285714
 40
0.5714285714285714
 40
0.6190476190476191
 40
0.6190476190476191
 40
0.6190476190476191
 40
0.6190476190476191
 40
0.6666666666666666
 40
0.6666666666666666
 40
0.6666666666666666
 40
0.6666666666666666
 40
0.7142857142857143
 40
0.7142857142857143
 40
0.7142857142857143
 40
0.7142857142857143
 40
0.7619047619047619
 40
0.7619047619047619
 40
0.7619047619047619
 40
0.7619047619047619
 40
0.8095238095238095
 40
0.8095238095238095
 40
0.8095238095238095
 40
0.8095238095238095
 40
0.8571428571428571
 40
0.8571428571428571
 40
0.8571428571428571
 40
0.8571428571428571
 40
0.9047619047619048
 40
0.9047619047619048
 40
0.9047619047619048
 40
0.9047619047619048
 40
1.0
 40
1.0
 40
1.0
 40
1.0
 10
-4.8196
 20
-19.8816
 30
0.0
 10
-4.8196
 20
-19.8816
 30
0.0
 10
-4.4409
 20
-19.4575
 30
0.0
 10
-4.4409
 20
-19.4575
 30
0.0
 10
-4.4409
 20
-19.4575
 30
0.0
 10
-4.4409
 20
-19.4575
 30
0.0
 10
-4.2176
 20
-19.6468
 30
0.0
 10
-4.2176
 20
-19.6468
 30
0.0
 10
-4.2176
 20
-19.6468
 30
0.0
 10
-4.2176
 20
-19.6468
 30
0.0
 10
-4.614
 20
-20.0933
 30
0.0
 10
-4.614
 20
-20.0933
 30
0.0
 10
-4.614
 20
-20.0933
 30
0.0
 10
-4.4847
 20
-20.2857
 30
0.0
 10
-4.3978
 20
-20.4543
 30
0.0
 10
-4.3523
 20
-20.5982
 30
0.0
 10
-4.3523
 20
-20.5982
 30
0.0
 10
-4.2923
 20
-20.7875
 30
0.0
 10
-4.2623
 20
-21.0
 30
0.0
 10
-4.2623
 20
-21.234
 30
0.0
 10
-4.2623
 20
-21.234
 30
0.0
 10
-4.2623
 20
-21.5726
 30
0.0
 10
-4.3308
 20
-21.8744
 30
0.0
 10
-4.4678
 20
-22.1384
 30
0.0
 10
-4.4678
 20
-22.1384
 30
0.0
 10
-4.6048
 20
-22.4032
 30
0.0
 10
-4.7965
 20
-22.6033
 30
0.0
 10
-5.0435
 20
-22.7387
 30
0.0
 10
-5.0435
 20
-22.7387
 30
0.0
 10
-5.2914
 20
-22.8735
 30
0.0
 10
-5.5539
 20
-22.9412
 30
0.0
 10
-5.8317
 20
-22.9412
 30
0.0
 10
-5.8317
 20
-22.9412
 30
0.0
 10
-6.0396
 20
-22.9412
 30
0.0
 10
-6.2274
 20
-22.9119
 30
0.0
 10
-6.3959
 20
-22.8534
 30
0.0
 10
-6.3959
 20
-22.8534
 30
0.0
 10
-6.5252
 20
-22.808
 30
0.0
 10
-6.6761
 20
-22.7218
 30
0.0
 10
-6.8493
 20
-22.5941
 30
0.0
 10
-6.8493
 20
-22.5941
 30
0.0
 10
-6.8493
 20
-22.5941
 30
0.0
 10
-7.228
 20
-23.0182
 30
0.0
 10
-7.228
 20
-23.0182
 30
0.0
 10
-7.228
 20
-23.0182
 30
0.0
 10
-7.228
 20
-23.0182
 30
0.0
 10
-7.4512
 20
-22.8288
 30
0.0
 10
-7.4512
 20
-22.8288
 30
0.0
 10
-7.4512
 20
-22.8288
 30
0.0
 10
-7.4512
 20
-22.8288
 30
0.0
 10
-7.054
 20
-22.3847
 30
0.0
 10
-7.054
 20
-22.3847
 30
0.0
 10
-7.054
 20
-22.3847
 30
0.0
 10
-7.2018
 20
-22.1607
 30
0.0
 10
-7.3003
 20
-21.969
 30
0.0
 10
-7.3496
 20
-21.8105
 30
0.0
 10
-7.3496
 20
-21.8105
 30
0.0
 10
-7.3989
 20
-21.6519
 30
0.0
 10
-7.4243
 20
-21.461
 30
0.0
 10
-7.4243
 20
-21.2386
 30
0.0
 10
-7.4243
 20
-21.2386
 30
0.0
 10
-7.4243
 20
-20.8991
 30
0.0
 10
-7.3565
 20
-20.5967
 30
0.0
 10
-7.2211
 20
-20.3311
 30
0.0
 10
-7.2211
 20
-20.3311
 30
0.0
 10
-7.0856
 20
-20.0655
 30
0.0
 10
-6.8962
 20
-19.8647
 30
0.0
 10
-6.6515
 20
-19.7276
 30
0.0
 10
-6.6515
 20
-19.7276
 30
0.0
 10
-6.4075
 20
-19.5914
 30
0.0
 10
-6.1358
 20
-19.5229
 30
0.0
 10
-5.8364
 20
-19.5229
 30
0.0
 10
-5.8364
 20
-19.5229
 30
0.0
 10
-5.6347
 20
-19.5229
 30
0.0
 10
-5.4584
 20
-19.5491
 30
0.0
 10
-5.3076
 20
-19.6029
 30
0.0
 10
-5.3076
 20
-19.6029
 30
0.0
 10
-5.1567
 20
-19.6561
 30
0.0
 10
-4.9935
 20
-19.7492
 30
0.0
 10
-4.8196
 20
-19.8816
 30
0.0
  0
SPLINE
  5
4E
330
1F
100
AcDbEntity
  8
ROUND
 62
   250
100
AcDbSpline
210
0.0
220
0.0
230
1.0
 70
    11
 71
     3
 72
    32
 73
    28
 74
     0
 42
0.0000000001
 43
0.0000000001
 40
0.0
 40
0.0
 40
0.0
 40
0.0
 40
0.125
 40
0.125
 40
0.125
 40
0.125
 40
0.25
 40
0.25
 40
0.25
 40
0.25
 40
0.375
 40
0.375
 40
0.375
 40
0.375
 40
0.5
 40
0.5
 40
0.5
 40
0.5
 40
0.625
 40
0.625
 40
0.625
 40
0.625
 40
0.75
 40
0.75
 40
0.75
 40
0.75
 40
1.0
 40
1.0
 40
1.0
 40
1.0
 10
-5.0897
 20
-20.1856
 30
0.0
 10
-5.2314
 20
-20.0748
 30
0.0
 10
-5.3553
 20
-19.9986
 30
0.0
 10
-5.4607
 20
-19.9578
 30
0.0
 10
-5.4607
 20
-19.9578
 30
0.0
 10
-5.567
 20
-19.9178
 30
0.0
 10
-5.6916
 20
-19.897
 30
0.0
 10
-5.834
 20
-19.897
 30
0.0
 10
-5.834
 20
-19.897
 30
0.0
 10
-6.1635
 20
-19.897
 30
0.0
 10
-6.4352
 20
-20.0086
 30
0.0
 10
-6.6507
 20
-20.2318
 30
0.0
 10
-6.6507
 20
-20.2318
 30
0.0
 10
-6.8655
 20
-20.455
 30
0.0
 10
-6.9732
 20
-20.7883
 30
0.0
 10
-6.9732
 20
-21.2324
 30
0.0
 10
-6.9732
 20
-21.2324
 30
0.0
 10
-6.9732
 20
-21.4064
 30
0.0
 10
-6.9563
 20
-21.5611
 30
0.0
 10
-6.9232
 20
-21.6966
 30
0.0
 10
-6.9232
 20
-21.6966
 30
0.0
 10
-6.8993
 20
-21.7974
 30
0.0
 10
-6.8493
 20
-21.9213
 30
0.0
 10
-6.7723
 20
-22.0683
 30
0.0
 10
-6.7723
 20
-22.0683
 30
0.0
 10
-6.7723
 20
-22.0683
 30
0.0
 10
-5.0897
 20
-20.1856
 30
0.0
 10
-5.0897
 20
-20.1856
 30
0.0
  0
SPLINE
  5
4F
330
1F
100
AcDbEntity
  8
ROUND
 62
   250
100
AcDbSpline
210
0.0
220
0.0
230
1.0
 70
    11
 71
     3
 72
    28
 73
    24
 74
     0
 42
0.0000000001
 43
0.0000000001
 40
0.0
 40
0.0
 40
0.0
 40
0.0
 40
0.1428571428571428
 40
0.1428571428571428
 40
0.1428571428571428
 40
0.1428571428571428
 40
0.2857142857142857
 40
0.2857142857142857
 40
0.2857142857142857
 40
0.2857142857142857
 40
0.4285714285714285
 40
0.4285714285714285
 40
0.4285714285714285
 40
0.4285714285714285
 40
0.5714285714285714
 40
0.5714285714285714
 40
0.5714285714285714
 40
0.5714285714285714
 40
0.7142857142857143
 40
0.7142857142857143
 40
0.7142857142857143
 40
0.7142857142857143
 40
1.0
 40
1.0
 40
1.0
 40
1.0
 10
-4.905
 20
-20.4181
 30
0.0
 10
-4.905
 20
-20.4181
 30
0.0
 10
-6.5807
 20
-22.2939
 30
0.0
 10
-6.5807
 20
-22.2939
 30
0.0
 10
-6.5807
 20
-22.2939
 30
0.0
 10
-6.4652
 20
-22.3885
 30
0.0
 10
-6.3582
 20
-22.4547
 30
0.0
 10
-6.2605
 20
-22.4924
 30
0.0
 10
-6.2605
 20
-22.4924
 30
0.0
 10
-6.1327
 20
-22.5425
 30
0.0
 10
-5.9941
 20
-22.5671
 30
0.0
 10
-5.8456
 20
-22.5671
 30
0.0
 10
-5.8456
 20
-22.5671
 30
0.0
 10
-5.5177
 20
-22.5671
 30
0.0
 10
-5.2475
 20
-22.4517
 30
0.0
 10
-5.0335
 20
-22.22
 30
0.0
 10
-5.0335
 20
-22.22
 30
0.0
 10
-4.8203
 20
-21.9883
 30
0.0
 10
-4.7133
 20
-21.6635
 30
0.0
 10
-4.7133
 20
-21.2455
 30
0.0
 10
-4.7133
 20
-21.2455
 30
0.0
 10
-4.7133
 20
-20.933
 30
0.0
 10
-4.7772
 20
-20.6567
 30
0.0
 10
-4.905
 20
-20.4181
 30
0.0
  0
SPLINE
  5
50
330
1F
100
AcDbEntity
  8
ROUND
 62
   250
100
AcDbSpline
210
0.0
220
0.0
230
1.0
 70
    11
 71
     3
 72
    40
 73
    36
 74
     0
 42
0.0000000001
 43
0.0000000001
 40
0.0
 40
0.0
 40
0.0
 40
0.0
 40
0.1
 40
0.1
 40
0.1
 40
0.1
 40
0.2
 40
0.2
 40
0.2
 40
0.2
 40
0.3
 40
0.3
 40
0.3
 40
0.3
 40
0.4
 40
0.4
 40
0.4
 40
0.4
 40
0.5
 40
0.5
 40
0.5
 40
0.5
 40
0.6
 40
0.6
 40
0.6
 40
0.6
 40
0.7
 40
0.7
 40
0.7
 40
0.7
 40
0.8
 40
0.8
 40
0.8
 40
0.8
 40
1.0
 40
1.0
 40
1.0
 40
1.0
 10
-2.3257
 20
-22.885
 30
0.0
 10
-2.3257
 20
-22.885
 30
0.0
 10
-2.7313
 20
-22.885
 30
0.0
 10
-2.7313
 20
-22.885
 30
0.0
 10
-2.7313
 20
-22.885
 30
0.0
 10
-2.7313
 20
-22.885
 30
0.0
 10
-2.7313
 20
-20.2988
 30
0.0
 10
-2.7313
 20
-20.2988
 30
0.0
 10
-2.7313
 20
-20.2988
 30
0.0
 10
-2.8291
 20
-20.3919
 30
0.0
 10
-2.9569
 20
-20.485
 30
0.0
 10
-3.1154
 20
-20.5782
 30
0.0
 10
-3.1154
 20
-20.5782
 30
0.0
 10
-3.2748
 20
-20.6713
 30
0.0
 10
-3.4171
 20
-20.7413
 30
0.0
 10
-3.5434
 20
-20.7875
 30
0.0
 10
-3.5434
 20
-20.7875
 30
0.0
 10
-3.5434
 20
-20.7875
 30
0.0
 10
-3.5434
 20
-20.3957
 30
0.0
 10
-3.5434
 20
-20.3957
 30
0.0
 10
-3.5434
 20
-20.3957
 30
0.0
 10
-3.3163
 20
-20.2888
 30
0.0
 10
-3.1177
 20
-20.1595
 30
0.0
 10
-2.9476
 20
-20.0078
 30
0.0
 10
-2.9476
 20
-20.0078
 30
0.0
 10
-2.7783
 20
-19.8554
 30
0.0
 10
-2.6574
 20
-19.7084
 30
0.0
 10
-2.5866
 20
-19.5652
 30
0.0
 10
-2.5866
 20
-19.5652
 30
0.0
 10
-2.5866
 20
-19.5652
 30
0.0
 10
-2.3257
 20
-19.5652
 30
0.0
 10
-2.3257
 20
-19.5652
 30
0.0
 10
-2.3257
 20
-19.5652
 30
0.0
 10
-2.3257
 20
-19.5652
 30
0.0
 10
-2.3257
 20
-22.885
 30
0.0
 10
-2.3257
 20
-22.885
 30
0.0
  0
SPLINE
  5
51
330
1F
100
AcDbEntity
  8
ROUND
 62
   250
100
AcDbSpline
210
0.0
220
0.0
230
1.0
 70
    11
 71
     3
 72
    40
 73
    36
 74
     0
 42
0.0000000001
 43
0.0000000001
 40
0.0
 40
0.0
 40
0.0
 40
0.0
 40
0.1
 40
0.1
 40
0.1
 40
0.1
 40
0.2
 40
0.2
 40
0.2
 40
0.2
 40
0.3
 40
0.3
 40
0.3
 40
0.3
 40
0.4
 40
0.4
 40
0.4
 40
0.4
 40
0.5
 40
0.5
 40
0.5
 40
0.5
 40
0.6
 40
0.6
 40
0.6
 40
0.6
 40
0.7
 40
0.7
 40
0.7
 40
0.7
 40
0.8
 40
0.8
 40
0.8
 40
0.8
 40
1.0
 40
1.0
 40
1.0
 40
1.0
 10
-0.0997
 20
-22.885
 30
0.0
 10
-0.0997
 20
-22.885
 30
0.0
 10
-0.5053
 20
-22.885
 30
0.0
 10
-0.5053
 20
-22.885
 30
0.0
 10
-0.5053
 20
-22.885
 30
0.0
 10
-0.5053
 20
-22.885
 30
0.0
 10
-0.5053
 20
-20.2988
 30
0.0
 10
-0.5053
 20
-20.2988
 30
0.0
 10
-0.5053
 20
-20.2988
 30
0.0
 10
-0.6031
 20
-20.3919
 30
0.0
 10
-0.7309
 20
-20.485
 30
0.0
 10
-0.8894
 20
-20.5782
 30
0.0
 10
-0.8894
 20
-20.5782
 30
0.0
 10
-1.0488
 20
-20.6713
 30
0.0
 10
-1.1912
 20
-20.7413
 30
0.0
 10
-1.3174
 20
-20.7875
 30
0.0
 10
-1.3174
 20
-20.7875
 30
0.0
 10
-1.3174
 20
-20.7875
 30
0.0
 10
-1.3174
 20
-20.3957
 30
0.0
 10
-1.3174
 20
-20.3957
 30
0.0
 10
-1.3174
 20
-20.3957
 30
0.0
 10
-1.0903
 20
-20.2888
 30
0.0
 10
-0.8917
 20
-20.1595
 30
0.0
 10
-0.7216
 20
-20.0078
 30
0.0
 10
-0.7216
 20
-20.0078
 30
0.0
 10
-0.5523
 20
-19.8554
 30
0.0
 10
-0.4314
 20
-19.7084
 30
0.0
 10
-0.3606
 20
-19.5652
 30
0.0
 10
-0.3606
 20
-19.5652
 30
0.0
 10
-0.3606
 20
-19.5652
 30
0.0
 10
-0.0997
 20
-19.5652
 30
0.0
 10
-0.0997
 20
-19.5652
 30
0.0
 10
-0.0997
 20
-19.5652
 30
0.0
 10
-0.0997
 20
-19.5652
 30
0.0
 10
-0.0997
 20
-22.885
 30
0.0
 10
-0.0997
 20
-22.885
 30
0.0
  0
SPLINE
  5
52
330
1F
100
AcDbEntity
  8
ROUND
 62
   250
100
AcDbSpline
210
0.0
220
0.0
230
1.0
 70
    11
 71
     3
 72
    52
 73
    48
 74
     0
 42
0.0000000001
 43
0.0000000001
 40
0.0
 40
0.0
 40
0.0
 40
0.0
 40
0.0769230769230769
 40
0.0769230769230769
 40
0.0769230769230769
 40
0.0769230769230769
 40
0.1538461538461539
 40
0.1538461538461539
 40
0.1538461538461539
 40
0.1538461538461539
 40
0.2307692307692308
 40
0.2307692307692308
 40
0.2307692307692308
 40
0.2307692307692308
 40
0.3076923076923077
 40
0.3076923076923077
 40
0.3076923076923077
 40
0.3076923076923077
 40
0.3846153846153846
 40
0.3846153846153846
 40
0.3846153846153846
 40
0.3846153846153846
 40
0.4615384615384616
 40
0.4615384615384616
 40
0.4615384615384616
 40
0.4615384615384616
 40
0.5384615384615384
 40
0.5384615384615384
 40
0.5384615384615384
 40
0.5384615384615384
 40
0.6153846153846154
 40
0.6153846153846154
 40
0.6153846153846154
 40
0.6153846153846154
 40
0.6923076923076923
 40
0.6923076923076923
 40
0.6923076923076923
 40
0.6923076923076923
 40
0.7692307692307693
 40
0.7692307692307693
 40
0.7692307692307693
 40
0.7692307692307693
 40
0.8461538461538461
 40
0.8461538461538461
 40
0.8461538461538461
 40
0.8461538461538461
 40
1.0
 40
1.0
 40
1.0
 40
1.0
 10
0.9402
 20
-21.2548
 30
0.0
 10
0.9402
 20
-20.8638
 30
0.0
 10
0.9802
 20
-20.5489
 30
0.0
 10
1.061
 20
-20.3111
 30
0.0
 10
1.061
 20
-20.3111
 30
0.0
 10
1.1411
 20
-20.0725
 30
0.0
 10
1.2611
 20
-19.8885
 30
0.0
 10
1.4197
 20
-19.7592
 30
0.0
 10
1.4197
 20
-19.7592
 30
0.0
 10
1.5783
 20
-19.6299
 30
0.0
 10
1.7776
 20
-19.5652
 30
0.0
 10
2.0178
 20
-19.5652
 30
0.0
 10
2.0178
 20
-19.5652
 30
0.0
 10
2.1956
 20
-19.5652
 30
0.0
 10
2.3511
 20
-19.6014
 30
0.0
 10
2.485
 20
-19.673
 30
0.0
 10
2.485
 20
-19.673
 30
0.0
 10
2.6189
 20
-19.7438
 30
0.0
 10
2.729
 20
-19.8469
 30
0.0
 10
2.8167
 20
-19.9817
 30
0.0
 10
2.8167
 20
-19.9817
 30
0.0
 10
2.9037
 20
-20.1164
 30
0.0
 10
2.9722
 20
-20.2803
 30
0.0
 10
3.0215
 20
-20.4735
 30
0.0
 10
3.0215
 20
-20.4735
 30
0.0
 10
3.0715
 20
-20.6667
 30
0.0
 10
3.0961
 20
-20.9269
 30
0.0
 10
3.0961
 20
-21.2548
 30
0.0
 10
3.0961
 20
-21.2548
 30
0.0
 10
3.0961
 20
-21.6427
 30
0.0
 10
3.0561
 20
-21.9552
 30
0.0
 10
2.9768
 20
-22.1938
 30
0.0
 10
2.9768
 20
-22.1938
 30
0.0
 10
2.8968
 20
-22.4324
 30
0.0
 10
2.7775
 20
-22.6164
 30
0.0
 10
2.6189
 20
-22.7464
 30
0.0
 10
2.6189
 20
-22.7464
 30
0.0
 10
2.4604
 20
-22.8765
 30
0.0
 10
2.2602
 20
-22.9412
 30
0.0
 10
2.0178
 20
-22.9412
 30
0.0
 10
2.0178
 20
-22.9412
 30
0.0
 10
1.6991
 20
-22.9412
 30
0.0
 10
1.449
 20
-22.8273
 30
0.0
 10
1.2673
 20
-22.5987
 30
0.0
 10
1.2673
 20
-22.5987
 30
0.0
 10
1.0495
 20
-22.3239
 30
0.0
 10
0.9402
 20
-21.8751
 30
0.0
 10
0.9402
 20
-21.2548
 30
0.0
  0
SPLINE
  5
53
330
1F
100
AcDbEntity
  8
ROUND
 62
   250
100
AcDbSpline
210
0.0
220
0.0
230
1.0
 70
    11
 71
     3
 72
    36
 73
    32
 74
     0
 42
0.0000000001
 43
0.0000000001
 40
0.0
 40
0.0
 40
0.0
 40
0.0
 40
0.1111111111111111
 40
0.1111111111111111
 40
0.1111111111111111
 40
0.1111111111111111
 40
0.2222222222222222
 40
0.2222222222222222
 40
0.2222222222222222
 40
0.2222222222222222
 40
0.3333333333333333
 40
0.3333333333333333
 40
0.3333333333333333
 40
0.3333333333333333
 40
0.4444444444444444
 40
0.4444444444444444
 40
0.4444444444444444
 40
0.4444444444444444
 40
0.5555555555555556
 40
0.5555555555555556
 40
0.5555555555555556
 40
0.5555555555555556
 40
0.6666666666666666
 40
0.6666666666666666
 40
0.6666666666666666
 40
0.6666666666666666
 40
0.7777777777777778
 40
0.7777777777777778
 40
0.7777777777777778
 40
0.7777777777777778
 40
1.0
 40
1.0
 40
1.0
 40
1.0
 10
1.3573
 20
-21.2548
 30
0.0
 10
1.3573
 20
-21.7974
 30
0.0
 10
1.4212
 20
-22.1584
 30
0.0
 10
1.5482
 20
-22.3385
 30
0.0
 10
1.5482
 20
-22.3385
 30
0.0
 10
1.6753
 20
-22.5178
 30
0.0
 10
1.8315
 20
-22.6079
 30
0.0
 10
2.0178
 20
-22.6079
 30
0.0
 10
2.0178
 20
-22.6079
 30
0.0
 10
2.2048
 20
-22.6079
 30
0.0
 10
2.3611
 20
-22.5171
 30
0.0
 10
2.4881
 20
-22.337
 30
0.0
 10
2.4881
 20
-22.337
 30
0.0
 10
2.6151
 20
-22.1568
 30
0.0
 10
2.6789
 20
-21.7959
 30
0.0
 10
2.6789
 20
-21.2548
 30
0.0
 10
2.6789
 20
-21.2548
 30
0.0
 10
2.6789
 20
-20.7106
 30
0.0
 10
2.6151
 20
-20.3488
 30
0.0
 10
2.4881
 20
-20.1702
 30
0.0
 10
2.4881
 20
-20.1702
 30
0.0
 10
2.3611
 20
-19.9909
 30
0.0
 10
2.2033
 20
-19.9016
 30
0.0
 10
2.0139
 20
-19.9016
 30
0.0
 10
2.0139
 20
-19.9016
 30
0.0
 10
1.8269
 20
-19.9016
 30
0.0
 10
1.6783
 20
-19.9809
 30
0.0
 10
1.5667
 20
-20.1387
 30
0.0
 10
1.5667
 20
-20.1387
 30
0.0
 10
1.4274
 20
-20.3396
 30
0.0
 10
1.3573
 20
-20.7121
 30
0.0
 10
1.3573
 20
-21.2548
 30
0.0
  0
SPLINE
  5
54
330
1F
100
AcDbEntity
  8
ROUND
 62
   250
100
AcDbSpline
210
0.0
220
0.0
230
1.0
 70
    24
 71
     3
 72
     8
 73
     4
 74
     0
 42
0.0000000001
 43
0.0000000001
 40
0.0
 40
0.0
 40
0.0
 40
0.0
 40
1.0
 40
1.0
 40
1.0
 40
1.0
 10
-21.8615
 20
-23.8498
 30
0.0
 10
-21.8615
 20
-23.8498
 30
0.0
 10
19.1461
 20
-23.8498
 30
0.0
 10
19.1461
 20
-23.8498
 30
0.0
  0
SPLINE
  5
55
330
1F
100
AcDbEntity
  8
ROUND
 62
   250
100
AcDbSpline
210
0.0
220
0.0
230
1.0
 70
    24
 71
     3
 72
     8
 73
     4
 74
     0
 42
0.0000000001
 43
0.0000000001
 40
0.0
 40
0.0
 40
0.0
 40
0.0
 40
1.0
 40
1.0
 40
1.0
 40
1.0
 10
26.3024
 20
-1.44
 30
0.0
 10
26.3024
 20
-1.44
 30
0.0
 10
26.3024
 20
37.5188
 30
0.0
 10
26.3024
 20
37.5188
 30
0.0
  0
SPLINE
  5
56
330
1F
100
AcDbEntity
  8
ROUND
 62
   250
100
AcDbSpline
210
0.0
220
0.0
230
1.0
 70
    11
 71
     3
 72
    20
 73
    16
 74
     0
 42
0.0000000001
 43
0.0000000001
 40
0.0
 40
0.0
 40
0.0
 40
0.0
 40
0.2
 40
0.2
 40
0.2
 40
0.2
 40
0.4
 40
0.4
 40
0.4
 40
0.4
 40
0.6
 40
0.6
 40
0.6
 40
0.6
 40
1.0
 40
1.0
 40
1.0
 40
1.0
 10
-21.2197
 20
-23.1044
 30
0.0
 10
-21.2197
 20
-23.1044
 30
0.0
 10
-16.3105
 20
-23.7972
 30
0.0
 10
-16.3105
 20
-23.7972
 30
0.0
 10
-16.3105
 20
-23.7972
 30
0.0
 10
-16.3105
 20
-23.7972
 30
0.0
 10
-16.3105
 20
-23.9511
 30
0.0
 10
-16.3105
 20
-23.9511
 30
0.0
 10
-16.3105
 20
-23.9511
 30
0.0
 10
-16.3105
 20
-23.9511
 30
0.0
 10
-21.2197
 20
-24.69
 30
0.0
 10
-21.2197
 20
-24.69
 30
0.0
 10
-21.2197
 20
-24.69
 30
0.0
 10
-21.2197
 20
-24.69
 30
0.0
 10
-21.2197
 20
-23.1044
 30
0.0
 10
-21.2197
 20
-23.1044
 30
0.0
  0
SPLINE
  5
57
330
1F
100
AcDbEntity
  8
ROUND
 62
   250
100
AcDbSpline
210
0.0
220
0.0
230
1.0
 70
    11
 71
     3
 72
    20
 73
    16
 74
     0
 42
0.0000000001
 43
0.0000000001
 40
0.0
 40
0.0
 40
0.0
 40
0.0
 40
0.2
 40
0.2
 40
0.2
 40
0.2
 40
0.4
 40
0.4
 40
0.4
 40
0.4
 40
0.6
 40
0.6
 40
0.6
 40
0.6
 40
1.0
 40
1.0
 40
1.0
 40
1.0
 10
17.9866
 20
-24.6349
 30
0.0
 10
17.9866
 20
-24.6349
 30
0.0
 10
13.0775
 20
-23.9422
 30
0.0
 10
13.0775
 20
-23.9422
 30
0.0
 10
13.0775
 20
-23.9422
 30
0.0
 10
13.0775
 20
-23.9422
 30
0.0
 10
13.0775
 20
-23.7883
 30
0.0
 10
13.0775
 20
-23.7883
 30
0.0
 10
13.0775
 20
-23.7883
 30
0.0
 10
13.0775
 20
-23.7883
 30
0.0
 10
17.9866
 20
-23.0495
 30
0.0
 10
17.9866
 20
-23.0495
 30
0.0
 10
17.9866
 20
-23.0495
 30
0.0
 10
17.9866
 20
-23.0495
 30
0.0
 10
17.9866
 20
-24.6349
 30
0.0
 10
17.9866
 20
-24.6349
 30
0.0
  0
SPLINE
  5
58
330
1F
100
AcDbEntity
  8
ROUND
 62
   250
100
AcDbSpline
210
0.0
220
0.0
230
1.0
 70
    24
 71
     3
 72
     8
 73
     4
 74
     0
 42
0.0000000001
 43
0.0000000001
 40
0.0
 40
0.0
 40
0.0
 40
0.0
 40
1.0
 40
1.0
 40
1.0
 40
1.0
 10
27.0929
 20
6.4767
 30
0.0
 10
27.0929
 20
6.4767
 30
0.0
 10
19.5565
 20
6.4767
 30
0.0
 10
19.5565
 20
6.4767
 30
0.0
  0
SPLINE
  5
59
330
1F
100
AcDbEntity
  8
ROUND
 62
   250
100
AcDbSpline
210
0.0
220
0.0
230
1.0
 70
    11
 71
     3
 72
    20
 73
    16
 74
     0
 42
0.0000000001
 43
0.0000000001
 40
0.0
 40
0.0
 40
0.0
 40
0.0
 40
0.2
 40
0.2
 40
0.2
 40
0.2
 40
0.4
 40
0.4
 40
0.4
 40
0.4
 40
0.6
 40
0.6
 40
0.6
 40
0.6
 40
1.0
 40
1.0
 40
1.0
 40
1.0
 10
27.0657
 20
34.3366
 30
0.0
 10
27.0657
 20
34.3366
 30
0.0
 10
26.3729
 20
29.4269
 30
0.0
 10
26.3729
 20
29.4269
 30
0.0
 10
26.3729
 20
29.4269
 30
0.0
 10
26.3729
 20
29.4269
 30
0.0
 10
26.219
 20
29.4269
 30
0.0
 10
26.219
 20
29.4269
 30
0.0
 10
26.219
 20
29.4269
 30
0.0
 10
26.219
 20
29.4269
 30
0.0
 10
25.4802
 20
34.3366
 30
0.0
 10
25.4802
 20
34.3366
 30
0.0
 10
25.4802
 20
34.3366
 30
0.0
 10
25.4802
 20
34.3366
 30
0.0
 10
27.0657
 20
34.3366
 30
0.0
 10
27.0657
 20
34.3366
 30
0.0
  0
SPLINE
  5
5A
330
1F
100
AcDbEntity
  8
ROUND
 62
   250
100
AcDbSpline
210
0.0
220
0.0
230
1.0
 70
    11
 71
     3
 72
    20
 73
    16
 74
     0
 42
0.0000000001
 43
0.0000000001
 40
0.0
 40
0.0
 40
0.0
 40
0.0
 40
0.2
 40
0.2
 40
0.2
 40
0.2
 40
0.4
 40
0.4
 40
0.4
 40
0.4
 40
0.6
 40
0.6
 40
0.6
 40
0.6
 40
1.0
 40
1.0
 40
1.0
 40
1.0
 10
25.5349
 20
1.404
 30
0.0
 10
25.5349
 20
1.404
 30
0.0
 10
26.2277
 20
6.3129
 30
0.0
 10
26.2277
 20
6.3129
 30
0.0
 10
26.2277
 20
6.3129
 30
0.0
 10
26.2277
 20
6.3129
 30
0.0
 10
26.3816
 20
6.3129
 30
0.0
 10
26.3816
 20
6.3129
 30
0.0
 10
26.3816
 20
6.3129
 30
0.0
 10
26.3816
 20
6.3129
 30
0.0
 10
27.1204
 20
1.404
 30
0.0
 10
27.1204
 20
1.404
 30
0.0
 10
27.1204
 20
1.404
 30
0.0
 10
27.1204
 20
1.404
 30
0.0
 10
25.5349
 20
1.404
 30
0.0
 10
25.5349
 20
1.404
 30
0.0
  0
SPLINE
  5
5B
330
1F
100
AcDbEntity
  8
ROUND
  6
NEW_LINE2
 62
   250
100
AcDbSpline
210
0.0
220
0.0
230
1.0
 70
    24
 71
     3
 72
     8
 73
     4
 74
     0
 42
0.0000000001
 43
0.0000000001
 40
0.0
 40
0.0
 40
0.0
 40
0.0
 40
1.0
 40
1.0
 40
1.0
 40
1.0
 10
-1.3699
 20
-37.5187
 30
0.0
 10
-1.3699
 20
-37.5187
 30
0.0
 10
-1.3699
 20
0.2461
 30
0.0
 10
-1.3699
 20
0.2461
 30
0.0
  0
SPLINE
  5
5D
330
1F
100
AcDbEntity
  8
ROUND
 62
   250
100
AcDbSpline
210
0.0
220
0.0
230
1.0
 70
    11
 71
     3
 72
    84
 73
    80
 74
     0
 42
0.0000000001
 43
0.0000000001
 40
0.0
 40
0.0
 40
0.0
 40
0.0
 40
0.0476190476190476
 40
0.0476190476190476
 40
0.0476190476190476
 40
0.0476190476190476
 40
0.0952380952380952
 40
0.0952380952380952
 40
0.0952380952380952
 40
0.0952380952380952
 40
0.1428571428571428
 40
0.1428571428571428
 40
0.1428571428571428
 40
0.1428571428571428
 40
0.1904761904761905
 40
0.1904761904761905
 40
0.1904761904761905
 40
0.1904761904761905
 40
0.2380952380952381
 40
0.2380952380952381
 40
0.2380952380952381
 40
0.2380952380952381
 40
0.2857142857142857
 40
0.2857142857142857
 40
0.2857142857142857
 40
0.2857142857142857
 40
0.3333333333333333
 40
0.3333333333333333
 40
0.3333333333333333
 40
0.3333333333333333
 40
0.3809523809523809
 40
0.3809523809523809
 40
0.3809523809523809
 40
0.3809523809523809
 40
0.4285714285714285
 40
0.4285714285714285
 40
0.4285714285714285
 40
0.4285714285714285
 40
0.4761904761904762
 40
0.4761904761904762
 40
0.4761904761904762
 40
0.4761904761904762
 40
0.5238095238095238
 40
0.5238095238095238
 40
0.5238095238095238
 40
0.5238095238095238
 40
0.5714285714285714
 40
0.5714285714285714
 40
0.5714285714285714
 40
0.5714285714285714
 40
0.6190476190476191
 40
0.6190476190476191
 40
0.6190476190476191
 40
0.6190476190476191
 40
0.6666666666666666
 40
0.6666666666666666
 40
0.6666666666666666
 40
0.6666666666666666
 40
0.7142857142857143
 40
0.7142857142857143
 40
0.7142857142857143
 40
0.7142857142857143
 40
0.7619047619047619
 40
0.7619047619047619
 40
0.7619047619047619
 40
0.7619047619047619
 40
0.8095238095238095
 40
0.8095238095238095
 40
0.8095238095238095
 40
0.8095238095238095
 40
0.8571428571428571
 40
0.8571428571428571
 40
0.8571428571428571
 40
0.8571428571428571
 40
0.9047619047619048
 40
0.9047619047619048
 40
0.9047619047619048
 40
0.9047619047619048
 40
1.0
 40
1.0
 40
1.0
 40
1.0
 10
22.3899
 20
16.3202
 30
0.0
 10
22.3899
 20
16.3202
 30
0.0
 10
21.9658
 20
16.6989
 30
0.0
 10
21.9658
 20
16.6989
 30
0.0
 10
21.9658
 20
16.6989
 30
0.0
 10
21.9658
 20
16.6989
 30
0.0
 10
22.1552
 20
16.9222
 30
0.0
 10
22.1552
 20
16.9222
 30
0.0
 10
22.1552
 20
16.9222
 30
0.0
 10
22.1552
 20
16.9222
 30
0.0
 10
22.6016
 20
16.5258
 30
0.0
 10
22.6016
 20
16.5258
 30
0.0
 10
22.6016
 20
16.5258
 30
0.0
 10
22.794
 20
16.6551
 30
0.0
 10
22.9626
 20
16.7421
 30
0.0
 10
23.1065
 20
16.7875
 30
0.0
 10
23.1065
 20
16.7875
 30
0.0
 10
23.2959
 20
16.8475
 30
0.0
 10
23.5083
 20
16.8775
 30
0.0
 10
23.7423
 20
16.8775
 30
0.0
 10
23.7423
 20
16.8775
 30
0.0
 10
24.081
 20
16.8775
 30
0.0
 10
24.3827
 20
16.809
 30
0.0
 10
24.6467
 20
16.672
 30
0.0
 10
24.6467
 20
16.672
 30
0.0
 10
24.9115
 20
16.535
 30
0.0
 10
25.1116
 20
16.3433
 30
0.0
 10
25.2471
 20
16.0963
 30
0.0
 10
25.2471
 20
16.0963
 30
0.0
 10
25.3818
 20
15.8484
 30
0.0
 10
25.4495
 20
15.586
 30
0.0
 10
25.4495
 20
15.3081
 30
0.0
 10
25.4495
 20
15.3081
 30
0.0
 10
25.4495
 20
15.1003
 30
0.0
 10
25.4203
 20
14.9125
 30
0.0
 10
25.3618
 20
14.7439
 30
0.0
 10
25.3618
 20
14.7439
 30
0.0
 10
25.3164
 20
14.6146
 30
0.0
 10
25.2302
 20
14.4637
 30
0.0
 10
25.1024
 20
14.2905
 30
0.0
 10
25.1024
 20
14.2905
 30
0.0
 10
25.1024
 20
14.2905
 30
0.0
 10
25.5265
 20
13.9118
 30
0.0
 10
25.5265
 20
13.9118
 30
0.0
 10
25.5265
 20
13.9118
 30
0.0
 10
25.5265
 20
13.9118
 30
0.0
 10
25.3371
 20
13.6886
 30
0.0
 10
25.3371
 20
13.6886
 30
0.0
 10
25.3371
 20
13.6886
 30
0.0
 10
25.3371
 20
13.6886
 30
0.0
 10
24.893
 20
14.0858
 30
0.0
 10
24.893
 20
14.0858
 30
0.0
 10
24.893
 20
14.0858
 30
0.0
 10
24.669
 20
13.938
 30
0.0
 10
24.4774
 20
13.8395
 30
0.0
 10
24.3188
 20
13.7902
 30
0.0
 10
24.3188
 20
13.7902
 30
0.0
 10
24.1603
 20
13.741
 30
0.0
 10
23.9694
 20
13.7156
 30
0.0
 10
23.7469
 20
13.7156
 30
0.0
 10
23.7469
 20
13.7156
 30
0.0
 10
23.4075
 20
13.7156
 30
0.0
 10
23.105
 20
13.7833
 30
0.0
 10
22.8394
 20
13.9188
 30
0.0
 10
22.8394
 20
13.9188
 30
0.0
 10
22.5739
 20
14.0542
 30
0.0
 10
22.373
 20
14.2436
 30
0.0
 10
22.236
 20
14.4883
 30
0.0
 10
22.236
 20
14.4883
 30
0.0
 10
22.0997
 20
14.7323
 30
0.0
 10
22.0312
 20
15.0041
 30
0.0
 10
22.0312
 20
15.3035
 30
0.0
 10
22.0312
 20
15.3035
 30
0.0
 10
22.0312
 20
15.5051
 30
0.0
 10
22.0574
 20
15.6814
 30
0.0
 10
22.1113
 20
15.8323
 30
0.0
 10
22.1113
 20
15.8323
 30
0.0
 10
22.1644
 20
15.9831
 30
0.0
 10
22.2575
 20
16.1463
 30
0.0
 10
22.3899
 20
16.3202
 30
0.0
  0
SPLINE
  5
5E
330
1F
100
AcDbEntity
  8
ROUND
 62
   250
100
AcDbSpline
210
0.0
220
0.0
230
1.0
 70
    11
 71
     3
 72
    32
 73
    28
 74
     0
 42
0.0000000001
 43
0.0000000001
 40
0.0
 40
0.0
 40
0.0
 40
0.0
 40
0.125
 40
0.125
 40
0.125
 40
0.125
 40
0.25
 40
0.25
 40
0.25
 40
0.25
 40
0.375
 40
0.375
 40
0.375
 40
0.375
 40
0.5
 40
0.5
 40
0.5
 40
0.5
 40
0.625
 40
0.625
 40
0.625
 40
0.625
 40
0.75
 40
0.75
 40
0.75
 40
0.75
 40
1.0
 40
1.0
 40
1.0
 40
1.0
 10
22.694
 20
16.0501
 30
0.0
 10
22.5831
 20
15.9085
 30
0.0
 10
22.5069
 20
15.7845
 30
0.0
 10
22.4661
 20
15.6791
 30
0.0
 10
22.4661
 20
15.6791
 30
0.0
 10
22.4261
 20
15.5729
 30
0.0
 10
22.4053
 20
15.4482
 30
0.0
 10
22.4053
 20
15.3058
 30
0.0
 10
22.4053
 20
15.3058
 30
0.0
 10
22.4053
 20
14.9763
 30
0.0
 10
22.5169
 20
14.7046
 30
0.0
 10
22.7402
 20
14.4891
 30
0.0
 10
22.7402
 20
14.4891
 30
0.0
 10
22.9634
 20
14.2744
 30
0.0
 10
23.2966
 20
14.1666
 30
0.0
 10
23.7408
 20
14.1666
 30
0.0
 10
23.7408
 20
14.1666
 30
0.0
 10
23.9147
 20
14.1666
 30
0.0
 10
24.0694
 20
14.1835
 30
0.0
 10
24.2049
 20
14.2166
 30
0.0
 10
24.2049
 20
14.2166
 30
0.0
 10
24.3057
 20
14.2405
 30
0.0
 10
24.4297
 20
14.2905
 30
0.0
 10
24.5767
 20
14.3675
 30
0.0
 10
24.5767
 20
14.3675
 30
0.0
 10
24.5767
 20
14.3675
 30
0.0
 10
22.694
 20
16.0501
 30
0.0
 10
22.694
 20
16.0501
 30
0.0
  0
SPLINE
  5
5F
330
1F
100
AcDbEntity
  8
ROUND
 62
   250
100
AcDbSpline
210
0.0
220
0.0
230
1.0
 70
    11
 71
     3
 72
    28
 73
    24
 74
     0
 42
0.0000000001
 43
0.0000000001
 40
0.0
 40
0.0
 40
0.0
 40
0.0
 40
0.1428571428571428
 40
0.1428571428571428
 40
0.1428571428571428
 40
0.1428571428571428
 40
0.2857142857142857
 40
0.2857142857142857
 40
0.2857142857142857
 40
0.2857142857142857
 40
0.4285714285714285
 40
0.4285714285714285
 40
0.4285714285714285
 40
0.4285714285714285
 40
0.5714285714285714
 40
0.5714285714285714
 40
0.5714285714285714
 40
0.5714285714285714
 40
0.7142857142857143
 40
0.7142857142857143
 40
0.7142857142857143
 40
0.7142857142857143
 40
1.0
 40
1.0
 40
1.0
 40
1.0
 10
22.9264
 20
16.2348
 30
0.0
 10
22.9264
 20
16.2348
 30
0.0
 10
24.8022
 20
14.5592
 30
0.0
 10
24.8022
 20
14.5592
 30
0.0
 10
24.8022
 20
14.5592
 30
0.0
 10
24.8969
 20
14.6746
 30
0.0
 10
24.9631
 20
14.7816
 30
0.0
 10
25.0008
 20
14.8794
 30
0.0
 10
25.0008
 20
14.8794
 30
0.0
 10
25.0508
 20
15.0071
 30
0.0
 10
25.0755
 20
15.1457
 30
0.0
 10
25.0755
 20
15.2942
 30
0.0
 10
25.0755
 20
15.2942
 30
0.0
 10
25.0755
 20
15.6221
 30
0.0
 10
24.96
 20
15.8923
 30
0.0
 10
24.7283
 20
16.1063
 30
0.0
 10
24.7283
 20
16.1063
 30
0.0
 10
24.4966
 20
16.3195
 30
0.0
 10
24.1718
 20
16.4265
 30
0.0
 10
23.7539
 20
16.4265
 30
0.0
 10
23.7539
 20
16.4265
 30
0.0
 10
23.4414
 20
16.4265
 30
0.0
 10
23.165
 20
16.3626
 30
0.0
 10
22.9264
 20
16.2348
 30
0.0
  0
SPLINE
  5
60
330
1F
100
AcDbEntity
  8
ROUND
 62
   250
100
AcDbSpline
210
0.0
220
0.0
230
1.0
 70
    11
 71
     3
 72
    92
 73
    88
 74
     0
 42
0.0000000001
 43
0.0000000001
 40
0.0
 40
0.0
 40
0.0
 40
0.0
 40
0.0434782608695652
 40
0.0434782608695652
 40
0.0434782608695652
 40
0.0434782608695652
 40
0.0869565217391304
 40
0.0869565217391304
 40
0.0869565217391304
 40
0.0869565217391304
 40
0.1304347826086956
 40
0.1304347826086956
 40
0.1304347826086956
 40
0.1304347826086956
 40
0.1739130434782609
 40
0.1739130434782609
 40
0.1739130434782609
 40
0.1739130434782609
 40
0.2173913043478261
 40
0.2173913043478261
 40
0.2173913043478261
 40
0.2173913043478261
 40
0.2608695652173913
 40
0.2608695652173913
 40
0.2608695652173913
 40
0.2608695652173913
 40
0.3043478260869565
 40
0.3043478260869565
 40
0.3043478260869565
 40
0.3043478260869565
 40
0.3478260869565217
 40
0.3478260869565217
 40
0.3478260869565217
 40
0.3478260869565217
 40
0.391304347826087
 40
0.391304347826087
 40
0.391304347826087
 40
0.391304347826087
 40
0.4347826086956522
 40
0.4347826086956522
 40
0.4347826086956522
 40
0.4347826086956522
 40
0.4782608695652174
 40
0.4782608695652174
 40
0.4782608695652174
 40
0.4782608695652174
 40
0.5217391304347826
 40
0.5217391304347826
 40
0.5217391304347826
 40
0.5217391304347826
 40
0.5652173913043478
 40
0.5652173913043478
 40
0.5652173913043478
 40
0.5652173913043478
 40
0.6086956521739131
 40
0.6086956521739131
 40
0.6086956521739131
 40
0.6086956521739131
 40
0.6521739130434783
 40
0.6521739130434783
 40
0.6521739130434783
 40
0.6521739130434783
 40
0.6956521739130435
 40
0.6956521739130435
 40
0.6956521739130435
 40
0.6956521739130435
 40
0.7391304347826086
 40
0.7391304347826086
 40
0.7391304347826086
 40
0.7391304347826086
 40
0.782608695652174
 40
0.782608695652174
 40
0.782608695652174
 40
0.782608695652174
 40
0.8260869565217391
 40
0.8260869565217391
 40
0.8260869565217391
 40
0.8260869565217391
 40
0.8695652173913043
 40
0.8695652173913043
 40
0.8695652173913043
 40
0.8695652173913043
 40
0.9130434782608695
 40
0.9130434782608695
 40
0.9130434782608695
 40
0.9130434782608695
 40
1.0
 40
1.0
 40
1.0
 40
1.0
 10
24.629
 20
17.3463
 30
0.0
 10
24.629
 20
17.3463
 30
0.0
 10
24.5928
 20
17.7365
 30
0.0
 10
24.5928
 20
17.7365
 30
0.0
 10
24.5928
 20
17.7365
 30
0.0
 10
24.776
 20
17.7696
 30
0.0
 10
24.9092
 20
17.8327
 30
0.0
 10
24.9923
 20
17.9259
 30
0.0
 10
24.9923
 20
17.9259
 30
0.0
 10
25.0747
 20
18.019
 30
0.0
 10
25.1162
 20
18.1383
 30
0.0
 10
25.1162
 20
18.2846
 30
0.0
 10
25.1162
 20
18.2846
 30
0.0
 10
25.1162
 20
18.4092
 30
0.0
 10
25.0878
 20
18.5186
 30
0.0
 10
25.03
 20
18.6125
 30
0.0
 10
25.03
 20
18.6125
 30
0.0
 10
24.9731
 20
18.7064
 30
0.0
 10
24.8969
 20
18.7833
 30
0.0
 10
24.8014
 20
18.8434
 30
0.0
 10
24.8014
 20
18.8434
 30
0.0
 10
24.706
 20
18.9042
 30
0.0
 10
24.5767
 20
18.9542
 30
0.0
 10
24.415
 20
18.995
 30
0.0
 10
24.415
 20
18.995
 30
0.0
 10
24.2526
 20
19.035
 30
0.0
 10
24.0871
 20
19.0558
 30
0.0
 10
23.9186
 20
19.0558
 30
0.0
 10
23.9186
 20
19.0558
 30
0.0
 10
23.9009
 20
19.0558
 30
0.0
 10
23.8732
 20
19.055
 30
0.0
 10
23.8377
 20
19.0535
 30
0.0
 10
23.8377
 20
19.0535
 30
0.0
 10
23.9663
 20
18.9719
 30
0.0
 10
24.0717
 20
18.8611
 30
0.0
 10
24.1518
 20
18.721
 30
0.0
 10
24.1518
 20
18.721
 30
0.0
 10
24.2326
 20
18.5801
 30
0.0
 10
24.2726
 20
18.4277
 30
0.0
 10
24.2726
 20
18.2646
 30
0.0
 10
24.2726
 20
18.2646
 30
0.0
 10
24.2726
 20
17.9905
 30
0.0
 10
24.1733
 20
17.7588
 30
0.0
 10
23.9748
 20
17.5695
 30
0.0
 10
23.9748
 20
17.5695
 30
0.0
 10
23.7762
 20
17.3801
 30
0.0
 10
23.5152
 20
17.2855
 30
0.0
 10
23.1904
 20
17.2855
 30
0.0
 10
23.1904
 20
17.2855
 30
0.0
 10
22.8548
 20
17.2855
 30
0.0
 10
22.5854
 20
17.384
 30
0.0
 10
22.3807
 20
17.5818
 30
0.0
 10
22.3807
 20
17.5818
 30
0.0
 10
22.176
 20
17.7796
 30
0.0
 10
22.0736
 20
18.0275
 30
0.0
 10
22.0736
 20
18.3253
 30
0.0
 10
22.0736
 20
18.3253
 30
0.0
 10
22.0736
 20
18.5401
 30
0.0
 10
22.1321
 20
18.7364
 30
0.0
 10
22.2475
 20
18.9149
 30
0.0
 10
22.2475
 20
18.9149
 30
0.0
 10
22.363
 20
19.0928
 30
0.0
 10
22.5285
 20
19.2282
 30
0.0
 10
22.7425
 20
19.3206
 30
0.0
 10
22.7425
 20
19.3206
 30
0.0
 10
22.9564
 20
19.413
 30
0.0
 10
23.2666
 20
19.4591
 30
0.0
 10
23.673
 20
19.4591
 30
0.0
 10
23.673
 20
19.4591
 30
0.0
 10
24.0948
 20
19.4591
 30
0.0
 10
24.4312
 20
19.4137
 30
0.0
 10
24.6821
 20
19.3221
 30
0.0
 10
24.6821
 20
19.3221
 30
0.0
 10
24.9323
 20
19.2298
 30
0.0
 10
25.1224
 20
19.0935
 30
0.0
 10
25.2532
 20
18.9126
 30
0.0
 10
25.2532
 20
18.9126
 30
0.0
 10
25.3841
 20
18.731
 30
0.0
 10
25.4495
 20
18.5193
 30
0.0
 10
25.4495
 20
18.2753
 30
0.0
 10
25.4495
 20
18.2753
 30
0.0
 10
25.4495
 20
18.0167
 30
0.0
 10
25.3779
 20
17.8058
 30
0.0
 10
25.234
 20
17.6418
 30
0.0
 10
25.234
 20
17.6418
 30
0.0
 10
25.0908
 20
17.4779
 30
0.0
 10
24.8892
 20
17.3794
 30
0.0
 10
24.629
 20
17.3463
 30
0.0
  0
SPLINE
  5
61
330
1F
100
AcDbEntity
  8
ROUND
 62
   250
100
AcDbSpline
210
0.0
220
0.0
230
1.0
 70
    11
 71
     3
 72
    36
 73
    32
 74
     0
 42
0.0000000001
 43
0.0000000001
 40
0.0
 40
0.0
 40
0.0
 40
0.0
 40
0.1111111111111111
 40
0.1111111111111111
 40
0.1111111111111111
 40
0.1111111111111111
 40
0.2222222222222222
 40
0.2222222222222222
 40
0.2222222222222222
 40
0.2222222222222222
 40
0.3333333333333333
 40
0.3333333333333333
 40
0.3333333333333333
 40
0.3333333333333333
 40
0.4444444444444444
 40
0.4444444444444444
 40
0.4444444444444444
 40
0.4444444444444444
 40
0.5555555555555556
 40
0.5555555555555556
 40
0.5555555555555556
 40
0.5555555555555556
 40
0.6666666666666666
 40
0.6666666666666666
 40
0.6666666666666666
 40
0.6666666666666666
 40
0.7777777777777778
 40
0.7777777777777778
 40
0.7777777777777778
 40
0.7777777777777778
 40
1.0
 40
1.0
 40
1.0
 40
1.0
 10
23.1696
 20
19.0081
 30
0.0
 10
22.9372
 20
19.0081
 30
0.0
 10
22.7517
 20
18.9465
 30
0.0
 10
22.6155
 20
18.8226
 30
0.0
 10
22.6155
 20
18.8226
 30
0.0
 10
22.4784
 20
18.6979
 30
0.0
 10
22.4099
 20
18.5493
 30
0.0
 10
22.4099
 20
18.3746
 30
0.0
 10
22.4099
 20
18.3746
 30
0.0
 10
22.4099
 20
18.1945
 30
0.0
 10
22.4838
 20
18.0375
 30
0.0
 10
22.6309
 20
17.9036
 30
0.0
 10
22.6309
 20
17.9036
 30
0.0
 10
22.7786
 20
17.7696
 30
0.0
 10
22.9695
 20
17.7027
 30
0.0
 10
23.2035
 20
17.7027
 30
0.0
 10
23.2035
 20
17.7027
 30
0.0
 10
23.4144
 20
17.7027
 30
0.0
 10
23.5853
 20
17.7665
 30
0.0
 10
23.7169
 20
17.8935
 30
0.0
 10
23.7169
 20
17.8935
 30
0.0
 10
23.8485
 20
18.0206
 30
0.0
 10
23.914
 20
18.1768
 30
0.0
 10
23.914
 20
18.3631
 30
0.0
 10
23.914
 20
18.3631
 30
0.0
 10
23.914
 20
18.5516
 30
0.0
 10
23.8485
 20
18.7056
 30
0.0
 10
23.7169
 20
18.8264
 30
0.0
 10
23.7169
 20
18.8264
 30
0.0
 10
23.5853
 20
18.9481
 30
0.0
 10
23.4029
 20
19.0081
 30
0.0
 10
23.1696
 20
19.0081
 30
0.0
  0
SPLINE
  5
62
330
1F
100
AcDbEntity
  8
ROUND
 62
   250
100
AcDbSpline
210
0.0
220
0.0
230
1.0
 70
    11
 71
     3
 72
    52
 73
    48
 74
     0
 42
0.0000000001
 43
0.0000000001
 40
0.0
 40
0.0
 40
0.0
 40
0.0
 40
0.0769230769230769
 40
0.0769230769230769
 40
0.0769230769230769
 40
0.0769230769230769
 40
0.1538461538461539
 40
0.1538461538461539
 40
0.1538461538461539
 40
0.1538461538461539
 40
0.2307692307692308
 40
0.2307692307692308
 40
0.2307692307692308
 40
0.2307692307692308
 40
0.3076923076923077
 40
0.3076923076923077
 40
0.3076923076923077
 40
0.3076923076923077
 40
0.3846153846153846
 40
0.3846153846153846
 40
0.3846153846153846
 40
0.3846153846153846
 40
0.4615384615384616
 40
0.4615384615384616
 40
0.4615384615384616
 40
0.4615384615384616
 40
0.5384615384615384
 40
0.5384615384615384
 40
0.5384615384615384
 40
0.5384615384615384
 40
0.6153846153846154
 40
0.6153846153846154
 40
0.6153846153846154
 40
0.6153846153846154
 40
0.6923076923076923
 40
0.6923076923076923
 40
0.6923076923076923
 40
0.6923076923076923
 40
0.7692307692307693
 40
0.7692307692307693
 40
0.7692307692307693
 40
0.7692307692307693
 40
0.8461538461538461
 40
0.8461538461538461
 40
0.8461538461538461
 40
0.8461538461538461
 40
1.0
 40
1.0
 40
1.0
 40
1.0
 10
23.7631
 20
19.854
 30
0.0
 10
23.3721
 20
19.854
 30
0.0
 10
23.0573
 20
19.894
 30
0.0
 10
22.8194
 20
19.9748
 30
0.0
 10
22.8194
 20
19.9748
 30
0.0
 10
22.5808
 20
20.0549
 30
0.0
 10
22.3969
 20
20.175
 30
0.0
 10
22.2675
 20
20.3335
 30
0.0
 10
22.2675
 20
20.3335
 30
0.0
 10
22.1382
 20
20.4921
 30
0.0
 10
22.0736
 20
20.6914
 30
0.0
 10
22.0736
 20
20.9316
 30
0.0
 10
22.0736
 20
20.9316
 30
0.0
 10
22.0736
 20
21.1094
 30
0.0
 10
22.1097
 20
21.2649
 30
0.0
 10
22.1813
 20
21.3988
 30
0.0
 10
22.1813
 20
21.3988
 30
0.0
 10
22.2521
 20
21.5327
 30
0.0
 10
22.3553
 20
21.6428
 30
0.0
 10
22.49
 20
21.7305
 30
0.0
 10
22.49
 20
21.7305
 30
0.0
 10
22.6247
 20
21.8175
 30
0.0
 10
22.7886
 20
21.886
 30
0.0
 10
22.9818
 20
21.9353
 30
0.0
 10
22.9818
 20
21.9353
 30
0.0
 10
23.175
 20
21.9853
 30
0.0
 10
23.4352
 20
22.0099
 30
0.0
 10
23.7631
 20
22.0099
 30
0.0
 10
23.7631
 20
22.0099
 30
0.0
 10
24.151
 20
22.0099
 30
0.0
 10
24.4635
 20
21.9699
 30
0.0
 10
24.7021
 20
21.8906
 30
0.0
 10
24.7021
 20
21.8906
 30
0.0
 10
24.9408
 20
21.8106
 30
0.0
 10
25.1247
 20
21.6913
 30
0.0
 10
25.2548
 20
21.5327
 30
0.0
 10
25.2548
 20
21.5327
 30
0.0
 10
25.3849
 20
21.3742
 30
0.0
 10
25.4495
 20
21.1741
 30
0.0
 10
25.4495
 20
20.9316
 30
0.0
 10
25.4495
 20
20.9316
 30
0.0
 10
25.4495
 20
20.6129
 30
0.0
 10
25.3356
 20
20.3628
 30
0.0
 10
25.107
 20
20.1811
 30
0.0
 10
25.107
 20
20.1811
 30
0.0
 10
24.8322
 20
19.9633
 30
0.0
 10
24.3835
 20
19.854
 30
0.0
 10
23.7631
 20
19.854
 30
0.0
  0
SPLINE
  5
63
330
1F
100
AcDbEntity
  8
ROUND
 62
   250
100
AcDbSpline
210
0.0
220
0.0
230
1.0
 70
    11
 71
     3
 72
    36
 73
    32
 74
     0
 42
0.0000000001
 43
0.0000000001
 40
0.0
 40
0.0
 40
0.0
 40
0.0
 40
0.1111111111111111
 40
0.1111111111111111
 40
0.1111111111111111
 40
0.1111111111111111
 40
0.2222222222222222
 40
0.2222222222222222
 40
0.2222222222222222
 40
0.2222222222222222
 40
0.3333333333333333
 40
0.3333333333333333
 40
0.3333333333333333
 40
0.3333333333333333
 40
0.4444444444444444
 40
0.4444444444444444
 40
0.4444444444444444
 40
0.4444444444444444
 40
0.5555555555555556
 40
0.5555555555555556
 40
0.5555555555555556
 40
0.5555555555555556
 40
0.6666666666666666
 40
0.6666666666666666
 40
0.6666666666666666
 40
0.6666666666666666
 40
0.7777777777777778
 40
0.7777777777777778
 40
0.7777777777777778
 40
0.7777777777777778
 40
1.0
 40
1.0
 40
1.0
 40
1.0
 10
23.7631
 20
20.2712
 30
0.0
 10
24.3057
 20
20.2712
 30
0.0
 10
24.6667
 20
20.3351
 30
0.0
 10
24.8469
 20
20.4621
 30
0.0
 10
24.8469
 20
20.4621
 30
0.0
 10
25.0262
 20
20.5891
 30
0.0
 10
25.1162
 20
20.7453
 30
0.0
 10
25.1162
 20
20.9316
 30
0.0
 10
25.1162
 20
20.9316
 30
0.0
 10
25.1162
 20
21.1186
 30
0.0
 10
25.0254
 20
21.2749
 30
0.0
 10
24.8453
 20
21.4019
 30
0.0
 10
24.8453
 20
21.4019
 30
0.0
 10
24.6652
 20
21.5289
 30
0.0
 10
24.3042
 20
21.5928
 30
0.0
 10
23.7631
 20
21.5928
 30
0.0
 10
23.7631
 20
21.5928
 30
0.0
 10
23.2189
 20
21.5928
 30
0.0
 10
22.8571
 20
21.5289
 30
0.0
 10
22.6786
 20
21.4019
 30
0.0
 10
22.6786
 20
21.4019
 30
0.0
 10
22.4992
 20
21.2749
 30
0.0
 10
22.4099
 20
21.1171
 30
0.0
 10
22.4099
 20
20.9277
 30
0.0
 10
22.4099
 20
20.9277
 30
0.0
 10
22.4099
 20
20.7407
 30
0.0
 10
22.4892
 20
20.5922
 30
0.0
 10
22.647
 20
20.4805
 30
0.0
 10
22.647
 20
20.4805
 30
0.0
 10
22.8479
 20
20.3412
 30
0.0
 10
23.2205
 20
20.2712
 30
0.0
 10
23.7631
 20
20.2712
 30
0.0
  0
SPLINE
  5
64
330
1F
100
AcDbEntity
  8
ROUND
 62
   250
100
AcDbSpline
210
0.0
220
0.0
230
1.0
 70
    24
 71
     3
 72
     8
 73
     4
 74
     0
 42
0.0000000001
 43
0.0000000001
 40
0.0
 40
0.0
 40
0.0
 40
0.0
 40
1.0
 40
1.0
 40
1.0
 40
1.0
 10
12.2465
 20
-36.133
 30
0.0
 10
12.2465
 20
-36.133
 30
0.0
 10
-15.5416
 20
-36.133
 30
0.0
 10
-15.5416
 20
-36.133
 30
0.0
  0
SPLINE
  5
65
330
1F
100
AcDbEntity
  8
ROUND
 62
   250
100
AcDbSpline
210
0.0
220
0.0
230
1.0
 70
    24
 71
     3
 72
     8
 73
     4
 74
     0
 42
0.0000000001
 43
0.0000000001
 40
0.0
 40
0.0
 40
0.0
 40
0.0
 40
1.0
 40
1.0
 40
1.0
 40
1.0
 10
-16.1505
 20
-35.0783
 30
0.0
 10
-16.1505
 20
-35.0783
 30
0.0
 10
-15.5416
 20
-36.133
 30
0.0
 10
-15.5416
 20
-36.133
 30
0.0
  0
SPLINE
  5
66
330
1F
100
AcDbEntity
  8
ROUND
 62
   250
100
AcDbSpline
210
0.0
220
0.0
230
1.0
 70
    24
 71
     3
 72
     8
 73
     4
 74
     0
 42
0.0000000001
 43
0.0000000001
 40
0.0
 40
0.0
 40
0.0
 40
0.0
 40
1.0
 40
1.0
 40
1.0
 40
1.0
 10
8.9002
 20
30.6446
 30
0.0
 10
8.9002
 20
30.6446
 30
0.0
 10
8.0451
 20
29.7896
 30
0.0
 10
8.0451
 20
29.7896
 30
0.0
  0
SPLINE
  5
67
330
1F
100
AcDbEntity
  8
ROUND
 62
   250
100
AcDbSpline
210
0.0
220
0.0
230
1.0
 70
    24
 71
     3
 72
     8
 73
     4
 74
     0
 42
0.0000000001
 43
0.0000000001
 40
0.0
 40
0.0
 40
0.0
 40
0.0
 40
1.0
 40
1.0
 40
1.0
 40
1.0
 10
14.5696
 20
3.1568
 30
0.0
 10
14.5696
 20
3.1568
 30
0.0
 10
17.477
 20
3.6694
 30
0.0
 10
17.477
 20
3.6694
 30
0.0
  0
SPLINE
  5
68
330
1F
100
AcDbEntity
  8
ROUND
 62
   250
100
AcDbSpline
210
0.0
220
0.0
230
1.0
 70
    24
 71
     3
 72
     8
 73
     4
 74
     0
 42
0.0000000001
 43
0.0000000001
 40
0.0
 40
0.0
 40
0.0
 40
0.0
 40
1.0
 40
1.0
 40
1.0
 40
1.0
 10
14.5696
 20
3.1568
 30
0.0
 10
14.5696
 20
3.1568
 30
0.0
 10
14.3647
 20
3.1568
 30
0.0
 10
14.3647
 20
3.1568
 30
0.0
  0
SPLINE
  5
69
330
1F
100
AcDbEntity
  8
ROUND
 62
   250
100
AcDbSpline
210
0.0
220
0.0
230
1.0
 70
    24
 71
     3
 72
     8
 73
     4
 74
     0
 42
0.0000000001
 43
0.0000000001
 40
0.0
 40
0.0
 40
0.0
 40
0.0
 40
1.0
 40
1.0
 40
1.0
 40
1.0
 10
7.5817
 20
2.5391
 30
0.0
 10
7.5817
 20
2.5391
 30
0.0
 10
7.5817
 20
5.7937
 30
0.0
 10
7.5817
 20
5.7937
 30
0.0
  0
SPLINE
  5
6A
330
1F
100
AcDbEntity
  8
ROUND
 62
   250
100
AcDbSpline
210
0.0
220
0.0
230
1.0
 70
    24
 71
     3
 72
     8
 73
     4
 74
     0
 42
0.0000000001
 43
0.0000000001
 40
0.0
 40
0.0
 40
0.0
 40
0.0
 40
1.0
 40
1.0
 40
1.0
 40
1.0
 10
8.0451
 20
29.7896
 30
0.0
 10
8.0451
 20
29.7896
 30
0.0
 10
8.0451
 20
6.0574
 30
0.0
 10
8.0451
 20
6.0574
 30
0.0
  0
SPLINE
  5
6B
330
1F
100
AcDbEntity
  8
ROUND
 62
   250
100
AcDbSpline
210
0.0
220
0.0
230
1.0
 70
    24
 71
     3
 72
     8
 73
     4
 74
     0
 42
0.0000000001
 43
0.0000000001
 40
0.0
 40
0.0
 40
0.0
 40
0.0
 40
1.0
 40
1.0
 40
1.0
 40
1.0
 10
9.1639
 20
3.8161
 30
0.0
 10
9.1639
 20
3.8161
 30
0.0
 10
9.4276
 20
3.8161
 30
0.0
 10
9.4276
 20
3.8161
 30
0.0
  0
SPLINE
  5
6C
330
1F
100
AcDbEntity
  8
ROUND
 62
   250
100
AcDbSpline
210
0.0
220
0.0
230
1.0
 70
    24
 71
     3
 72
     8
 73
     4
 74
     0
 42
0.0000000001
 43
0.0000000001
 40
0.0
 40
0.0
 40
0.0
 40
0.0
 40
1.0
 40
1.0
 40
1.0
 40
1.0
 10
13.7272
 20
4.8708
 30
0.0
 10
13.7272
 20
4.8708
 30
0.0
 10
9.6913
 20
4.8708
 30
0.0
 10
9.6913
 20
4.8708
 30
0.0
  0
SPLINE
  5
6D
330
1F
100
AcDbEntity
  8
ROUND
 62
   250
100
AcDbSpline
210
0.0
220
0.0
230
1.0
 70
    24
 71
     3
 72
     8
 73
     4
 74
     0
 42
0.0000000001
 43
0.0000000001
 40
0.0
 40
0.0
 40
0.0
 40
0.0
 40
1.0
 40
1.0
 40
1.0
 40
1.0
 10
18.2392
 20
5.1345
 30
0.0
 10
18.2392
 20
5.1345
 30
0.0
 10
18.7886
 20
5.1345
 30
0.0
 10
18.7886
 20
5.1345
 30
0.0
  0
SPLINE
  5
6E
330
1F
100
AcDbEntity
  8
ROUND
 62
   250
100
AcDbSpline
210
0.0
220
0.0
230
1.0
 70
    24
 71
     3
 72
     8
 73
     4
 74
     0
 42
0.0000000001
 43
0.0000000001
 40
0.0
 40
0.0
 40
0.0
 40
0.0
 40
1.0
 40
1.0
 40
1.0
 40
1.0
 10
7.8454
 20
6.0574
 30
0.0
 10
7.8454
 20
6.0574
 30
0.0
 10
8.0451
 20
6.0574
 30
0.0
 10
8.0451
 20
6.0574
 30
0.0
  0
SPLINE
  5
6F
330
1F
100
AcDbEntity
  8
ROUND
 62
   250
100
AcDbSpline
210
0.0
220
0.0
230
1.0
 70
    24
 71
     3
 72
     8
 73
     4
 74
     0
 42
0.0000000001
 43
0.0000000001
 40
0.0
 40
0.0
 40
0.0
 40
0.0
 40
1.0
 40
1.0
 40
1.0
 40
1.0
 10
13.7272
 20
30.9762
 30
0.0
 10
13.7272
 20
30.9762
 30
0.0
 10
13.8395
 20
32.2105
 30
0.0
 10
13.8395
 20
32.2105
 30
0.0
  0
SPLINE
  5
70
330
1F
100
AcDbEntity
  8
ROUND
 62
   250
100
AcDbSpline
210
0.0
220
0.0
230
1.0
 70
    24
 71
     3
 72
     8
 73
     4
 74
     0
 42
0.0000000001
 43
0.0000000001
 40
0.0
 40
0.0
 40
0.0
 40
0.0
 40
1.0
 40
1.0
 40
1.0
 40
1.0
 10
8.9002
 20
5.2023
 30
0.0
 10
8.9002
 20
5.2023
 30
0.0
 10
8.0451
 20
6.0574
 30
0.0
 10
8.0451
 20
6.0574
 30
0.0
  0
SPLINE
  5
71
330
1F
100
AcDbEntity
  8
ROUND
 62
   250
100
AcDbSpline
210
0.0
220
0.0
230
1.0
 70
    24
 71
     3
 72
     8
 73
     4
 74
     0
 42
0.0000000001
 43
0.0000000001
 40
0.0
 40
0.0
 40
0.0
 40
0.0
 40
1.0
 40
1.0
 40
1.0
 40
1.0
 10
13.7272
 20
4.8708
 30
0.0
 10
13.7272
 20
4.8708
 30
0.0
 10
13.8395
 20
3.6364
 30
0.0
 10
13.8395
 20
3.6364
 30
0.0
  0
SPLINE
  5
72
330
1F
100
AcDbEntity
  8
ROUND
 62
   250
100
AcDbSpline
210
0.0
220
0.0
230
1.0
 70
    24
 71
     3
 72
     8
 73
     4
 74
     0
 42
0.0000000001
 43
0.0000000001
 40
0.0
 40
0.0
 40
0.0
 40
0.0
 40
1.0
 40
1.0
 40
1.0
 40
1.0
 10
13.7272
 20
4.8708
 30
0.0
 10
13.7272
 20
4.8708
 30
0.0
 10
13.7272
 20
30.9762
 30
0.0
 10
13.7272
 20
30.9762
 30
0.0
  0
SPLINE
  5
73
330
1F
100
AcDbEntity
  8
ROUND
 62
   250
100
AcDbSpline
210
0.0
220
0.0
230
1.0
 70
    24
 71
     3
 72
     8
 73
     4
 74
     0
 42
0.0000000001
 43
0.0000000001
 40
0.0
 40
0.0
 40
0.0
 40
0.0
 40
1.0
 40
1.0
 40
1.0
 40
1.0
 10
18.7886
 20
5.1345
 30
0.0
 10
18.7886
 20
5.1345
 30
0.0
 10
18.7886
 20
30.7126
 30
0.0
 10
18.7886
 20
30.7126
 30
0.0
  0
SPLINE
  5
74
330
1F
100
AcDbEntity
  8
ROUND
 62
   250
100
AcDbSpline
210
0.0
220
0.0
230
1.0
 70
    24
 71
     3
 72
     8
 73
     4
 74
     0
 42
0.0000000001
 43
0.0000000001
 40
0.0
 40
0.0
 40
0.0
 40
0.0
 40
1.0
 40
1.0
 40
1.0
 40
1.0
 10
17.9107
 20
4.1428
 30
0.0
 10
17.9107
 20
4.1428
 30
0.0
 10
17.9765
 20
4.8938
 30
0.0
 10
17.9765
 20
4.8938
 30
0.0
  0
SPLINE
  5
75
330
1F
100
AcDbEntity
  8
ROUND
 62
   250
100
AcDbSpline
210
0.0
220
0.0
230
1.0
 70
    24
 71
     3
 72
     8
 73
     4
 74
     0
 42
0.0000000001
 43
0.0000000001
 40
0.0
 40
0.0
 40
0.0
 40
0.0
 40
1.0
 40
1.0
 40
1.0
 40
1.0
 10
17.9107
 20
31.7041
 30
0.0
 10
17.9107
 20
31.7041
 30
0.0
 10
17.9765
 20
30.9533
 30
0.0
 10
17.9765
 20
30.9533
 30
0.0
  0
SPLINE
  5
76
330
1F
100
AcDbEntity
  8
ROUND
 62
   250
100
AcDbSpline
210
0.0
220
0.0
230
1.0
 70
    24
 71
     3
 72
     8
 73
     4
 74
     0
 42
0.0000000001
 43
0.0000000001
 40
0.0
 40
0.0
 40
0.0
 40
0.0
 40
1.0
 40
1.0
 40
1.0
 40
1.0
 10
12.8556
 20
-35.0783
 30
0.0
 10
12.8556
 20
-35.0783
 30
0.0
 10
12.2465
 20
-36.133
 30
0.0
 10
12.2465
 20
-36.133
 30
0.0
  0
SPLINE
  5
77
330
1F
100
AcDbEntity
  8
ROUND
 62
   250
100
AcDbSpline
210
0.0
220
0.0
230
1.0
 70
    24
 71
     3
 72
     8
 73
     4
 74
     0
 42
0.0000000001
 43
0.0000000001
 40
0.0
 40
0.0
 40
0.0
 40
0.0
 40
1.0
 40
1.0
 40
1.0
 40
1.0
 10
7.8454
 20
29.7896
 30
0.0
 10
7.8454
 20
29.7896
 30
0.0
 10
8.0451
 20
29.7896
 30
0.0
 10
8.0451
 20
29.7896
 30
0.0
  0
SPLINE
  5
78
330
1F
100
AcDbEntity
  8
ROUND
 62
   250
100
AcDbSpline
210
0.0
220
0.0
230
1.0
 70
    24
 71
     3
 72
     8
 73
     4
 74
     0
 42
0.0000000001
 43
0.0000000001
 40
0.0
 40
0.0
 40
0.0
 40
0.0
 40
1.0
 40
1.0
 40
1.0
 40
1.0
 10
18.2392
 20
30.7126
 30
0.0
 10
18.2392
 20
30.7126
 30
0.0
 10
18.7886
 20
30.7126
 30
0.0
 10
18.7886
 20
30.7126
 30
0.0
  0
SPLINE
  5
79
330
1F
100
AcDbEntity
  8
ROUND
 62
   250
100
AcDbSpline
210
0.0
220
0.0
230
1.0
 70
    24
 71
     3
 72
     8
 73
     4
 74
     0
 42
0.0000000001
 43
0.0000000001
 40
0.0
 40
0.0
 40
0.0
 40
0.0
 40
1.0
 40
1.0
 40
1.0
 40
1.0
 10
13.7272
 20
30.9762
 30
0.0
 10
13.7272
 20
30.9762
 30
0.0
 10
9.6913
 20
30.9762
 30
0.0
 10
9.6913
 20
30.9762
 30
0.0
  0
SPLINE
  5
7A
330
1F
100
AcDbEntity
  8
ROUND
 62
   250
100
AcDbSpline
210
0.0
220
0.0
230
1.0
 70
    24
 71
     3
 72
     8
 73
     4
 74
     0
 42
0.0000000001
 43
0.0000000001
 40
0.0
 40
0.0
 40
0.0
 40
0.0
 40
1.0
 40
1.0
 40
1.0
 40
1.0
 10
9.1639
 20
32.031
 30
0.0
 10
9.1639
 20
32.031
 30
0.0
 10
9.4276
 20
32.031
 30
0.0
 10
9.4276
 20
32.031
 30
0.0
  0
SPLINE
  5
7B
330
1F
100
AcDbEntity
  8
ROUND
 62
   250
100
AcDbSpline
210
0.0
220
0.0
230
1.0
 70
    24
 71
     3
 72
     8
 73
     4
 74
     0
 42
0.0000000001
 43
0.0000000001
 40
0.0
 40
0.0
 40
0.0
 40
0.0
 40
1.0
 40
1.0
 40
1.0
 40
1.0
 10
14.3647
 20
32.6902
 30
0.0
 10
14.3647
 20
32.6902
 30
0.0
 10
14.5696
 20
32.6902
 30
0.0
 10
14.5696
 20
32.6902
 30
0.0
  0
SPLINE
  5
7C
330
1F
100
AcDbEntity
  8
ROUND
 62
   250
100
AcDbSpline
210
0.0
220
0.0
230
1.0
 70
    24
 71
     3
 72
     8
 73
     4
 74
     0
 42
0.0000000001
 43
0.0000000001
 40
0.0
 40
0.0
 40
0.0
 40
0.0
 40
1.0
 40
1.0
 40
1.0
 40
1.0
 10
14.5696
 20
32.6902
 30
0.0
 10
14.5696
 20
32.6902
 30
0.0
 10
17.477
 20
32.1775
 30
0.0
 10
17.477
 20
32.1775
 30
0.0
  0
SPLINE
  5
7D
330
1F
100
AcDbEntity
  8
ROUND
 62
   250
100
AcDbSpline
210
0.0
220
0.0
230
1.0
 70
     8
 71
     3
 72
     8
 73
     4
 74
     0
 42
0.0000000001
 43
0.0000000001
 40
0.0
 40
0.0
 40
0.0
 40
0.0
 40
1.0
 40
1.0
 40
1.0
 40
1.0
 10
7.8454
 20
29.7896
 30
0.0
 10
-5.4072
 20
29.7896
 30
0.0
 10
-16.1505
 20
19.0463
 30
0.0
 10
-16.1505
 20
5.7937
 30
0.0
  0
SPLINE
  5
7E
330
1F
100
AcDbEntity
  8
ROUND
 62
   250
100
AcDbSpline
210
0.0
220
0.0
230
1.0
 70
     8
 71
     3
 72
     8
 73
     4
 74
     0
 42
0.0000000001
 43
0.0000000001
 40
0.0
 40
0.0
 40
0.0
 40
0.0
 40
1.0
 40
1.0
 40
1.0
 40
1.0
 10
7.8454
 20
6.0574
 30
0.0
 10
7.6998
 20
6.0574
 30
0.0
 10
7.5817
 20
5.9394
 30
0.0
 10
7.5817
 20
5.7937
 30
0.0
  0
SPLINE
  5
7F
330
1F
100
AcDbEntity
  8
ROUND
 62
   250
100
AcDbSpline
210
0.0
220
0.0
230
1.0
 70
    24
 71
     3
 72
     8
 73
     4
 74
     0
 42
0.0000000001
 43
0.0000000001
 40
0.0
 40
0.0
 40
0.0
 40
0.0
 40
1.0
 40
1.0
 40
1.0
 40
1.0
 10
-16.1505
 20
-3.1716
 30
0.0
 10
-16.1505
 20
-3.1716
 30
0.0
 10
-16.1505
 20
-35.0783
 30
0.0
 10
-16.1505
 20
-35.0783
 30
0.0
  0
SPLINE
  5
80
330
1F
100
AcDbEntity
  8
ROUND
 62
   250
100
AcDbSpline
210
0.0
220
0.0
230
1.0
 70
    24
 71
     3
 72
     8
 73
     4
 74
     0
 42
0.0000000001
 43
0.0000000001
 40
0.0
 40
0.0
 40
0.0
 40
0.0
 40
1.0
 40
1.0
 40
1.0
 40
1.0
 10
12.8556
 20
-3.6632
 30
0.0
 10
12.8556
 20
-3.6632
 30
0.0
 10
12.8556
 20
-35.0783
 30
0.0
 10
12.8556
 20
-35.0783
 30
0.0
  0
SPLINE
  5
81
330
1F
100
AcDbEntity
  8
ROUND
 62
   250
100
AcDbSpline
210
0.0
220
0.0
230
1.0
 70
    24
 71
     3
 72
     8
 73
     4
 74
     0
 42
0.0000000001
 43
0.0000000001
 40
0.0
 40
0.0
 40
0.0
 40
0.0
 40
1.0
 40
1.0
 40
1.0
 40
1.0
 10
-16.1505
 20
-3.1696
 30
0.0
 10
-16.1505
 20
-3.1696
 30
0.0
 10
-16.1505
 20
5.7937
 30
0.0
 10
-16.1505
 20
5.7937
 30
0.0
  0
SPLINE
  5
82
330
1F
100
AcDbEntity
  8
ROUND
 62
   250
100
AcDbSpline
210
0.0
220
0.0
230
1.0
 70
    24
 71
     3
 72
     8
 73
     4
 74
     0
 42
0.0000000001
 43
0.0000000001
 40
0.0
 40
0.0
 40
0.0
 40
0.0
 40
1.0
 40
1.0
 40
1.0
 40
1.0
 10
8.9002
 20
4.0798
 30
0.0
 10
8.9002
 20
4.0798
 30
0.0
 10
8.9002
 20
31.7673
 30
0.0
 10
8.9002
 20
31.7673
 30
0.0
  0
SPLINE
  5
83
330
1F
100
AcDbEntity
  8
ROUND
 62
   250
100
AcDbSpline
210
0.0
220
0.0
230
1.0
 70
    24
 71
     3
 72
     8
 73
     4
 74
     0
 42
0.0000000001
 43
0.0000000001
 40
0.0
 40
0.0
 40
0.0
 40
0.0
 40
1.0
 40
1.0
 40
1.0
 40
1.0
 10
9.4276
 20
3.8161
 30
0.0
 10
9.4276
 20
3.8161
 30
0.0
 10
9.1639
 20
3.8161
 30
0.0
 10
9.1639
 20
3.8161
 30
0.0
  0
SPLINE
  5
84
330
1F
100
AcDbEntity
  8
ROUND
 62
   250
100
AcDbSpline
210
0.0
220
0.0
230
1.0
 70
    24
 71
     3
 72
     8
 73
     4
 74
     0
 42
0.0000000001
 43
0.0000000001
 40
0.0
 40
0.0
 40
0.0
 40
0.0
 40
1.0
 40
1.0
 40
1.0
 40
1.0
 10
7.8907
 20
1.7932
 30
0.0
 10
7.8907
 20
1.7932
 30
0.0
 10
12.508
 20
-2.8241
 30
0.0
 10
12.508
 20
-2.8241
 30
0.0
  0
SPLINE
  5
85
330
1F
100
AcDbEntity
  8
ROUND
 62
   250
100
AcDbSpline
210
0.0
220
0.0
230
1.0
 70
    24
 71
     3
 72
     8
 73
     4
 74
     0
 42
0.0000000001
 43
0.0000000001
 40
0.0
 40
0.0
 40
0.0
 40
0.0
 40
1.0
 40
1.0
 40
1.0
 40
1.0
 10
9.6913
 20
31.7673
 30
0.0
 10
9.6913
 20
31.7673
 30
0.0
 10
9.6913
 20
4.0798
 30
0.0
 10
9.6913
 20
4.0798
 30
0.0
  0
SPLINE
  5
86
330
1F
100
AcDbEntity
  8
ROUND
 62
   250
100
AcDbSpline
210
0.0
220
0.0
230
1.0
 70
    24
 71
     3
 72
     8
 73
     4
 74
     0
 42
0.0000000001
 43
0.0000000001
 40
0.0
 40
0.0
 40
0.0
 40
0.0
 40
1.0
 40
1.0
 40
1.0
 40
1.0
 10
13.8395
 20
3.6364
 30
0.0
 10
13.8395
 20
3.6364
 30
0.0
 10
13.7272
 20
4.8708
 30
0.0
 10
13.7272
 20
4.8708
 30
0.0
  0
SPLINE
  5
87
330
1F
100
AcDbEntity
  8
ROUND
 62
   250
100
AcDbSpline
210
0.0
220
0.0
230
1.0
 70
    24
 71
     3
 72
     8
 73
     4
 74
     0
 42
0.0000000001
 43
0.0000000001
 40
0.0
 40
0.0
 40
0.0
 40
0.0
 40
1.0
 40
1.0
 40
1.0
 40
1.0
 10
17.9107
 20
4.1428
 30
0.0
 10
17.9107
 20
4.1428
 30
0.0
 10
17.9107
 20
31.7041
 30
0.0
 10
17.9107
 20
31.7041
 30
0.0
  0
SPLINE
  5
88
330
1F
100
AcDbEntity
  8
ROUND
 62
   250
100
AcDbSpline
210
0.0
220
0.0
230
1.0
 70
    24
 71
     3
 72
     8
 73
     4
 74
     0
 42
0.0000000001
 43
0.0000000001
 40
0.0
 40
0.0
 40
0.0
 40
0.0
 40
1.0
 40
1.0
 40
1.0
 40
1.0
 10
18.2392
 20
30.7126
 30
0.0
 10
18.2392
 20
30.7126
 30
0.0
 10
18.2392
 20
5.1345
 30
0.0
 10
18.2392
 20
5.1345
 30
0.0
  0
SPLINE
  5
89
330
1F
100
AcDbEntity
  8
ROUND
 62
   250
100
AcDbSpline
210
0.0
220
0.0
230
1.0
 70
     8
 71
     3
 72
     8
 73
     4
 74
     0
 42
0.0000000001
 43
0.0000000001
 40
0.0
 40
0.0
 40
0.0
 40
0.0
 40
1.0
 40
1.0
 40
1.0
 40
1.0
 10
12.8556
 20
-3.6632
 30
0.0
 10
12.8556
 20
-3.3484
 30
0.0
 10
12.7305
 20
-3.0467
 30
0.0
 10
12.508
 20
-2.8241
 30
0.0
  0
SPLINE
  5
8A
330
1F
100
AcDbEntity
  8
ROUND
 62
   250
100
AcDbSpline
210
0.0
220
0.0
230
1.0
 70
     8
 71
     3
 72
     8
 73
     4
 74
     0
 42
0.0000000001
 43
0.0000000001
 40
0.0
 40
0.0
 40
0.0
 40
0.0
 40
1.0
 40
1.0
 40
1.0
 40
1.0
 10
7.5817
 20
2.5391
 30
0.0
 10
7.5817
 20
2.2593
 30
0.0
 10
7.6928
 20
1.991
 30
0.0
 10
7.8907
 20
1.7932
 30
0.0
  0
SPLINE
  5
8B
330
1F
100
AcDbEntity
  8
ROUND
 62
   250
100
AcDbSpline
210
0.0
220
0.0
230
1.0
 70
     8
 71
     3
 72
     8
 73
     4
 74
     0
 42
0.0000000001
 43
0.0000000001
 40
0.0
 40
0.0
 40
0.0
 40
0.0
 40
1.0
 40
1.0
 40
1.0
 40
1.0
 10
9.4276
 20
3.8161
 30
0.0
 10
9.5731
 20
3.8161
 30
0.0
 10
9.6913
 20
3.9341
 30
0.0
 10
9.6913
 20
4.0798
 30
0.0
  0
SPLINE
  5
8C
330
1F
100
AcDbEntity
  8
ROUND
 62
   250
100
AcDbSpline
210
0.0
220
0.0
230
1.0
 70
     8
 71
     3
 72
     8
 73
     4
 74
     0
 42
0.0000000001
 43
0.0000000001
 40
0.0
 40
0.0
 40
0.0
 40
0.0
 40
1.0
 40
1.0
 40
1.0
 40
1.0
 10
8.9002
 20
4.0798
 30
0.0
 10
8.9002
 20
3.9341
 30
0.0
 10
9.0182
 20
3.8161
 30
0.0
 10
9.1639
 20
3.8161
 30
0.0
  0
SPLINE
  5
8D
330
1F
100
AcDbEntity
  8
ROUND
 62
   250
100
AcDbSpline
210
0.0
220
0.0
230
1.0
 70
     8
 71
     3
 72
     8
 73
     4
 74
     0
 42
0.0000000001
 43
0.0000000001
 40
0.0
 40
0.0
 40
0.0
 40
0.0
 40
1.0
 40
1.0
 40
1.0
 40
1.0
 10
9.6913
 20
31.7673
 30
0.0
 10
9.6913
 20
31.913
 30
0.0
 10
9.5731
 20
32.031
 30
0.0
 10
9.4276
 20
32.031
 30
0.0
  0
SPLINE
  5
8E
330
1F
100
AcDbEntity
  8
ROUND
 62
   250
100
AcDbSpline
210
0.0
220
0.0
230
1.0
 70
     8
 71
     3
 72
     8
 73
     4
 74
     0
 42
0.0000000001
 43
0.0000000001
 40
0.0
 40
0.0
 40
0.0
 40
0.0
 40
1.0
 40
1.0
 40
1.0
 40
1.0
 10
9.1639
 20
32.031
 30
0.0
 10
9.0182
 20
32.031
 30
0.0
 10
8.9002
 20
31.913
 30
0.0
 10
8.9002
 20
31.7673
 30
0.0
  0
SPLINE
  5
8F
330
1F
100
AcDbEntity
  8
ROUND
 62
   250
100
AcDbSpline
210
0.0
220
0.0
230
1.0
 70
     8
 71
     3
 72
     8
 73
     4
 74
     0
 42
0.0000000001
 43
0.0000000001
 40
0.0
 40
0.0
 40
0.0
 40
0.0
 40
1.0
 40
1.0
 40
1.0
 40
1.0
 10
17.477
 20
3.6694
 30
0.0
 10
17.712
 20
3.7109
 30
0.0
 10
17.89
 20
3.9051
 30
0.0
 10
17.9107
 20
4.1428
 30
0.0
  0
SPLINE
  5
90
330
1F
100
AcDbEntity
  8
ROUND
 62
   250
100
AcDbSpline
210
0.0
220
0.0
230
1.0
 70
     8
 71
     3
 72
     8
 73
     4
 74
     0
 42
0.0000000001
 43
0.0000000001
 40
0.0
 40
0.0
 40
0.0
 40
0.0
 40
1.0
 40
1.0
 40
1.0
 40
1.0
 10
13.8395
 20
3.6364
 30
0.0
 10
13.8641
 20
3.3648
 30
0.0
 10
14.092
 20
3.1568
 30
0.0
 10
14.3647
 20
3.1568
 30
0.0
  0
SPLINE
  5
91
330
1F
100
AcDbEntity
  8
ROUND
 62
   250
100
AcDbSpline
210
0.0
220
0.0
230
1.0
 70
     8
 71
     3
 72
     8
 73
     4
 74
     0
 42
0.0000000001
 43
0.0000000001
 40
0.0
 40
0.0
 40
0.0
 40
0.0
 40
1.0
 40
1.0
 40
1.0
 40
1.0
 10
18.2392
 20
5.1345
 30
0.0
 10
18.1024
 20
5.1345
 30
0.0
 10
17.9884
 20
5.03
 30
0.0
 10
17.9765
 20
4.8938
 30
0.0
  0
SPLINE
  5
92
330
1F
100
AcDbEntity
  8
ROUND
 62
   250
100
AcDbSpline
210
0.0
220
0.0
230
1.0
 70
     8
 71
     3
 72
     8
 73
     4
 74
     0
 42
0.0000000001
 43
0.0000000001
 40
0.0
 40
0.0
 40
0.0
 40
0.0
 40
1.0
 40
1.0
 40
1.0
 40
1.0
 10
17.9107
 20
31.7041
 30
0.0
 10
17.89
 20
31.942
 30
0.0
 10
17.712
 20
32.1361
 30
0.0
 10
17.477
 20
32.1775
 30
0.0
  0
SPLINE
  5
93
330
1F
100
AcDbEntity
  8
ROUND
 62
   250
100
AcDbSpline
210
0.0
220
0.0
230
1.0
 70
     8
 71
     3
 72
     8
 73
     4
 74
     0
 42
0.0000000001
 43
0.0000000001
 40
0.0
 40
0.0
 40
0.0
 40
0.0
 40
1.0
 40
1.0
 40
1.0
 40
1.0
 10
14.3647
 20
32.6902
 30
0.0
 10
14.092
 20
32.6902
 30
0.0
 10
13.8641
 20
32.4822
 30
0.0
 10
13.8395
 20
32.2105
 30
0.0
  0
SPLINE
  5
94
330
1F
100
AcDbEntity
  8
ROUND
 62
   250
100
AcDbSpline
210
0.0
220
0.0
230
1.0
 70
     8
 71
     3
 72
     8
 73
     4
 74
     0
 42
0.0000000001
 43
0.0000000001
 40
0.0
 40
0.0
 40
0.0
 40
0.0
 40
1.0
 40
1.0
 40
1.0
 40
1.0
 10
17.9765
 20
30.9533
 30
0.0
 10
17.9884
 20
30.8171
 30
0.0
 10
18.1024
 20
30.7126
 30
0.0
 10
18.2392
 20
30.7126
 30
0.0
  0
SPLINE
  5
95
330
1F
100
AcDbEntity
  8
ROUND
 62
   250
100
AcDbSpline
210
0.0
220
0.0
230
1.0
 70
     8
 71
     3
 72
    80
 73
    76
 74
     0
 42
0.0000000001
 43
0.0000000001
 40
0.0
 40
0.0
 40
0.0
 40
0.0
 40
0.05
 40
0.05
 40
0.05
 40
0.05
 40
0.1
 40
0.1
 40
0.1
 40
0.1
 40
0.15
 40
0.15
 40
0.15
 40
0.15
 40
0.2
 40
0.2
 40
0.2
 40
0.2
 40
0.25
 40
0.25
 40
0.25
 40
0.25
 40
0.3
 40
0.3
 40
0.3
 40
0.3
 40
0.35
 40
0.35
 40
0.35
 40
0.35
 40
0.4
 40
0.4
 40
0.4
 40
0.4
 40
0.45
 40
0.45
 40
0.45
 40
0.45
 40
0.5
 40
0.5
 40
0.5
 40
0.5
 40
0.55
 40
0.55
 40
0.55
 40
0.55
 40
0.6
 40
0.6
 40
0.6
 40
0.6
 40
0.65
 40
0.65
 40
0.65
 40
0.65
 40
0.7
 40
0.7
 40
0.7
 40
0.7
 40
0.75
 40
0.75
 40
0.75
 40
0.75
 40
0.8
 40
0.8
 40
0.8
 40
0.8
 40
0.85
 40
0.85
 40
0.85
 40
0.85
 40
0.9
 40
0.9
 40
0.9
 40
0.9
 40
1.0
 40
1.0
 40
1.0
 40
1.0
 10
7.8907
 20
1.7932
 30
0.0
 10
7.8907
 20
1.7932
 30
0.0
 10
7.8531
 20
1.7933
 30
0.0
 10
7.8531
 20
1.7933
 30
0.0
 10
7.8531
 20
1.7933
 30
0.0
 10
7.8531
 20
1.7933
 30
0.0
 10
7.7161
 20
1.7937
 30
0.0
 10
7.7161
 20
1.7937
 30
0.0
 10
7.7161
 20
1.7937
 30
0.0
 10
7.7161
 20
1.7937
 30
0.0
 10
7.4431
 20
1.7945
 30
0.0
 10
7.4431
 20
1.7945
 30
0.0
 10
7.4431
 20
1.7945
 30
0.0
 10
7.4431
 20
1.7945
 30
0.0
 10
6.9962
 20
1.7958
 30
0.0
 10
6.9962
 20
1.7958
 30
0.0
 10
6.9962
 20
1.7958
 30
0.0
 10
6.9962
 20
1.7958
 30
0.0
 10
6.3265
 20
1.798
 30
0.0
 10
6.3265
 20
1.798
 30
0.0
 10
6.3265
 20
1.798
 30
0.0
 10
6.3265
 20
1.798
 30
0.0
 10
5.3567
 20
1.8017
 30
0.0
 10
5.3567
 20
1.8017
 30
0.0
 10
5.3567
 20
1.8017
 30
0.0
 10
5.3567
 20
1.8017
 30
0.0
 10
4.034
 20
1.8076
 30
0.0
 10
4.034
 20
1.8076
 30
0.0
 10
4.034
 20
1.8076
 30
0.0
 10
4.034
 20
1.8076
 30
0.0
 10
2.4156
 20
1.8163
 30
0.0
 10
2.4156
 20
1.8163
 30
0.0
 10
2.4156
 20
1.8163
 30
0.0
 10
2.4156
 20
1.8163
 30
0.0
 10
0.5825
 20
1.8285
 30
0.0
 10
0.5825
 20
1.8285
 30
0.0
 10
0.5825
 20
1.8285
 30
0.0
 10
0.5825
 20
1.8285
 30
0.0
 10
-1.4003
 20
1.8447
 30
0.0
 10
-1.4003
 20
1.8447
 30
0.0
 10
-1.4003
 20
1.8447
 30
0.0
 10
-1.4003
 20
1.8447
 30
0.0
 10
-3.4768
 20
1.8655
 30
0.0
 10
-3.4768
 20
1.8655
 30
0.0
 10
-3.4768
 20
1.8655
 30
0.0
 10
-3.4768
 20
1.8655
 30
0.0
 10
-5.589
 20
1.8908
 30
0.0
 10
-5.589
 20
1.8908
 30
0.0
 10
-5.589
 20
1.8908
 30
0.0
 10
-5.589
 20
1.8908
 30
0.0
 10
-7.672
 20
1.92
 30
0.0
 10
-7.672
 20
1.92
 30
0.0
 10
-7.672
 20
1.92
 30
0.0
 10
-7.672
 20
1.92
 30
0.0
 10
-9.669
 20
1.952
 30
0.0
 10
-9.669
 20
1.952
 30
0.0
 10
-9.669
 20
1.952
 30
0.0
 10
-9.669
 20
1.952
 30
0.0
 10
-11.5261
 20
1.985
 30
0.0
 10
-11.5261
 20
1.985
 30
0.0
 10
-11.5261
 20
1.985
 30
0.0
 10
-11.5261
 20
1.985
 30
0.0
 10
-13.1937
 20
2.0168
 30
0.0
 10
-13.1937
 20
2.0168
 30
0.0
 10
-13.1937
 20
2.0168
 30
0.0
 10
-13.1937
 20
2.0168
 30
0.0
 10
-14.6272
 20
2.0456
 30
0.0
 10
-14.6272
 20
2.0456
 30
0.0
 10
-14.6272
 20
2.0456
 30
0.0
 10
-14.6272
 20
2.0456
 30
0.0
 10
-15.7862
 20
2.0696
 30
0.0
 10
-15.7862
 20
2.0696
 30
0.0
 10
-15.7862
 20
2.0696
 30
0.0
 10
-15.7862
 20
2.0696
 30
0.0
 10
-16.2244
 20
2.0788
 30
0.0
 10
-16.2244
 20
2.0788
 30
0.0
  0
SPLINE
  5
96
330
1F
100
AcDbEntity
  8
ROUND
 62
   250
100
AcDbSpline
210
0.0
220
0.0
230
1.0
 70
     8
 71
     3
 72
    76
 73
    72
 74
     0
 42
0.0000000001
 43
0.0000000001
 40
0.0
 40
0.0
 40
0.0
 40
0.0
 40
0.0526315789473684
 40
0.0526315789473684
 40
0.0526315789473684
 40
0.0526315789473684
 40
0.1052631578947368
 40
0.1052631578947368
 40
0.1052631578947368
 40
0.1052631578947368
 40
0.1578947368421053
 40
0.1578947368421053
 40
0.1578947368421053
 40
0.1578947368421053
 40
0.2105263157894737
 40
0.2105263157894737
 40
0.2105263157894737
 40
0.2105263157894737
 40
0.2631578947368421
 40
0.2631578947368421
 40
0.2631578947368421
 40
0.2631578947368421
 40
0.3157894736842105
 40
0.3157894736842105
 40
0.3157894736842105
 40
0.3157894736842105
 40
0.3684210526315789
 40
0.3684210526315789
 40
0.3684210526315789
 40
0.3684210526315789
 40
0.4210526315789473
 40
0.4210526315789473
 40
0.4210526315789473
 40
0.4210526315789473
 40
0.4736842105263158
 40
0.4736842105263158
 40
0.4736842105263158
 40
0.4736842105263158
 40
0.5263157894736842
 40
0.5263157894736842
 40
0.5263157894736842
 40
0.5263157894736842
 40
0.5789473684210527
 40
0.5789473684210527
 40
0.5789473684210527
 40
0.5789473684210527
 40
0.631578947368421
 40
0.631578947368421
 40
0.631578947368421
 40
0.631578947368421
 40
0.6842105263157895
 40
0.6842105263157895
 40
0.6842105263157895
 40
0.6842105263157895
 40
0.7368421052631579
 40
0.7368421052631579
 40
0.7368421052631579
 40
0.7368421052631579
 40
0.7894736842105263
 40
0.7894736842105263
 40
0.7894736842105263
 40
0.7894736842105263
 40
0.8421052631578947
 40
0.8421052631578947
 40
0.8421052631578947
 40
0.8421052631578947
 40
0.8947368421052632
 40
0.8947368421052632
 40
0.8947368421052632
 40
0.8947368421052632
 40
1.0
 40
1.0
 40
1.0
 40
1.0
 10
-16.0974
 20
-3.1933
 30
0.0
 10
-16.0974
 20
-3.1933
 30
0.0
 10
-15.7868
 20
-3.1994
 30
0.0
 10
-15.7868
 20
-3.1994
 30
0.0
 10
-15.7868
 20
-3.1994
 30
0.0
 10
-15.7868
 20
-3.1994
 30
0.0
 10
-14.6107
 20
-3.2226
 30
0.0
 10
-14.6107
 20
-3.2226
 30
0.0
 10
-14.6107
 20
-3.2226
 30
0.0
 10
-14.6107
 20
-3.2226
 30
0.0
 10
-13.128
 20
-3.2517
 30
0.0
 10
-13.128
 20
-3.2517
 30
0.0
 10
-13.128
 20
-3.2517
 30
0.0
 10
-13.128
 20
-3.2517
 30
0.0
 10
-11.3714
 20
-3.2859
 30
0.0
 10
-11.3714
 20
-3.2859
 30
0.0
 10
-11.3714
 20
-3.2859
 30
0.0
 10
-11.3714
 20
-3.2859
 30
0.0
 10
-9.3911
 20
-3.3237
 30
0.0
 10
-9.3911
 20
-3.3237
 30
0.0
 10
-9.3911
 20
-3.3237
 30
0.0
 10
-9.3911
 20
-3.3237
 30
0.0
 10
-7.2251
 20
-3.3641
 30
0.0
 10
-7.2251
 20
-3.3641
 30
0.0
 10
-7.2251
 20
-3.3641
 30
0.0
 10
-7.2251
 20
-3.3641
 30
0.0
 10
-4.9323
 20
-3.4055
 30
0.0
 10
-4.9323
 20
-3.4055
 30
0.0
 10
-4.9323
 20
-3.4055
 30
0.0
 10
-4.9323
 20
-3.4055
 30
0.0
 10
-2.5568
 20
-3.4464
 30
0.0
 10
-2.5568
 20
-3.4464
 30
0.0
 10
-2.5568
 20
-3.4464
 30
0.0
 10
-2.5568
 20
-3.4464
 30
0.0
 10
-0.168
 20
-3.4857
 30
0.0
 10
-0.168
 20
-3.4857
 30
0.0
 10
-0.168
 20
-3.4857
 30
0.0
 10
-0.168
 20
-3.4857
 30
0.0
 10
2.1759
 20
-3.5221
 30
0.0
 10
2.1759
 20
-3.5221
 30
0.0
 10
2.1759
 20
-3.5221
 30
0.0
 10
2.1759
 20
-3.5221
 30
0.0
 10
4.4081
 20
-3.5549
 30
0.0
 10
4.4081
 20
-3.5549
 30
0.0
 10
4.4081
 20
-3.5549
 30
0.0
 10
4.4081
 20
-3.5549
 30
0.0
 10
6.4748
 20
-3.5836
 30
0.0
 10
6.4748
 20
-3.5836
 30
0.0
 10
6.4748
 20
-3.5836
 30
0.0
 10
6.4748
 20
-3.5836
 30
0.0
 10
8.3195
 20
-3.6081
 30
0.0
 10
8.3195
 20
-3.6081
 30
0.0
 10
8.3195
 20
-3.6081
 30
0.0
 10
8.3195
 20
-3.6081
 30
0.0
 10
9.8984
 20
-3.628
 30
0.0
 10
9.8984
 20
-3.628
 30
0.0
 10
9.8984
 20
-3.628
 30
0.0
 10
9.8984
 20
-3.628
 30
0.0
 10
11.1688
 20
-3.6434
 30
0.0
 10
11.1688
 20
-3.6434
 30
0.0
 10
11.1688
 20
-3.6434
 30
0.0
 10
11.1688
 20
-3.6434
 30
0.0
 10
12.0999
 20
-3.6544
 30
0.0
 10
12.0999
 20
-3.6544
 30
0.0
 10
12.0999
 20
-3.6544
 30
0.0
 10
12.0999
 20
-3.6544
 30
0.0
 10
12.6655
 20
-3.661
 30
0.0
 10
12.6655
 20
-3.661
 30
0.0
 10
12.6655
 20
-3.661
 30
0.0
 10
12.6655
 20
-3.661
 30
0.0
 10
12.8556
 20
-3.6632
 30
0.0
 10
12.8556
 20
-3.6632
 30
0.0
  0
ENDSEC
  0
SECTION
  2
OBJECTS
  0
DICTIONARY
  5
C
330
0
100
AcDbDictionary
  3
ACAD_GROUP
350
D
  3
ACAD_LAYOUT
350
1A
  3
ACAD_MATERIAL
350
3B
  3
ACAD_MLEADERSTYLE
350
B9
  3
ACAD_MLINESTYLE
350
17
  3
ACAD_PLOTSETTINGS
350
19
  3
ACAD_VISUALSTYLE
350
2A
  3
ACDBHEADERROUNDTRIPXREC
350
97
  3
ACDBVARIABLEDICTIONARY
350
B7
  0
DICTIONARY
  5
D
102
{ACAD_REACTORS
330
C
102
}
330
C
100
AcDbDictionary
  0
DICTIONARY
  5
1A
102
{ACAD_REACTORS
330
C
102
}
330
C
100
AcDbDictionary
  0
DICTIONARY
  5
3B
102
{ACAD_REACTORS
330
C
102
}
330
C
100
AcDbDictionary
  3
BYBLOCK
350
3D
  3
BYLAYER
350
3C
  3
GLOBAL
350
3E
  0
DICTIONARY
  5
B9
102
{ACAD_REACTORS
330
C
102
}
330
C
100
AcDbDictionary
  0
DICTIONARY
  5
17
102
{ACAD_REACTORS
330
C
102
}
330
C
100
AcDbDictionary
  3
STANDARD
350
18
  0
DICTIONARY
  5
19
102
{ACAD_REACTORS
330
C
102
}
330
C
100
AcDbDictionary
  0
DICTIONARY
  5
2A
102
{ACAD_REACTORS
330
C
102
}
330
C
100
AcDbDictionary
  3
2DWIREFRAME
350
2F
  3
3D_HIDDEN
350
31
  3
3DWIREFRAME
350
30
  3
BASIC
350
32
  3
BRIGHTEN
350
36
  3
COLORCHANGE
350
3A
  3
CONCEPTUAL
350
34
  3
DIM
350
35
  3
FACEPATTERN
350
39
  3
FLAT
350
2B
  3
FLATWITHEDGES
350
2C
  3
GOURAUD
350
2D
  3
GOURAUDWITHEDGES
350
2E
  3
LINEPATTERN
350
38
  3
REALISTIC
350
33
  3
THICKEN
350
37
  0
DICTIONARY
  5
97
102
{ACAD_REACTORS
330
C
102
}
330
C
100
AcDbDictionary
  3
CEPSNTYPE
350
A0
  3
DIMSTYLEDATA
350
B6
  3
FINGERPRINTGUID
350
A1
  3
HYPERLINKBASE
350
9A
  3
INSUNITS
350
9F
  3
LAYOUTDICT
350
9C
  3
LWETCUNION
350
9E
  3
PLOTSETDICT
350
9D
  3
PSVPSCALE
350
A3
  3
PUCSBASE
350
A6
  3
PUCSORGBACK
350
AC
  3
PUCSORGBOTTOM
350
A8
  3
PUCSORGFRONT
350
AB
  3
PUCSORGLEFT
350
A9
  3
PUCSORGRIGHT
350
AA
  3
PUCSORGTOP
350
A7
  3
PUCSORTHOREF
350
A4
  3
PUCSORTHOVIEW
350
A5
  3
STYLESHEET
350
9B
  3
TSTACKALIGN
350
98
  3
TSTACKSIZE
350
99
  3
UCSBASE
350
AF
  3
UCSORGBACK
350
B5
  3
UCSORGBOTTOM
350
B1
  3
UCSORGFRONT
350
B4
  3
UCSORGLEFT
350
B2
  3
UCSORGRIGHT
350
B3
  3
UCSORGTOP
350
B0
  3
UCSORTHOREF
350
AD
  3
UCSORTHOVIEW
350
AE
  3
VERSIONGUID
350
A2
  0
DICTIONARY
  5
B7
102
{ACAD_REACTORS
330
C
102
}
330
C
100
AcDbDictionary
  3
DIMASSOC
350
BA
  3
HIDETEXT
350
BB
  0
MATERIAL
  5
3D
102
{ACAD_REACTORS
330
3B
102
}
102
{ACAD_XDICTIONARY
360
BE
102
}
330
3B
100
AcDbMaterial
  1
ByBlock
  0
MATERIAL
  5
3C
102
{ACAD_REACTORS
330
3B
102
}
102
{ACAD_XDICTIONARY
360
BC
102
}
330
3B
100
AcDbMaterial
  1
ByLayer
  0
MATERIAL
  5
3E
102
{ACAD_REACTORS
330
3B
102
}
102
{ACAD_XDICTIONARY
360
C0
102
}
330
3B
100
AcDbMaterial
  1
Global
  0
MLINESTYLE
  5
18
102
{ACAD_REACTORS
330
17
102
}
330
17
100
AcDbMlineStyle
  2
Standard
 70
     0
  3

 62
   256
 51
90.0
 52
90.0
 71
     2
 49
0.5
 62
   256
  6
BYLAYER
 49
-0.5
 62
   256
  6
BYLAYER
  0
ACAD_PROXY_OBJECT
  5
2F
102
{ACAD_REACTORS
330
2A
102
}
330
2A
100
AcDbProxyObject
 90
      499
 91
      501
 93
      436
310
42CC9915DA5C99599C985B595049028333333333333E3BF0000000000000FB0107901411070040501600405405064090741402480A0340
1001
ACAD
1000
AcDbSavedByObjectVersion
1070
     0
  0
ACAD_PROXY_OBJECT
  5
31
102
{ACAD_REACTORS
330
2A
102
}
330
2A
100
AcDbProxyObject
 90
      499
 91
      501
 93
      500
310
424CD108121A5919195B90640502408333333333333E3BF0000000000000FB01079024090700405020000000000001110200405405064090740C02480A0340
1001
ACAD
1000
AcDbSavedByObjectVersion
1070
     0
  0
ACAD_PROXY_OBJECT
  5
30
102
{ACAD_REACTORS
330
2A
102
}
330
2A
100
AcDbProxyObject
 90
      499
 91
      501
 93
      436
310
42CCD915DA5C99599C985B595059028333333333333E3BF0000000000000FB0107901411070040501600405405064090741402480A0340
1001
ACAD
1000
AcDbSavedByObjectVersion
1070
     0
  0
ACAD_PROXY_OBJECT
  5
32
102
{ACAD_REACTORS
330
2A
102
}
330
2A
100
AcDbProxyObject
 90
      499
 91
      501
 93
      388
310
4150985CDA58D07406404333333333333E3BF0000000000000FB0107A41107004050150841D405064090741402480A0350
1001
ACAD
1000
AcDbSavedByObjectVersion
1070
     0
  0
ACAD_PROXY_OBJECT
  5
36
102
{ACAD_REACTORS
330
2A
102
}
330
2A
100
AcDbProxyObject
 90
      499
 91
      501
 93
      428
310
42109C9A59DA1D195B90C409028333333333333E3BF0000000000000FB010790141107004050150841D405064090741402480A029950
1001
ACAD
1000
AcDbSavedByObjectVersion
1070
     0
  0
ACAD_PROXY_OBJECT
  5
3A
102
{ACAD_REACTORS
330
2A
102
}
330
2A
100
AcDbProxyObject
 90
      499
 91
      501
 93
      452
310
42D0DBDB1BDC90DA185B99D95104090240C333333333333E3BF0000000000000FB0108901411070040501508421405064090741402480A0350
1001
ACAD
1000
AcDbSavedByObjectVersion
1070
     0
  0
ACAD_PROXY_OBJECT
  5
34
102
{ACAD_REACTORS
330
2A
102
}
330
2A
100
AcDbProxyObject
 90
      499
 91
      501
 93
      500
310
4290DBDB98D95C1D1D585B10940D028333333333333E3BF0000000000000FB0107902409070040501000000000000111010841D405064090740C02480A0340
1001
ACAD
1000
AcDbSavedByObjectVersion
1070
     0
  0
ACAD_PROXY_OBJECT
  5
35
102
{ACAD_REACTORS
330
2A
102
}
330
2A
100
AcDbProxyObject
 90
      499
 91
      501
 93
      412
310
40D11A5B50B409028333333333333E3BF0000000000000FB010790141107004050150841D405064090741402480A02677FFFFFD0
1001
ACAD
1000
AcDbSavedByObjectVersion
1070
     0
  0
ACAD_PROXY_OBJECT
  5
39
102
{ACAD_REACTORS
330
2A
102
}
330
2A
100
AcDbProxyObject
 90
      499
 91
      501
 93
      444
310
42D19858D95C185D1D195C9B90F409028333333333333E3BF0000000000000FB010790141107004050150841D405064090741402480A0350
1001
ACAD
1000
AcDbSavedByObjectVersion
1070
     0
  0
ACAD_PROXY_OBJECT
  5
2B
102
{ACAD_REACTORS
330
2A
102
}
330
2A
100
AcDbProxyObject
 90
      499
 91
      501
 93
      388
310
41119B185D240901404333333333333E3BF0000000000000F9010740A41107004050150841D405064090741402480A1B50
1001
ACAD
1000
AcDbSavedByObjectVersion
1070
     0
  0
ACAD_PROXY_OBJECT
  5
2C
102
{ACAD_REACTORS
330
2A
102
}
330
2A
100
AcDbProxyObject
 90
      499
 91
      501
 93
      476
310
43519B185D15DA5D1A115919D95CD0140901404333333333333E3BF0000000000000F9010740901411070040501600405405064090741402480A1B50
1001
ACAD
1000
AcDbSavedByObjectVersion
1070
     0
  0
ACAD_PROXY_OBJECT
  5
2D
102
{ACAD_REACTORS
330
2A
102
}
330
2A
100
AcDbProxyObject
 90
      499
 91
      501
 93
      412
310
41D1DBDD5C985D5910240902404333333333333E3BF0000000000000F9010740A411070040501641D405064090741402480A1B50
1001
ACAD
1000
AcDbSavedByObjectVersion
1070
     0
  0
ACAD_PROXY_OBJECT
  5
2E
102
{ACAD_REACTORS
330
2A
102
}
330
2A
100
AcDbProxyObject
 90
      499
 91
      501
 93
      500
310
4411DBDD5C985D5915DA5D1A115919D95CD0340902404333333333333E3BF0000000000000F9010740901411070040501600405405064090741402480A1B50
1001
ACAD
1000
AcDbSavedByObjectVersion
1070
     0
  0
ACAD_PROXY_OBJECT
  5
38
102
{ACAD_REACTORS
330
2A
102
}
330
2A
100
AcDbProxyObject
 90
      499
 91
      501
 93
      444
310
42D31A5B995C185D1D195C9B90E409028333333333333E3BF0000000000000FB010790141107004050750841D405064090741402483A0350
1001
ACAD
1000
AcDbSavedByObjectVersion
1070
     0
  0
ACAD_PROXY_OBJECT
  5
33
102
{ACAD_REACTORS
330
2A
102
}
330
2A
100
AcDbProxyObject
 90
      499
 91
      501
 93
      420
310
425499585B1A5CDD1A58D08409028333333333333E3BF0000000000000FB01079019070040501508421405064090741402480A1B40
1001
ACAD
1000
AcDbSavedByObjectVersion
1070
     0
  0
ACAD_PROXY_OBJECT
  5
37
102
{ACAD_REACTORS
330
2A
102
}
330
2A
100
AcDbProxyObject
 90
      499
 91
      501
 93
      412
310
41D51A1A58DAD95B90D409028333333333333E3BF0000000000000FB010790141107004050150C41D405064090741402480A0350
1001
ACAD
1000
AcDbSavedByObjectVersion
1070
     0
  0
XRECORD
  5
A0
102
{ACAD_REACTORS
330
97
102
}
330
97
100
AcDbXrecord
 90
        0
  0
XRECORD
  5
B6
102
{ACAD_REACTORS
330
97
102
}
330
97
100
AcDbXrecord
1000
DSTYLE
1002
{
1070
   340
340
11
1002
}
  0
XRECORD
  5
A1
102
{ACAD_REACTORS
330
97
102
}
330
97
100
AcDbXrecord
  1
{E4F7A51D-C399-4772-A933-761066F47DDF}
  0
XRECORD
  5
9A
102
{ACAD_REACTORS
330
97
102
}
330
97
100
AcDbXrecord
  1

  0
XRECORD
  5
9F
102
{ACAD_REACTORS
330
97
102
}
330
97
100
AcDbXrecord
 90
        4
  0
XRECORD
  5
9C
102
{ACAD_REACTORS
330
97
102
}
330
97
100
AcDbXrecord
340
1A
  0
XRECORD
  5
9E
102
{ACAD_REACTORS
330
97
102
}
330
97
100
AcDbXrecord
 90
    10781
  0
XRECORD
  5
9D
102
{ACAD_REACTORS
330
97
102
}
330
97
100
AcDbXrecord
340
19
  0
XRECORD
  5
A3
102
{ACAD_REACTORS
330
97
102
}
330
97
100
AcDbXrecord
 40
0.0
  0
XRECORD
  5
A6
102
{ACAD_REACTORS
330
97
102
}
330
97
100
AcDbXrecord
340
0
  0
XRECORD
  5
AC
102
{ACAD_REACTORS
330
97
102
}
330
97
100
AcDbXrecord
 10
0.0
 20
0.0
 30
0.0
  0
XRECORD
  5
A8
102
{ACAD_REACTORS
330
97
102
}
330
97
100
AcDbXrecord
 10
0.0
 20
0.0
 30
0.0
  0
XRECORD
  5
AB
102
{ACAD_REACTORS
330
97
102
}
330
97
100
AcDbXrecord
 10
0.0
 20
0.0
 30
0.0
  0
XRECORD
  5
A9
102
{ACAD_REACTORS
330
97
102
}
330
97
100
AcDbXrecord
 10
0.0
 20
0.0
 30
0.0
  0
XRECORD
  5
AA
102
{ACAD_REACTORS
330
97
102
}
330
97
100
AcDbXrecord
 10
0.0
 20
0.0
 30
0.0
  0
XRECORD
  5
A7
102
{ACAD_REACTORS
330
97
102
}
330
97
100
AcDbXrecord
 10
0.0
 20
0.0
 30
0.0
  0
XRECORD
  5
A4
102
{ACAD_REACTORS
330
97
102
}
330
97
100
AcDbXrecord
340
0
  0
XRECORD
  5
A5
102
{ACAD_REACTORS
330
97
102
}
330
97
100
AcDbXrecord
 70
     0
  0
XRECORD
  5
9B
102
{ACAD_REACTORS
330
97
102
}
330
97
100
AcDbXrecord
  1

  0
XRECORD
  5
98
102
{ACAD_REACTORS
330
97
102
}
330
97
100
AcDbXrecord
 90
        1
  0
XRECORD
  5
99
102
{ACAD_REACTORS
330
97
102
}
330
97
100
AcDbXrecord
 90
       70
  0
XRECORD
  5
AF
102
{ACAD_REACTORS
330
97
102
}
330
97
100
AcDbXrecord
340
0
  0
XRECORD
  5
B5
102
{ACAD_REACTORS
330
97
102
}
330
97
100
AcDbXrecord
 10
0.0
 20
0.0
 30
0.0
  0
XRECORD
  5
B1
102
{ACAD_REACTORS
330
97
102
}
330
97
100
AcDbXrecord
 10
0.0
 20
0.0
 30
0.0
  0
XRECORD
  5
B4
102
{ACAD_REACTORS
330
97
102
}
330
97
100
AcDbXrecord
 10
0.0
 20
0.0
 30
0.0
  0
XRECORD
  5
B2
102
{ACAD_REACTORS
330
97
102
}
330
97
100
AcDbXrecord
 10
0.0
 20
0.0
 30
0.0
  0
XRECORD
  5
B3
102
{ACAD_REACTORS
330
97
102
}
330
97
100
AcDbXrecord
 10
0.0
 20
0.0
 30
0.0
  0
XRECORD
  5
B0
102
{ACAD_REACTORS
330
97
102
}
330
97
100
AcDbXrecord
 10
0.0
 20
0.0
 30
0.0
  0
XRECORD
  5
AD
102
{ACAD_REACTORS
330
97
102
}
330
97
100
AcDbXrecord
340
0
  0
XRECORD
  5
AE
102
{ACAD_REACTORS
330
97
102
}
330
97
100
AcDbXrecord
 70
     0
  0
XRECORD
  5
A2
102
{ACAD_REACTORS
330
97
102
}
330
97
100
AcDbXrecord
  1
{FAEB1C32-E019-11D5-929B-00C0DF256EC4}
  0
DICTIONARYVAR
  5
BA
102
{ACAD_REACTORS
330
B7
102
}
330
B7
100
DictionaryVariables
280
     0
  1
2
  0
DICTIONARYVAR
  5
BB
102
{ACAD_REACTORS
330
B7
102
}
330
B7
100
DictionaryVariables
280
     0
  1
1
  0
DICTIONARY
  5
BE
330
3D
100
AcDbDictionary
280
     1
  3
ACAD_XREC_ROUNDTRIP
360
BF
  0
DICTIONARY
  5
BC
330
3C
100
AcDbDictionary
280
     1
  3
ACAD_XREC_ROUNDTRIP
360
BD
  0
DICTIONARY
  5
C0
330
3E
100
AcDbDictionary
280
     1
  3
ACAD_XREC_ROUNDTRIP
360
C1
  0
XRECORD
  5
BF
102
{ACAD_REACTORS
330
BE
102
}
330
BE
100
AcDbXrecord
102
MATERIAL
148
0.0
149
0.0
149
0.0
 93
        0
 94
      127
282
     0
 72
     1
 77
     1
171
     1
175
     1
179
     1
273
     0
  0
XRECORD
  5
BD
102
{ACAD_REACTORS
330
BC
102
}
330
BC
100
AcDbXrecord
102
MATERIAL
148
0.0
149
0.0
149
0.0
 93
        0
 94
      127
282
     0
 72
     1
 77
     1
171
     1
175
     1
179
     1
273
     0
  0
XRECORD
  5
C1
102
{ACAD_REACTORS
330
C0
102
}
330
C0
100
AcDbXrecord
102
MATERIAL
148
0.0
149
0.0
149
0.0
 93
        0
 94
      127
282
     0
 72
     1
 77
     1
171
     1
175
     1
179
     1
273
     0
  0
ENDSEC
  0
EOF
