  0
SECTION
  2
HEADER
  9
$ACADVER
  1
AC1014
  9
$ACADMAINTVER
 70
     9
  9
$DWGCODEPAGE
  3
ANSI_1250
  9
$INSBASE
 10
0.0
 20
0.0
 30
0.0
  9
$EXTMIN
 10
-30.9252
 20
-29.3845
 30
0.0
  9
$EXTMAX
 10
31.1217
 20
29.3562
 30
0.0
  9
$LIMMIN
 10
0.0
 20
0.0
  9
$LIMMAX
 10
12.0
 20
9.0
  9
$ORTHOMODE
 70
     0
  9
$REGENMODE
 70
     1
  9
$FILLMODE
 70
     1
  9
$QTEXTMODE
 70
     0
  9
$MIRRTEXT
 70
     1
  9
$DRAGMODE
 70
     2
  9
$LTSCALE
 40
1.0
  9
$OSMODE
 70
    37
  9
$ATTMODE
 70
     1
  9
$TEXTSIZE
 40
0.2
  9
$TRACEWID
 40
0.05
  9
$TEXTSTYLE
  7
STANDARD
  9
$CLAYER
  8
0
  9
$CELTYPE
  6
BYLAYER
  9
$CECOLOR
 62
   256
  9
$CELTSCALE
 40
1.0
  9
$DELOBJ
 70
     1
  9
$DISPSILH
 70
     0
  9
$DIMSCALE
 40
1.0
  9
$DIMASZ
 40
0.18
  9
$DIMEXO
 40
0.0625
  9
$DIMDLI
 40
0.38
  9
$DIMRND
 40
0.0
  9
$DIMDLE
 40
0.0
  9
$DIMEXE
 40
0.18
  9
$DIMTP
 40
0.0
  9
$DIMTM
 40
0.0
  9
$DIMTXT
 40
0.18
  9
$DIMCEN
 40
0.09
  9
$DIMTSZ
 40
0.0
  9
$DIMTOL
 70
     0
  9
$DIMLIM
 70
     0
  9
$DIMTIH
 70
     1
  9
$DIMTOH
 70
     1
  9
$DIMSE1
 70
     0
  9
$DIMSE2
 70
     0
  9
$DIMTAD
 70
     0
  9
$DIMZIN
 70
     0
  9
$DIMBLK
  1

  9
$DIMASO
 70
     1
  9
$DIMSHO
 70
     1
  9
$DIMPOST
  1

  9
$DIMAPOST
  1

  9
$DIMALT
 70
     0
  9
$DIMALTD
 70
     2
  9
$DIMALTF
 40
25.4
  9
$DIMLFAC
 40
1.0
  9
$DIMTOFL
 70
     0
  9
$DIMTVP
 40
0.0
  9
$DIMTIX
 70
     0
  9
$DIMSOXD
 70
     0
  9
$DIMSAH
 70
     0
  9
$DIMBLK1
  1

  9
$DIMBLK2
  1

  9
$DIMSTYLE
  2
STANDARD
  9
$DIMCLRD
 70
     0
  9
$DIMCLRE
 70
     0
  9
$DIMCLRT
 70
     0
  9
$DIMTFAC
 40
1.0
  9
$DIMGAP
 40
0.09
  9
$DIMJUST
 70
     0
  9
$DIMSD1
 70
     0
  9
$DIMSD2
 70
     0
  9
$DIMTOLJ
 70
     1
  9
$DIMTZIN
 70
     0
  9
$DIMALTZ
 70
     0
  9
$DIMALTTZ
 70
     0
  9
$DIMFIT
 70
     3
  9
$DIMUPT
 70
     0
  9
$DIMUNIT
 70
     2
  9
$DIMDEC
 70
     4
  9
$DIMTDEC
 70
     4
  9
$DIMALTU
 70
     2
  9
$DIMALTTD
 70
     2
  9
$DIMTXSTY
  7
STANDARD
  9
$DIMAUNIT
 70
     0
  9
$LUNITS
 70
     2
  9
$LUPREC
 70
     4
  9
$SKETCHINC
 40
0.1
  9
$FILLETRAD
 40
0.5
  9
$AUNITS
 70
     0
  9
$AUPREC
 70
     0
  9
$MENU
  1
.
  9
$ELEVATION
 40
0.0
  9
$PELEVATION
 40
0.0
  9
$THICKNESS
 40
0.0
  9
$LIMCHECK
 70
     0
  9
$CHAMFERA
 40
0.5
  9
$CHAMFERB
 40
0.5
  9
$CHAMFERC
 40
1.0
  9
$CHAMFERD
 40
0.0
  9
$SKPOLY
 70
     0
  9
$TDCREATE
 40
2456272.413989572
  9
$TDUPDATE
 40
2456272.413989583
  9
$TDINDWG
 40
0.0000000116
  9
$TDUSRTIMER
 40
0.0000000116
  9
$USRTIMER
 70
     1
  9
$ANGBASE
 50
0.0
  9
$ANGDIR
 70
     0
  9
$PDMODE
 70
     0
  9
$PDSIZE
 40
0.0
  9
$PLINEWID
 40
0.0
  9
$COORDS
 70
     1
  9
$SPLFRAME
 70
     0
  9
$SPLINETYPE
 70
     6
  9
$SPLINESEGS
 70
     8
  9
$ATTDIA
 70
     0
  9
$ATTREQ
 70
     1
  9
$HANDLING
 70
     1
  9
$HANDSEED
  5
9B
  9
$SURFTAB1
 70
     6
  9
$SURFTAB2
 70
     6
  9
$SURFTYPE
 70
     6
  9
$SURFU
 70
     6
  9
$SURFV
 70
     6
  9
$UCSNAME
  2

  9
$UCSORG
 10
0.0
 20
0.0
 30
0.0
  9
$UCSXDIR
 10
1.0
 20
0.0
 30
0.0
  9
$UCSYDIR
 10
0.0
 20
1.0
 30
0.0
  9
$PUCSNAME
  2

  9
$PUCSORG
 10
0.0
 20
0.0
 30
0.0
  9
$PUCSXDIR
 10
1.0
 20
0.0
 30
0.0
  9
$PUCSYDIR
 10
0.0
 20
1.0
 30
0.0
  9
$USERI1
 70
     0
  9
$USERI2
 70
     0
  9
$USERI3
 70
     0
  9
$USERI4
 70
     0
  9
$USERI5
 70
     0
  9
$USERR1
 40
0.0
  9
$USERR2
 40
0.0
  9
$USERR3
 40
0.0
  9
$USERR4
 40
0.0
  9
$USERR5
 40
0.0
  9
$WORLDVIEW
 70
     1
  9
$SHADEDGE
 70
     3
  9
$SHADEDIF
 70
    70
  9
$TILEMODE
 70
     1
  9
$MAXACTVP
 70
    64
  9
$PINSBASE
 10
0.0
 20
0.0
 30
0.0
  9
$PLIMCHECK
 70
     0
  9
$PEXTMIN
 10
1.000000000000000E+20
 20
1.000000000000000E+20
 30
1.000000000000000E+20
  9
$PEXTMAX
 10
-1.000000000000000E+20
 20
-1.000000000000000E+20
 30
-1.000000000000000E+20
  9
$PLIMMIN
 10
0.0
 20
0.0
  9
$PLIMMAX
 10
12.0
 20
9.0
  9
$UNITMODE
 70
     0
  9
$VISRETAIN
 70
     1
  9
$PLINEGEN
 70
     0
  9
$PSLTSCALE
 70
     1
  9
$TREEDEPTH
 70
  3020
  9
$PICKSTYLE
 70
     1
  9
$CMLSTYLE
  2
STANDARD
  9
$CMLJUST
 70
     0
  9
$CMLSCALE
 40
1.0
  9
$PROXYGRAPHICS
 70
     1
  9
$MEASUREMENT
 70
     0
  0
ENDSEC
  0
SECTION
  2
CLASSES
  0
CLASS
  1
ACDBDICTIONARYWDFLT
  2
AcDbDictionaryWithDefault
  3
ObjectDBX Classes
 90
        0
280
     0
281
     0
  0
CLASS
  1
VISUALSTYLE
  2
AcDbVisualStyle
  3
ObjectDBX Classes
 90
     4095
280
     0
281
     0
  0
CLASS
  1
MATERIAL
  2
AcDbMaterial
  3
ObjectDBX Classes
 90
     1153
280
     0
281
     0
  0
CLASS
  1
DICTIONARYVAR
  2
AcDbDictionaryVar
  3
ObjectDBX Classes
 90
        0
280
     0
281
     0
  0
CLASS
  1
XRECORD
  2
AcDbXrecord
  3
AutoCAD 2000
 90
        0
280
     0
281
     0
  0
CLASS
  1
LWPOLYLINE
  2
AcDbPolyline
  3
AutoCAD 2000
 90
        0
280
     0
281
     1
  0
CLASS
  1
HATCH
  2
AcDbHatch
  3
AutoCAD 2000
 90
        0
280
     0
281
     1
  0
CLASS
  1
ACDBPLACEHOLDER
  2
AcDbPlaceHolder
  3
ObjectDBX Classes
 90
        0
280
     0
281
     0
  0
CLASS
  1
LAYOUT
  2
AcDbLayout
  3
ObjectDBX Classes
 90
        0
280
     0
281
     0
  0
ENDSEC
  0
SECTION
  2
TABLES
  0
TABLE
  2
VPORT
  5
8
330
0
100
AcDbSymbolTable
 70
     1
  0
VPORT
  5
29
330
8
100
AcDbSymbolTableRecord
100
AcDbViewportTableRecord
  2
*ACTIVE
 70
     0
 10
0.0
 20
0.0
 11
1.0
 21
1.0
 12
10.42990654205607
 22
4.5
 13
0.0
 23
0.0
 14
0.5
 24
0.5
 15
0.5
 25
0.5
 16
0.0
 26
0.0
 36
1.0
 17
0.0
 27
0.0
 37
0.0
 40
9.0
 41
1.972972972850329
 42
50.0
 43
0.0
 44
0.0
 50
0.0
 51
0.0
 71
     0
 72
   100
 73
     1
 74
     3
 75
     0
 76
     0
 77
     0
 78
     0
  0
ENDTAB
  0
TABLE
  2
LTYPE
  5
5
330
0
100
AcDbSymbolTable
 70
     2
  0
LTYPE
  5
14
330
5
100
AcDbSymbolTableRecord
100
AcDbLinetypeTableRecord
  2
BYBLOCK
 70
     0
  3

 72
    65
 73
     0
 40
0.0
  0
LTYPE
  5
15
330
5
100
AcDbSymbolTableRecord
100
AcDbLinetypeTableRecord
  2
BYLAYER
 70
     0
  3

 72
    65
 73
     0
 40
0.0
  0
LTYPE
  5
16
330
5
100
AcDbSymbolTableRecord
100
AcDbLinetypeTableRecord
  2
CONTINUOUS
 70
     0
  3
Solid line
 72
    65
 73
     0
 40
0.0
  0
LTYPE
  5
5F
330
5
100
AcDbSymbolTableRecord
100
AcDbLinetypeTableRecord
  2
NEW_LINE1
 70
     0
  3

 72
    65
 73
     4
 40
1.2
 49
0.5
 74
     4
 75
     0
340
0
 46
1.0
 50
0.0
 44
0.0
 45
0.0
 49
-0.3
 74
     4
 75
     0
340
0
 46
1.0
 50
0.0
 44
0.0
 45
0.0
 49
0.1
 74
     4
 75
     0
340
0
 46
1.0
 50
0.0
 44
0.0
 45
0.0
 49
-0.3
 74
     4
 75
     0
340
0
 46
1.0
 50
0.0
 44
0.0
 45
0.0
  0
ENDTAB
  0
TABLE
  2
LAYER
  5
2
330
0
100
AcDbSymbolTable
 70
     2
  0
LAYER
  5
10
330
2
100
AcDbSymbolTableRecord
100
AcDbLayerTableRecord
  2
0
 70
     0
 62
     7
  6
CONTINUOUS
  0
LAYER
  5
40
330
2
100
AcDbSymbolTableRecord
100
AcDbLayerTableRecord
  2
ROUND
 70
     0
 62
     7
  6
CONTINUOUS
  0
ENDTAB
  0
TABLE
  2
STYLE
  5
3
330
0
100
AcDbSymbolTable
 70
     1
  0
STYLE
  5
11
330
3
100
AcDbSymbolTableRecord
100
AcDbTextStyleTableRecord
  2
STANDARD
 70
     0
 40
0.0
 41
1.0
 50
0.0
 71
     0
 42
0.2
  3
txt
  4

  0
ENDTAB
  0
TABLE
  2
VIEW
  5
6
330
0
100
AcDbSymbolTable
 70
     0
  0
ENDTAB
  0
TABLE
  2
UCS
  5
7
330
0
100
AcDbSymbolTable
 70
     0
  0
ENDTAB
  0
TABLE
  2
APPID
  5
9
330
0
100
AcDbSymbolTable
 70
     2
  0
APPID
  5
12
330
9
100
AcDbSymbolTableRecord
100
AcDbRegAppTableRecord
  2
ACAD
 70
     0
  0
APPID
  5
3F
330
9
100
AcDbSymbolTableRecord
100
AcDbRegAppTableRecord
  2
ODA
 70
     0
  0
ENDTAB
  0
TABLE
  2
DIMSTYLE
  5
A
330
0
100
AcDbSymbolTable
 70
     1
  0
DIMSTYLE
105
27
330
A
100
AcDbSymbolTableRecord
100
AcDbDimStyleTableRecord
  2
STANDARD
 70
     0
  3

  4

  5

  6

  7

 40
1.0
 41
0.18
 42
0.0625
 43
0.38
 44
0.18
 45
0.0
 46
0.0
 47
0.0
 48
0.0
140
0.18
141
0.09
142
0.0
143
25.4
144
1.0
145
0.0
146
1.0
147
0.09
 71
     0
 72
     0
 73
     1
 74
     1
 75
     0
 76
     0
 77
     0
 78
     0
170
     0
171
     2
172
     0
173
     0
174
     0
175
     0
176
     0
177
     0
178
     0
270
     2
271
     4
272
     4
273
     2
274
     2
340
11
275
     0
280
     0
281
     0
282
     0
283
     1
284
     0
285
     0
286
     0
287
     3
288
     0
  0
ENDTAB
  0
TABLE
  2
BLOCK_RECORD
  5
1
330
0
100
AcDbSymbolTable
 70
     1
  0
BLOCK_RECORD
  5
1F
330
1
100
AcDbSymbolTableRecord
100
AcDbBlockTableRecord
  2
*MODEL_SPACE
  0
BLOCK_RECORD
  5
1B
330
1
100
AcDbSymbolTableRecord
100
AcDbBlockTableRecord
  2
*PAPER_SPACE
  0
ENDTAB
  0
ENDSEC
  0
SECTION
  2
BLOCKS
  0
BLOCK
  5
20
330
1F
100
AcDbEntity
  8
0
100
AcDbBlockBegin
  2
*MODEL_SPACE
 70
     0
 10
0.0
 20
0.0
 30
0.0
  3
*MODEL_SPACE
  1

  0
ENDBLK
  5
21
330
1F
100
AcDbEntity
  8
0
100
AcDbBlockEnd
  0
BLOCK
  5
1C
330
1B
100
AcDbEntity
 67
     1
  8
0
100
AcDbBlockBegin
  2
*PAPER_SPACE
 70
     0
 10
0.0
 20
0.0
 30
0.0
  3
*PAPER_SPACE
  1

  0
ENDBLK
  5
1D
330
1B
100
AcDbEntity
 67
     1
  8
0
100
AcDbBlockEnd
  0
ENDSEC
  0
SECTION
  2
ENTITIES
  0
SPLINE
  5
41
330
1F
100
AcDbEntity
  8
ROUND
 62
   250
100
AcDbSpline
210
0.0
220
0.0
230
1.0
 70
    11
 71
     3
 72
    20
 73
    16
 74
     0
 42
0.0000000001
 43
0.0000000001
 40
0.0
 40
0.0
 40
0.0
 40
0.0
 40
0.2
 40
0.2
 40
0.2
 40
0.2
 40
0.4
 40
0.4
 40
0.4
 40
0.4
 40
0.6
 40
0.6
 40
0.6
 40
0.6
 40
1.0
 40
1.0
 40
1.0
 40
1.0
 10
25.3734
 20
-27.3929
 30
0.0
 10
25.3734
 20
-27.3929
 30
0.0
 10
29.555
 20
-27.983
 30
0.0
 10
29.555
 20
-27.983
 30
0.0
 10
29.555
 20
-27.983
 30
0.0
 10
29.555
 20
-27.983
 30
0.0
 10
29.555
 20
-28.1141
 30
0.0
 10
29.555
 20
-28.1141
 30
0.0
 10
29.555
 20
-28.1141
 30
0.0
 10
29.555
 20
-28.1141
 30
0.0
 10
25.3734
 20
-28.7435
 30
0.0
 10
25.3734
 20
-28.7435
 30
0.0
 10
25.3734
 20
-28.7435
 30
0.0
 10
25.3734
 20
-28.7435
 30
0.0
 10
25.3734
 20
-27.3929
 30
0.0
 10
25.3734
 20
-27.3929
 30
0.0
  0
SPLINE
  5
42
330
1F
100
AcDbEntity
  8
ROUND
 62
   250
100
AcDbSpline
210
0.0
220
0.0
230
1.0
 70
    11
 71
     3
 72
    20
 73
    16
 74
     0
 42
0.0000000001
 43
0.0000000001
 40
0.0
 40
0.0
 40
0.0
 40
0.0
 40
0.2
 40
0.2
 40
0.2
 40
0.2
 40
0.4
 40
0.4
 40
0.4
 40
0.4
 40
0.6
 40
0.6
 40
0.6
 40
0.6
 40
1.0
 40
1.0
 40
1.0
 40
1.0
 10
-9.7215
 20
-28.7386
 30
0.0
 10
-9.7215
 20
-28.7386
 30
0.0
 10
-13.9031
 20
-28.1484
 30
0.0
 10
-13.9031
 20
-28.1484
 30
0.0
 10
-13.9031
 20
-28.1484
 30
0.0
 10
-13.9031
 20
-28.1484
 30
0.0
 10
-13.9031
 20
-28.0173
 30
0.0
 10
-13.9031
 20
-28.0173
 30
0.0
 10
-13.9031
 20
-28.0173
 30
0.0
 10
-13.9031
 20
-28.0173
 30
0.0
 10
-9.7215
 20
-27.388
 30
0.0
 10
-9.7215
 20
-27.388
 30
0.0
 10
-9.7215
 20
-27.388
 30
0.0
 10
-9.7215
 20
-27.388
 30
0.0
 10
-9.7215
 20
-28.7386
 30
0.0
 10
-9.7215
 20
-28.7386
 30
0.0
  0
SPLINE
  5
43
330
1F
100
AcDbEntity
  8
ROUND
 62
   250
100
AcDbSpline
210
0.0
220
0.0
230
1.0
 70
    11
 71
     3
 72
   124
 73
   120
 74
     0
 42
0.0000000001
 43
0.0000000001
 40
0.0
 40
0.0
 40
0.0
 40
0.0
 40
0.032258064516129
 40
0.032258064516129
 40
0.032258064516129
 40
0.032258064516129
 40
0.0645161290322581
 40
0.0645161290322581
 40
0.0645161290322581
 40
0.0645161290322581
 40
0.0967741935483871
 40
0.0967741935483871
 40
0.0967741935483871
 40
0.0967741935483871
 40
0.1290322580645161
 40
0.1290322580645161
 40
0.1290322580645161
 40
0.1290322580645161
 40
0.1612903225806452
 40
0.1612903225806452
 40
0.1612903225806452
 40
0.1612903225806452
 40
0.1935483870967742
 40
0.1935483870967742
 40
0.1935483870967742
 40
0.1935483870967742
 40
0.2258064516129032
 40
0.2258064516129032
 40
0.2258064516129032
 40
0.2258064516129032
 40
0.2580645161290323
 40
0.2580645161290323
 40
0.2580645161290323
 40
0.2580645161290323
 40
0.2903225806451613
 40
0.2903225806451613
 40
0.2903225806451613
 40
0.2903225806451613
 40
0.3225806451612903
 40
0.3225806451612903
 40
0.3225806451612903
 40
0.3225806451612903
 40
0.3548387096774194
 40
0.3548387096774194
 40
0.3548387096774194
 40
0.3548387096774194
 40
0.3870967741935484
 40
0.3870967741935484
 40
0.3870967741935484
 40
0.3870967741935484
 40
0.4193548387096774
 40
0.4193548387096774
 40
0.4193548387096774
 40
0.4193548387096774
 40
0.4516129032258064
 40
0.4516129032258064
 40
0.4516129032258064
 40
0.4516129032258064
 40
0.4838709677419355
 40
0.4838709677419355
 40
0.4838709677419355
 40
0.4838709677419355
 40
0.5161290322580645
 40
0.5161290322580645
 40
0.5161290322580645
 40
0.5161290322580645
 40
0.5483870967741935
 40
0.5483870967741935
 40
0.5483870967741935
 40
0.5483870967741935
 40
0.5806451612903226
 40
0.5806451612903226
 40
0.5806451612903226
 40
0.5806451612903226
 40
0.6129032258064516
 40
0.6129032258064516
 40
0.6129032258064516
 40
0.6129032258064516
 40
0.6451612903225806
 40
0.6451612903225806
 40
0.6451612903225806
 40
0.6451612903225806
 40
0.6774193548387096
 40
0.6774193548387096
 40
0.6774193548387096
 40
0.6774193548387096
 40
0.7096774193548387
 40
0.7096774193548387
 40
0.7096774193548387
 40
0.7096774193548387
 40
0.7419354838709677
 40
0.7419354838709677
 40
0.7419354838709677
 40
0.7419354838709677
 40
0.7741935483870968
 40
0.7741935483870968
 40
0.7741935483870968
 40
0.7741935483870968
 40
0.8064516129032258
 40
0.8064516129032258
 40
0.8064516129032258
 40
0.8064516129032258
 40
0.8387096774193549
 40
0.8387096774193549
 40
0.8387096774193549
 40
0.8387096774193549
 40
0.8709677419354839
 40
0.8709677419354839
 40
0.8709677419354839
 40
0.8709677419354839
 40
0.9032258064516129
 40
0.9032258064516129
 40
0.9032258064516129
 40
0.9032258064516129
 40
0.9354838709677419
 40
0.9354838709677419
 40
0.9354838709677419
 40
0.9354838709677419
 40
1.0
 40
1.0
 40
1.0
 40
1.0
 10
-23.2749
 20
-10.0741
 30
0.0
 10
-23.2749
 20
-10.0741
 30
0.0
 10
-23.3208
 20
-9.7286
 30
0.0
 10
-23.3208
 20
-9.7286
 30
0.0
 10
-23.3208
 20
-9.7286
 30
0.0
 10
-23.1247
 20
-9.6886
 30
0.0
 10
-22.9838
 20
-9.6211
 30
0.0
 10
-22.8972
 20
-9.526
 30
0.0
 10
-22.8972
 20
-9.526
 30
0.0
 10
-22.8107
 20
-9.4303
 30
0.0
 10
-22.7674
 20
-9.3142
 30
0.0
 10
-22.7674
 20
-9.1772
 30
0.0
 10
-22.7674
 20
-9.1772
 30
0.0
 10
-22.7674
 20
-9.0146
 30
0.0
 10
-22.8238
 20
-8.8769
 30
0.0
 10
-22.9366
 20
-8.7648
 30
0.0
 10
-22.9366
 20
-8.7648
 30
0.0
 10
-23.0493
 20
-8.6534
 30
0.0
 10
-23.189
 20
-8.597
 30
0.0
 10
-23.3555
 20
-8.597
 30
0.0
 10
-23.3555
 20
-8.597
 30
0.0
 10
-23.5142
 20
-8.597
 30
0.0
 10
-23.6453
 20
-8.6488
 30
0.0
 10
-23.7482
 20
-8.7524
 30
0.0
 10
-23.7482
 20
-8.7524
 30
0.0
 10
-23.8512
 20
-8.8566
 30
0.0
 10
-23.903
 20
-8.9884
 30
0.0
 10
-23.903
 20
-9.1484
 30
0.0
 10
-23.903
 20
-9.1484
 30
0.0
 10
-23.903
 20
-9.2139
 30
0.0
 10
-23.8898
 20
-9.2952
 30
0.0
 10
-23.8643
 20
-9.3922
 30
0.0
 10
-23.8643
 20
-9.3922
 30
0.0
 10
-23.8643
 20
-9.3922
 30
0.0
 10
-24.1678
 20
-9.3536
 30
0.0
 10
-24.1678
 20
-9.3536
 30
0.0
 10
-24.1678
 20
-9.3536
 30
0.0
 10
-24.1652
 20
-9.3306
 30
0.0
 10
-24.1639
 20
-9.3123
 30
0.0
 10
-24.1639
 20
-9.2978
 30
0.0
 10
-24.1639
 20
-9.2978
 30
0.0
 10
-24.1639
 20
-9.151
 30
0.0
 10
-24.2026
 20
-9.0185
 30
0.0
 10
-24.2793
 20
-8.9005
 30
0.0
 10
-24.2793
 20
-8.9005
 30
0.0
 10
-24.356
 20
-8.7825
 30
0.0
 10
-24.4746
 20
-8.7235
 30
0.0
 10
-24.6346
 20
-8.7235
 30
0.0
 10
-24.6346
 20
-8.7235
 30
0.0
 10
-24.7612
 20
-8.7235
 30
0.0
 10
-24.8667
 20
-8.7668
 30
0.0
 10
-24.9493
 20
-8.8527
 30
0.0
 10
-24.9493
 20
-8.8527
 30
0.0
 10
-25.0326
 20
-8.9386
 30
0.0
 10
-25.0745
 20
-9.0494
 30
0.0
 10
-25.0745
 20
-9.1851
 30
0.0
 10
-25.0745
 20
-9.1851
 30
0.0
 10
-25.0745
 20
-9.3195
 30
0.0
 10
-25.0319
 20
-9.4316
 30
0.0
 10
-24.948
 20
-9.5207
 30
0.0
 10
-24.948
 20
-9.5207
 30
0.0
 10
-24.8634
 20
-9.6106
 30
0.0
 10
-24.7362
 20
-9.6683
 30
0.0
 10
-24.5671
 20
-9.6938
 30
0.0
 10
-24.5671
 20
-9.6938
 30
0.0
 10
-24.5671
 20
-9.6938
 30
0.0
 10
-24.6287
 20
-10.0393
 30
0.0
 10
-24.6287
 20
-10.0393
 30
0.0
 10
-24.6287
 20
-10.0393
 30
0.0
 10
-24.8608
 20
-9.9974
 30
0.0
 10
-25.0404
 20
-9.901
 30
0.0
 10
-25.1676
 20
-9.7515
 30
0.0
 10
-25.1676
 20
-9.7515
 30
0.0
 10
-25.2948
 20
-9.6014
 30
0.0
 10
-25.3591
 20
-9.4152
 30
0.0
 10
-25.3591
 20
-9.1923
 30
0.0
 10
-25.3591
 20
-9.1923
 30
0.0
 10
-25.3591
 20
-9.0389
 30
0.0
 10
-25.3256
 20
-8.8973
 30
0.0
 10
-25.2601
 20
-8.7681
 30
0.0
 10
-25.2601
 20
-8.7681
 30
0.0
 10
-25.1939
 20
-8.6389
 30
0.0
 10
-25.104
 20
-8.5399
 30
0.0
 10
-24.99
 20
-8.4711
 30
0.0
 10
-24.99
 20
-8.4711
 30
0.0
 10
-24.8759
 20
-8.4029
 30
0.0
 10
-24.7553
 20
-8.3682
 30
0.0
 10
-24.6268
 20
-8.3682
 30
0.0
 10
-24.6268
 20
-8.3682
 30
0.0
 10
-24.5055
 20
-8.3682
 30
0.0
 10
-24.3947
 20
-8.401
 30
0.0
 10
-24.2944
 20
-8.4665
 30
0.0
 10
-24.2944
 20
-8.4665
 30
0.0
 10
-24.1947
 20
-8.5321
 30
0.0
 10
-24.1154
 20
-8.6284
 30
0.0
 10
-24.0564
 20
-8.7563
 30
0.0
 10
-24.0564
 20
-8.7563
 30
0.0
 10
-24.0183
 20
-8.5898
 30
0.0
 10
-23.9384
 20
-8.4606
 30
0.0
 10
-23.8171
 20
-8.3682
 30
0.0
 10
-23.8171
 20
-8.3682
 30
0.0
 10
-23.6964
 20
-8.2764
 30
0.0
 10
-23.545
 20
-8.2305
 30
0.0
 10
-23.3634
 20
-8.2305
 30
0.0
 10
-23.3634
 20
-8.2305
 30
0.0
 10
-23.1175
 20
-8.2305
 30
0.0
 10
-22.909
 20
-8.3197
 30
0.0
 10
-22.7379
 20
-8.4993
 30
0.0
 10
-22.7379
 20
-8.4993
 30
0.0
 10
-22.5668
 20
-8.6783
 30
0.0
 10
-22.4816
 20
-8.9051
 30
0.0
 10
-22.4816
 20
-9.1792
 30
0.0
 10
-22.4816
 20
-9.1792
 30
0.0
 10
-22.4816
 20
-9.4263
 30
0.0
 10
-22.555
 20
-9.6315
 30
0.0
 10
-22.7025
 20
-9.7948
 30
0.0
 10
-22.7025
 20
-9.7948
 30
0.0
 10
-22.8494
 20
-9.958
 30
0.0
 10
-23.0402
 20
-10.0511
 30
0.0
 10
-23.2749
 20
-10.0741
 30
0.0
  0
SPLINE
  5
44
330
1F
100
AcDbEntity
  8
ROUND
 62
   250
100
AcDbSpline
210
0.0
220
0.0
230
1.0
 70
    11
 71
     3
 72
    80
 73
    76
 74
     0
 42
0.0000000001
 43
0.0000000001
 40
0.0
 40
0.0
 40
0.0
 40
0.0
 40
0.05
 40
0.05
 40
0.05
 40
0.05
 40
0.1
 40
0.1
 40
0.1
 40
0.1
 40
0.15
 40
0.15
 40
0.15
 40
0.15
 40
0.2
 40
0.2
 40
0.2
 40
0.2
 40
0.25
 40
0.25
 40
0.25
 40
0.25
 40
0.3
 40
0.3
 40
0.3
 40
0.3
 40
0.35
 40
0.35
 40
0.35
 40
0.35
 40
0.4
 40
0.4
 40
0.4
 40
0.4
 40
0.45
 40
0.45
 40
0.45
 40
0.45
 40
0.5
 40
0.5
 40
0.5
 40
0.5
 40
0.55
 40
0.55
 40
0.55
 40
0.55
 40
0.6
 40
0.6
 40
0.6
 40
0.6
 40
0.65
 40
0.65
 40
0.65
 40
0.65
 40
0.7
 40
0.7
 40
0.7
 40
0.7
 40
0.75
 40
0.75
 40
0.75
 40
0.75
 40
0.8
 40
0.8
 40
0.8
 40
0.8
 40
0.85
 40
0.85
 40
0.85
 40
0.85
 40
0.9
 40
0.9
 40
0.9
 40
0.9
 40
1.0
 40
1.0
 40
1.0
 40
1.0
 10
-24.6576
 20
-6.0945
 30
0.0
 10
-24.6576
 20
-6.0945
 30
0.0
 10
-24.6307
 20
-6.438
 30
0.0
 10
-24.6307
 20
-6.438
 30
0.0
 10
-24.6307
 20
-6.438
 30
0.0
 10
-24.7664
 20
-6.4688
 30
0.0
 10
-24.8654
 20
-6.5121
 30
0.0
 10
-24.9264
 20
-6.5685
 30
0.0
 10
-24.9264
 20
-6.5685
 30
0.0
 10
-25.0254
 20
-6.6622
 30
0.0
 10
-25.0745
 20
-6.7776
 30
0.0
 10
-25.0745
 20
-6.9147
 30
0.0
 10
-25.0745
 20
-6.9147
 30
0.0
 10
-25.0745
 20
-7.0248
 30
0.0
 10
-25.0437
 20
-7.1212
 30
0.0
 10
-24.9821
 20
-7.2044
 30
0.0
 10
-24.9821
 20
-7.2044
 30
0.0
 10
-24.9028
 20
-7.3133
 30
0.0
 10
-24.7867
 20
-7.3992
 30
0.0
 10
-24.6346
 20
-7.4621
 30
0.0
 10
-24.6346
 20
-7.4621
 30
0.0
 10
-24.4825
 20
-7.5244
 30
0.0
 10
-24.2655
 20
-7.5572
 30
0.0
 10
-23.9836
 20
-7.5598
 30
0.0
 10
-23.9836
 20
-7.5598
 30
0.0
 10
-24.1101
 20
-7.4765
 30
0.0
 10
-24.2045
 20
-7.3749
 30
0.0
 10
-24.2662
 20
-7.2543
 30
0.0
 10
-24.2662
 20
-7.2543
 30
0.0
 10
-24.3271
 20
-7.1343
 30
0.0
 10
-24.3579
 20
-7.0078
 30
0.0
 10
-24.3579
 20
-6.876
 30
0.0
 10
-24.3579
 20
-6.876
 30
0.0
 10
-24.3579
 20
-6.6452
 30
0.0
 10
-24.2734
 20
-6.4492
 30
0.0
 10
-24.1036
 20
-6.2872
 30
0.0
 10
-24.1036
 20
-6.2872
 30
0.0
 10
-23.9338
 20
-6.1253
 30
0.0
 10
-23.7148
 20
-6.044
 30
0.0
 10
-23.446
 20
-6.044
 30
0.0
 10
-23.446
 20
-6.044
 30
0.0
 10
-23.269
 20
-6.044
 30
0.0
 10
-23.1051
 20
-6.0827
 30
0.0
 10
-22.953
 20
-6.1587
 30
0.0
 10
-22.953
 20
-6.1587
 30
0.0
 10
-22.8015
 20
-6.2348
 30
0.0
 10
-22.6848
 20
-6.3397
 30
0.0
 10
-22.6042
 20
-6.4728
 30
0.0
 10
-22.6042
 20
-6.4728
 30
0.0
 10
-22.5235
 20
-6.6059
 30
0.0
 10
-22.4835
 20
-6.7567
 30
0.0
 10
-22.4835
 20
-6.9258
 30
0.0
 10
-22.4835
 20
-6.9258
 30
0.0
 10
-22.4835
 20
-7.2143
 30
0.0
 10
-22.5891
 20
-7.449
 30
0.0
 10
-22.8015
 20
-7.6306
 30
0.0
 10
-22.8015
 20
-7.6306
 30
0.0
 10
-23.0133
 20
-7.8129
 30
0.0
 10
-23.3627
 20
-7.9033
 30
0.0
 10
-23.8492
 20
-7.9033
 30
0.0
 10
-23.8492
 20
-7.9033
 30
0.0
 10
-24.3934
 20
-7.9033
 30
0.0
 10
-24.7887
 20
-7.803
 30
0.0
 10
-25.0359
 20
-7.6017
 30
0.0
 10
-25.0359
 20
-7.6017
 30
0.0
 10
-25.2509
 20
-7.4267
 30
0.0
 10
-25.3591
 20
-7.1907
 30
0.0
 10
-25.3591
 20
-6.893
 30
0.0
 10
-25.3591
 20
-6.893
 30
0.0
 10
-25.3591
 20
-6.6721
 30
0.0
 10
-25.2968
 20
-6.4905
 30
0.0
 10
-25.1722
 20
-6.3489
 30
0.0
 10
-25.1722
 20
-6.3489
 30
0.0
 10
-25.0483
 20
-6.2073
 30
0.0
 10
-24.8765
 20
-6.1227
 30
0.0
 10
-24.6576
 20
-6.0945
 30
0.0
  0
SPLINE
  5
45
330
1F
100
AcDbEntity
  8
ROUND
 62
   250
100
AcDbSpline
210
0.0
220
0.0
230
1.0
 70
    11
 71
     3
 72
    40
 73
    36
 74
     0
 42
0.0000000001
 43
0.0000000001
 40
0.0
 40
0.0
 40
0.0
 40
0.0
 40
0.1
 40
0.1
 40
0.1
 40
0.1
 40
0.2
 40
0.2
 40
0.2
 40
0.2
 40
0.3
 40
0.3
 40
0.3
 40
0.3
 40
0.4
 40
0.4
 40
0.4
 40
0.4
 40
0.5
 40
0.5
 40
0.5
 40
0.5
 40
0.6
 40
0.6
 40
0.6
 40
0.6
 40
0.7
 40
0.7
 40
0.7
 40
0.7
 40
0.8
 40
0.8
 40
0.8
 40
0.8
 40
1.0
 40
1.0
 40
1.0
 40
1.0
 10
-23.444
 20
-7.506
 30
0.0
 10
-23.3247
 20
-7.506
 30
0.0
 10
-23.2106
 20
-7.4805
 30
0.0
 10
-23.1018
 20
-7.43
 30
0.0
 10
-23.1018
 20
-7.43
 30
0.0
 10
-22.993
 20
-7.3795
 30
0.0
 10
-22.9103
 20
-7.3087
 30
0.0
 10
-22.8533
 20
-7.2182
 30
0.0
 10
-22.8533
 20
-7.2182
 30
0.0
 10
-22.7963
 20
-7.1271
 30
0.0
 10
-22.7674
 20
-7.0314
 30
0.0
 10
-22.7674
 20
-6.9317
 30
0.0
 10
-22.7674
 20
-6.9317
 30
0.0
 10
-22.7674
 20
-6.7855
 30
0.0
 10
-22.8264
 20
-6.6603
 30
0.0
 10
-22.9444
 20
-6.5554
 30
0.0
 10
-22.9444
 20
-6.5554
 30
0.0
 10
-23.0624
 20
-6.4505
 30
0.0
 10
-23.2224
 20
-6.398
 30
0.0
 10
-23.4243
 20
-6.398
 30
0.0
 10
-23.4243
 20
-6.398
 30
0.0
 10
-23.6191
 20
-6.398
 30
0.0
 10
-23.7725
 20
-6.4498
 30
0.0
 10
-23.8846
 20
-6.5534
 30
0.0
 10
-23.8846
 20
-6.5534
 30
0.0
 10
-23.9967
 20
-6.657
 30
0.0
 10
-24.0524
 20
-6.7875
 30
0.0
 10
-24.0524
 20
-6.9448
 30
0.0
 10
-24.0524
 20
-6.9448
 30
0.0
 10
-24.0524
 20
-7.1015
 30
0.0
 10
-23.9967
 20
-7.2339
 30
0.0
 10
-23.8846
 20
-7.3428
 30
0.0
 10
-23.8846
 20
-7.3428
 30
0.0
 10
-23.7725
 20
-7.4516
 30
0.0
 10
-23.6256
 20
-7.506
 30
0.0
 10
-23.444
 20
-7.506
 30
0.0
  0
SPLINE
  5
46
330
1F
100
AcDbEntity
  8
ROUND
 62
   250
100
AcDbSpline
210
0.0
220
0.0
230
1.0
 70
    11
 71
     3
 72
    20
 73
    16
 74
     0
 42
0.0000000001
 43
0.0000000001
 40
0.0
 40
0.0
 40
0.0
 40
0.0
 40
0.2
 40
0.2
 40
0.2
 40
0.2
 40
0.4
 40
0.4
 40
0.4
 40
0.4
 40
0.6
 40
0.6
 40
0.6
 40
0.6
 40
1.0
 40
1.0
 40
1.0
 40
1.0
 10
-28.0041
 20
23.9543
 30
0.0
 10
-28.0041
 20
23.9543
 30
0.0
 10
-27.414
 20
28.1359
 30
0.0
 10
-27.414
 20
28.1359
 30
0.0
 10
-27.414
 20
28.1359
 30
0.0
 10
-27.414
 20
28.1359
 30
0.0
 10
-27.2829
 20
28.1359
 30
0.0
 10
-27.2829
 20
28.1359
 30
0.0
 10
-27.2829
 20
28.1359
 30
0.0
 10
-27.2829
 20
28.1359
 30
0.0
 10
-26.6535
 20
23.9543
 30
0.0
 10
-26.6535
 20
23.9543
 30
0.0
 10
-26.6535
 20
23.9543
 30
0.0
 10
-26.6535
 20
23.9543
 30
0.0
 10
-28.0041
 20
23.9543
 30
0.0
 10
-28.0041
 20
23.9543
 30
0.0
  0
SPLINE
  5
47
330
1F
100
AcDbEntity
  8
ROUND
 62
   250
100
AcDbSpline
210
0.0
220
0.0
230
1.0
 70
    11
 71
     3
 72
    20
 73
    16
 74
     0
 42
0.0000000001
 43
0.0000000001
 40
0.0
 40
0.0
 40
0.0
 40
0.0
 40
0.2
 40
0.2
 40
0.2
 40
0.2
 40
0.4
 40
0.4
 40
0.4
 40
0.4
 40
0.6
 40
0.6
 40
0.6
 40
0.6
 40
1.0
 40
1.0
 40
1.0
 40
1.0
 10
-26.6612
 20
-13.3574
 30
0.0
 10
-26.6612
 20
-13.3574
 30
0.0
 10
-27.2513
 20
-17.5389
 30
0.0
 10
-27.2513
 20
-17.5389
 30
0.0
 10
-27.2513
 20
-17.5389
 30
0.0
 10
-27.2513
 20
-17.5389
 30
0.0
 10
-27.3824
 20
-17.5389
 30
0.0
 10
-27.3824
 20
-17.5389
 30
0.0
 10
-27.3824
 20
-17.5389
 30
0.0
 10
-27.3824
 20
-17.5389
 30
0.0
 10
-28.0118
 20
-13.3574
 30
0.0
 10
-28.0118
 20
-13.3574
 30
0.0
 10
-28.0118
 20
-13.3574
 30
0.0
 10
-28.0118
 20
-13.3574
 30
0.0
 10
-26.6612
 20
-13.3574
 30
0.0
 10
-26.6612
 20
-13.3574
 30
0.0
  0
SPLINE
  5
48
330
1F
100
AcDbEntity
  8
ROUND
 62
   250
100
AcDbSpline
210
0.0
220
0.0
230
1.0
 70
    11
 71
     3
 72
    84
 73
    80
 74
     0
 42
0.0000000001
 43
0.0000000001
 40
0.0
 40
0.0
 40
0.0
 40
0.0
 40
0.0476190476190476
 40
0.0476190476190476
 40
0.0476190476190476
 40
0.0476190476190476
 40
0.0952380952380952
 40
0.0952380952380952
 40
0.0952380952380952
 40
0.0952380952380952
 40
0.1428571428571428
 40
0.1428571428571428
 40
0.1428571428571428
 40
0.1428571428571428
 40
0.1904761904761905
 40
0.1904761904761905
 40
0.1904761904761905
 40
0.1904761904761905
 40
0.2380952380952381
 40
0.2380952380952381
 40
0.2380952380952381
 40
0.2380952380952381
 40
0.2857142857142857
 40
0.2857142857142857
 40
0.2857142857142857
 40
0.2857142857142857
 40
0.3333333333333333
 40
0.3333333333333333
 40
0.3333333333333333
 40
0.3333333333333333
 40
0.3809523809523809
 40
0.3809523809523809
 40
0.3809523809523809
 40
0.3809523809523809
 40
0.4285714285714285
 40
0.4285714285714285
 40
0.4285714285714285
 40
0.4285714285714285
 40
0.4761904761904762
 40
0.4761904761904762
 40
0.4761904761904762
 40
0.4761904761904762
 40
0.5238095238095238
 40
0.5238095238095238
 40
0.5238095238095238
 40
0.5238095238095238
 40
0.5714285714285714
 40
0.5714285714285714
 40
0.5714285714285714
 40
0.5714285714285714
 40
0.6190476190476191
 40
0.6190476190476191
 40
0.6190476190476191
 40
0.6190476190476191
 40
0.6666666666666666
 40
0.6666666666666666
 40
0.6666666666666666
 40
0.6666666666666666
 40
0.7142857142857143
 40
0.7142857142857143
 40
0.7142857142857143
 40
0.7142857142857143
 40
0.7619047619047619
 40
0.7619047619047619
 40
0.7619047619047619
 40
0.7619047619047619
 40
0.8095238095238095
 40
0.8095238095238095
 40
0.8095238095238095
 40
0.8095238095238095
 40
0.8571428571428571
 40
0.8571428571428571
 40
0.8571428571428571
 40
0.8571428571428571
 40
0.9047619047619048
 40
0.9047619047619048
 40
0.9047619047619048
 40
0.9047619047619048
 40
1.0
 40
1.0
 40
1.0
 40
1.0
 10
6.7178
 20
-24.476
 30
0.0
 10
6.7178
 20
-24.476
 30
0.0
 10
7.0403
 20
-24.1147
 30
0.0
 10
7.0403
 20
-24.1147
 30
0.0
 10
7.0403
 20
-24.1147
 30
0.0
 10
7.0403
 20
-24.1147
 30
0.0
 10
7.2305
 20
-24.276
 30
0.0
 10
7.2305
 20
-24.276
 30
0.0
 10
7.2305
 20
-24.276
 30
0.0
 10
7.2305
 20
-24.276
 30
0.0
 10
6.8928
 20
-24.6563
 30
0.0
 10
6.8928
 20
-24.6563
 30
0.0
 10
6.8928
 20
-24.6563
 30
0.0
 10
7.003
 20
-24.8202
 30
0.0
 10
7.077
 20
-24.9638
 30
0.0
 10
7.1157
 20
-25.0864
 30
0.0
 10
7.1157
 20
-25.0864
 30
0.0
 10
7.1669
 20
-25.2476
 30
0.0
 10
7.1924
 20
-25.4286
 30
0.0
 10
7.1924
 20
-25.6279
 30
0.0
 10
7.1924
 20
-25.6279
 30
0.0
 10
7.1924
 20
-25.9164
 30
0.0
 10
7.1341
 20
-26.1734
 30
0.0
 10
7.0174
 20
-26.3983
 30
0.0
 10
7.0174
 20
-26.3983
 30
0.0
 10
6.9007
 20
-26.6238
 30
0.0
 10
6.7374
 20
-26.7942
 30
0.0
 10
6.527
 20
-26.9096
 30
0.0
 10
6.527
 20
-26.9096
 30
0.0
 10
6.3159
 20
-27.0244
 30
0.0
 10
6.0923
 20
-27.0821
 30
0.0
 10
5.8556
 20
-27.0821
 30
0.0
 10
5.8556
 20
-27.0821
 30
0.0
 10
5.6786
 20
-27.0821
 30
0.0
 10
5.5186
 20
-27.0571
 30
0.0
 10
5.3751
 20
-27.0073
 30
0.0
 10
5.3751
 20
-27.0073
 30
0.0
 10
5.2649
 20
-26.9686
 30
0.0
 10
5.1364
 20
-26.8952
 30
0.0
 10
4.9889
 20
-26.7864
 30
0.0
 10
4.9889
 20
-26.7864
 30
0.0
 10
4.9889
 20
-26.7864
 30
0.0
 10
4.6663
 20
-27.1476
 30
0.0
 10
4.6663
 20
-27.1476
 30
0.0
 10
4.6663
 20
-27.1476
 30
0.0
 10
4.6663
 20
-27.1476
 30
0.0
 10
4.4762
 20
-26.9863
 30
0.0
 10
4.4762
 20
-26.9863
 30
0.0
 10
4.4762
 20
-26.9863
 30
0.0
 10
4.4762
 20
-26.9863
 30
0.0
 10
4.8145
 20
-26.608
 30
0.0
 10
4.8145
 20
-26.608
 30
0.0
 10
4.8145
 20
-26.608
 30
0.0
 10
4.6886
 20
-26.4173
 30
0.0
 10
4.6047
 20
-26.254
 30
0.0
 10
4.5628
 20
-26.119
 30
0.0
 10
4.5628
 20
-26.119
 30
0.0
 10
4.5208
 20
-25.9839
 30
0.0
 10
4.4992
 20
-25.8213
 30
0.0
 10
4.4992
 20
-25.6318
 30
0.0
 10
4.4992
 20
-25.6318
 30
0.0
 10
4.4992
 20
-25.3427
 30
0.0
 10
4.5569
 20
-25.0851
 30
0.0
 10
4.6722
 20
-24.8589
 30
0.0
 10
4.6722
 20
-24.8589
 30
0.0
 10
4.7876
 20
-24.6327
 30
0.0
 10
4.9489
 20
-24.4616
 30
0.0
 10
5.1574
 20
-24.3449
 30
0.0
 10
5.1574
 20
-24.3449
 30
0.0
 10
5.3652
 20
-24.2288
 30
0.0
 10
5.5967
 20
-24.1705
 30
0.0
 10
5.8517
 20
-24.1705
 30
0.0
 10
5.8517
 20
-24.1705
 30
0.0
 10
6.0235
 20
-24.1705
 30
0.0
 10
6.1736
 20
-24.1928
 30
0.0
 10
6.3021
 20
-24.2387
 30
0.0
 10
6.3021
 20
-24.2387
 30
0.0
 10
6.4306
 20
-24.2839
 30
0.0
 10
6.5696
 20
-24.3632
 30
0.0
 10
6.7178
 20
-24.476
 30
0.0
  0
SPLINE
  5
49
330
1F
100
AcDbEntity
  8
ROUND
 62
   250
100
AcDbSpline
210
0.0
220
0.0
230
1.0
 70
    11
 71
     3
 72
    32
 73
    28
 74
     0
 42
0.0000000001
 43
0.0000000001
 40
0.0
 40
0.0
 40
0.0
 40
0.0
 40
0.125
 40
0.125
 40
0.125
 40
0.125
 40
0.25
 40
0.25
 40
0.25
 40
0.25
 40
0.375
 40
0.375
 40
0.375
 40
0.375
 40
0.5
 40
0.5
 40
0.5
 40
0.5
 40
0.625
 40
0.625
 40
0.625
 40
0.625
 40
0.75
 40
0.75
 40
0.75
 40
0.75
 40
1.0
 40
1.0
 40
1.0
 40
1.0
 10
6.4876
 20
-24.735
 30
0.0
 10
6.367
 20
-24.6405
 30
0.0
 10
6.2615
 20
-24.5756
 30
0.0
 10
6.1716
 20
-24.5409
 30
0.0
 10
6.1716
 20
-24.5409
 30
0.0
 10
6.0812
 20
-24.5068
 30
0.0
 10
5.975
 20
-24.4891
 30
0.0
 10
5.8537
 20
-24.4891
 30
0.0
 10
5.8537
 20
-24.4891
 30
0.0
 10
5.5731
 20
-24.4891
 30
0.0
 10
5.3416
 20
-24.5842
 30
0.0
 10
5.1581
 20
-24.7743
 30
0.0
 10
5.1581
 20
-24.7743
 30
0.0
 10
4.9751
 20
-24.9644
 30
0.0
 10
4.8834
 20
-25.2483
 30
0.0
 10
4.8834
 20
-25.6266
 30
0.0
 10
4.8834
 20
-25.6266
 30
0.0
 10
4.8834
 20
-25.7748
 30
0.0
 10
4.8978
 20
-25.9065
 30
0.0
 10
4.926
 20
-26.0219
 30
0.0
 10
4.926
 20
-26.0219
 30
0.0
 10
4.9463
 20
-26.1078
 30
0.0
 10
4.9889
 20
-26.2134
 30
0.0
 10
5.0545
 20
-26.3386
 30
0.0
 10
5.0545
 20
-26.3386
 30
0.0
 10
5.0545
 20
-26.3386
 30
0.0
 10
6.4876
 20
-24.735
 30
0.0
 10
6.4876
 20
-24.735
 30
0.0
  0
SPLINE
  5
4A
330
1F
100
AcDbEntity
  8
ROUND
 62
   250
100
AcDbSpline
210
0.0
220
0.0
230
1.0
 70
    11
 71
     3
 72
    28
 73
    24
 74
     0
 42
0.0000000001
 43
0.0000000001
 40
0.0
 40
0.0
 40
0.0
 40
0.0
 40
0.1428571428571428
 40
0.1428571428571428
 40
0.1428571428571428
 40
0.1428571428571428
 40
0.2857142857142857
 40
0.2857142857142857
 40
0.2857142857142857
 40
0.2857142857142857
 40
0.4285714285714285
 40
0.4285714285714285
 40
0.4285714285714285
 40
0.4285714285714285
 40
0.5714285714285714
 40
0.5714285714285714
 40
0.5714285714285714
 40
0.5714285714285714
 40
0.7142857142857143
 40
0.7142857142857143
 40
0.7142857142857143
 40
0.7142857142857143
 40
1.0
 40
1.0
 40
1.0
 40
1.0
 10
6.645
 20
-24.9329
 30
0.0
 10
6.645
 20
-24.9329
 30
0.0
 10
5.2177
 20
-26.5307
 30
0.0
 10
5.2177
 20
-26.5307
 30
0.0
 10
5.2177
 20
-26.5307
 30
0.0
 10
5.3161
 20
-26.6113
 30
0.0
 10
5.4072
 20
-26.6677
 30
0.0
 10
5.4905
 20
-26.6998
 30
0.0
 10
5.4905
 20
-26.6998
 30
0.0
 10
5.5993
 20
-26.7425
 30
0.0
 10
5.7173
 20
-26.7634
 30
0.0
 10
5.8438
 20
-26.7634
 30
0.0
 10
5.8438
 20
-26.7634
 30
0.0
 10
6.1231
 20
-26.7634
 30
0.0
 10
6.3532
 20
-26.6651
 30
0.0
 10
6.5355
 20
-26.4677
 30
0.0
 10
6.5355
 20
-26.4677
 30
0.0
 10
6.7171
 20
-26.2704
 30
0.0
 10
6.8082
 20
-25.9937
 30
0.0
 10
6.8082
 20
-25.6377
 30
0.0
 10
6.8082
 20
-25.6377
 30
0.0
 10
6.8082
 20
-25.3716
 30
0.0
 10
6.7538
 20
-25.1362
 30
0.0
 10
6.645
 20
-24.9329
 30
0.0
  0
SPLINE
  5
4B
330
1F
100
AcDbEntity
  8
ROUND
 62
   250
100
AcDbSpline
210
0.0
220
0.0
230
1.0
 70
    11
 71
     3
 72
    48
 73
    44
 74
     0
 42
0.0000000001
 43
0.0000000001
 40
0.0
 40
0.0
 40
0.0
 40
0.0
 40
0.0833333333333333
 40
0.0833333333333333
 40
0.0833333333333333
 40
0.0833333333333333
 40
0.1666666666666667
 40
0.1666666666666667
 40
0.1666666666666667
 40
0.1666666666666667
 40
0.25
 40
0.25
 40
0.25
 40
0.25
 40
0.3333333333333333
 40
0.3333333333333333
 40
0.3333333333333333
 40
0.3333333333333333
 40
0.4166666666666667
 40
0.4166666666666667
 40
0.4166666666666667
 40
0.4166666666666667
 40
0.5
 40
0.5
 40
0.5
 40
0.5
 40
0.5833333333333334
 40
0.5833333333333334
 40
0.5833333333333334
 40
0.5833333333333334
 40
0.6666666666666666
 40
0.6666666666666666
 40
0.6666666666666666
 40
0.6666666666666666
 40
0.75
 40
0.75
 40
0.75
 40
0.75
 40
0.8333333333333334
 40
0.8333333333333334
 40
0.8333333333333334
 40
0.8333333333333334
 40
1.0
 40
1.0
 40
1.0
 40
1.0
 10
7.5629
 20
-24.5874
 30
0.0
 10
7.5629
 20
-24.5874
 30
0.0
 10
7.5629
 20
-24.255
 30
0.0
 10
7.5629
 20
-24.255
 30
0.0
 10
7.5629
 20
-24.255
 30
0.0
 10
7.5629
 20
-24.255
 30
0.0
 10
9.3855
 20
-24.255
 30
0.0
 10
9.3855
 20
-24.255
 30
0.0
 10
9.3855
 20
-24.255
 30
0.0
 10
9.3855
 20
-24.255
 30
0.0
 10
9.3855
 20
-24.5238
 30
0.0
 10
9.3855
 20
-24.5238
 30
0.0
 10
9.3855
 20
-24.5238
 30
0.0
 10
9.2065
 20
-24.7146
 30
0.0
 10
9.0289
 20
-24.9684
 30
0.0
 10
8.8525
 20
-25.2844
 30
0.0
 10
8.8525
 20
-25.2844
 30
0.0
 10
8.6768
 20
-25.6004
 30
0.0
 10
8.5404
 20
-25.9262
 30
0.0
 10
8.4447
 20
-26.2599
 30
0.0
 10
8.4447
 20
-26.2599
 30
0.0
 10
8.3752
 20
-26.4959
 30
0.0
 10
8.3313
 20
-26.7536
 30
0.0
 10
8.3123
 20
-27.0342
 30
0.0
 10
8.3123
 20
-27.0342
 30
0.0
 10
8.3123
 20
-27.0342
 30
0.0
 10
7.9569
 20
-27.0342
 30
0.0
 10
7.9569
 20
-27.0342
 30
0.0
 10
7.9569
 20
-27.0342
 30
0.0
 10
7.9609
 20
-26.8126
 30
0.0
 10
8.0041
 20
-26.5451
 30
0.0
 10
8.0874
 20
-26.2311
 30
0.0
 10
8.0874
 20
-26.2311
 30
0.0
 10
8.1707
 20
-25.9177
 30
0.0
 10
8.29
 20
-25.6148
 30
0.0
 10
8.4454
 20
-25.3237
 30
0.0
 10
8.4454
 20
-25.3237
 30
0.0
 10
8.6014
 20
-25.0326
 30
0.0
 10
8.7666
 20
-24.7867
 30
0.0
 10
8.9423
 20
-24.5874
 30
0.0
 10
8.9423
 20
-24.5874
 30
0.0
 10
8.9423
 20
-24.5874
 30
0.0
 10
7.5629
 20
-24.5874
 30
0.0
 10
7.5629
 20
-24.5874
 30
0.0
  0
SPLINE
  5
4C
330
1F
100
AcDbEntity
  8
ROUND
 62
   250
100
AcDbSpline
210
0.0
220
0.0
230
1.0
 70
    11
 71
     3
 72
    92
 73
    88
 74
     0
 42
0.0000000001
 43
0.0000000001
 40
0.0
 40
0.0
 40
0.0
 40
0.0
 40
0.0434782608695652
 40
0.0434782608695652
 40
0.0434782608695652
 40
0.0434782608695652
 40
0.0869565217391304
 40
0.0869565217391304
 40
0.0869565217391304
 40
0.0869565217391304
 40
0.1304347826086956
 40
0.1304347826086956
 40
0.1304347826086956
 40
0.1304347826086956
 40
0.1739130434782609
 40
0.1739130434782609
 40
0.1739130434782609
 40
0.1739130434782609
 40
0.2173913043478261
 40
0.2173913043478261
 40
0.2173913043478261
 40
0.2173913043478261
 40
0.2608695652173913
 40
0.2608695652173913
 40
0.2608695652173913
 40
0.2608695652173913
 40
0.3043478260869565
 40
0.3043478260869565
 40
0.3043478260869565
 40
0.3043478260869565
 40
0.3478260869565217
 40
0.3478260869565217
 40
0.3478260869565217
 40
0.3478260869565217
 40
0.391304347826087
 40
0.391304347826087
 40
0.391304347826087
 40
0.391304347826087
 40
0.4347826086956522
 40
0.4347826086956522
 40
0.4347826086956522
 40
0.4347826086956522
 40
0.4782608695652174
 40
0.4782608695652174
 40
0.4782608695652174
 40
0.4782608695652174
 40
0.5217391304347826
 40
0.5217391304347826
 40
0.5217391304347826
 40
0.5217391304347826
 40
0.5652173913043478
 40
0.5652173913043478
 40
0.5652173913043478
 40
0.5652173913043478
 40
0.6086956521739131
 40
0.6086956521739131
 40
0.6086956521739131
 40
0.6086956521739131
 40
0.6521739130434783
 40
0.6521739130434783
 40
0.6521739130434783
 40
0.6521739130434783
 40
0.6956521739130435
 40
0.6956521739130435
 40
0.6956521739130435
 40
0.6956521739130435
 40
0.7391304347826086
 40
0.7391304347826086
 40
0.7391304347826086
 40
0.7391304347826086
 40
0.782608695652174
 40
0.782608695652174
 40
0.782608695652174
 40
0.782608695652174
 40
0.8260869565217391
 40
0.8260869565217391
 40
0.8260869565217391
 40
0.8260869565217391
 40
0.8695652173913043
 40
0.8695652173913043
 40
0.8695652173913043
 40
0.8695652173913043
 40
0.9130434782608695
 40
0.9130434782608695
 40
0.9130434782608695
 40
0.9130434782608695
 40
1.0
 40
1.0
 40
1.0
 40
1.0
 10
9.7277
 20
-26.2966
 30
0.0
 10
9.7277
 20
-26.2966
 30
0.0
 10
10.091
 20
-26.2658
 30
0.0
 10
10.091
 20
-26.2658
 30
0.0
 10
10.091
 20
-26.2658
 30
0.0
 10
10.1178
 20
-26.4428
 30
0.0
 10
10.1801
 20
-26.5753
 30
0.0
 10
10.2778
 20
-26.6644
 30
0.0
 10
10.2778
 20
-26.6644
 30
0.0
 10
10.3762
 20
-26.7536
 30
0.0
 10
10.4942
 20
-26.7982
 30
0.0
 10
10.6325
 20
-26.7982
 30
0.0
 10
10.6325
 20
-26.7982
 30
0.0
 10
10.799
 20
-26.7982
 30
0.0
 10
10.94
 20
-26.7352
 30
0.0
 10
11.0547
 20
-26.61
 30
0.0
 10
11.0547
 20
-26.61
 30
0.0
 10
11.1701
 20
-26.4841
 30
0.0
 10
11.2278
 20
-26.3176
 30
0.0
 10
11.2278
 20
-26.1104
 30
0.0
 10
11.2278
 20
-26.1104
 30
0.0
 10
11.2278
 20
-25.9131
 30
0.0
 10
11.1727
 20
-25.7577
 30
0.0
 10
11.0619
 20
-25.6436
 30
0.0
 10
11.0619
 20
-25.6436
 30
0.0
 10
10.9511
 20
-25.5296
 30
0.0
 10
10.8062
 20
-25.4725
 30
0.0
 10
10.6266
 20
-25.4725
 30
0.0
 10
10.6266
 20
-25.4725
 30
0.0
 10
10.5151
 20
-25.4725
 30
0.0
 10
10.4148
 20
-25.4981
 30
0.0
 10
10.325
 20
-25.5486
 30
0.0
 10
10.325
 20
-25.5486
 30
0.0
 10
10.2352
 20
-25.5991
 30
0.0
 10
10.165
 20
-25.6646
 30
0.0
 10
10.1139
 20
-25.7453
 30
0.0
 10
10.1139
 20
-25.7453
 30
0.0
 10
10.1139
 20
-25.7453
 30
0.0
 10
9.7894
 20
-25.7033
 30
0.0
 10
9.7894
 20
-25.7033
 30
0.0
 10
9.7894
 20
-25.7033
 30
0.0
 10
9.7894
 20
-25.7033
 30
0.0
 10
10.0621
 20
-24.257
 30
0.0
 10
10.0621
 20
-24.257
 30
0.0
 10
10.0621
 20
-24.257
 30
0.0
 10
10.0621
 20
-24.257
 30
0.0
 10
11.4625
 20
-24.257
 30
0.0
 10
11.4625
 20
-24.257
 30
0.0
 10
11.4625
 20
-24.257
 30
0.0
 10
11.4625
 20
-24.257
 30
0.0
 10
11.4625
 20
-24.5874
 30
0.0
 10
11.4625
 20
-24.5874
 30
0.0
 10
11.4625
 20
-24.5874
 30
0.0
 10
11.4625
 20
-24.5874
 30
0.0
 10
10.3388
 20
-24.5874
 30
0.0
 10
10.3388
 20
-24.5874
 30
0.0
 10
10.3388
 20
-24.5874
 30
0.0
 10
10.3388
 20
-24.5874
 30
0.0
 10
10.1867
 20
-25.344
 30
0.0
 10
10.1867
 20
-25.344
 30
0.0
 10
10.1867
 20
-25.344
 30
0.0
 10
10.3558
 20
-25.226
 30
0.0
 10
10.5335
 20
-25.167
 30
0.0
 10
10.719
 20
-25.167
 30
0.0
 10
10.719
 20
-25.167
 30
0.0
 10
10.9649
 20
-25.167
 30
0.0
 10
11.1721
 20
-25.2522
 30
0.0
 10
11.3412
 20
-25.4227
 30
0.0
 10
11.3412
 20
-25.4227
 30
0.0
 10
11.5104
 20
-25.5932
 30
0.0
 10
11.5949
 20
-25.8121
 30
0.0
 10
11.5949
 20
-26.0796
 30
0.0
 10
11.5949
 20
-26.0796
 30
0.0
 10
11.5949
 20
-26.3347
 30
0.0
 10
11.5202
 20
-26.5549
 30
0.0
 10
11.372
 20
-26.7405
 30
0.0
 10
11.372
 20
-26.7405
 30
0.0
 10
11.1911
 20
-26.968
 30
0.0
 10
10.9446
 20
-27.0821
 30
0.0
 10
10.6325
 20
-27.0821
 30
0.0
 10
10.6325
 20
-27.0821
 30
0.0
 10
10.3762
 20
-27.0821
 30
0.0
 10
10.167
 20
-27.0106
 30
0.0
 10
10.0051
 20
-26.867
 30
0.0
 10
10.0051
 20
-26.867
 30
0.0
 10
9.8431
 20
-26.7234
 30
0.0
 10
9.7507
 20
-26.5333
 30
0.0
 10
9.7277
 20
-26.2966
 30
0.0
  0
SPLINE
  5
4D
330
1F
100
AcDbEntity
  8
ROUND
 62
   250
100
AcDbSpline
210
0.0
220
0.0
230
1.0
 70
    11
 71
     3
 72
    48
 73
    44
 74
     0
 42
0.0000000001
 43
0.0000000001
 40
0.0
 40
0.0
 40
0.0
 40
0.0
 40
0.0833333333333333
 40
0.0833333333333333
 40
0.0833333333333333
 40
0.0833333333333333
 40
0.1666666666666667
 40
0.1666666666666667
 40
0.1666666666666667
 40
0.1666666666666667
 40
0.25
 40
0.25
 40
0.25
 40
0.25
 40
0.3333333333333333
 40
0.3333333333333333
 40
0.3333333333333333
 40
0.3333333333333333
 40
0.4166666666666667
 40
0.4166666666666667
 40
0.4166666666666667
 40
0.4166666666666667
 40
0.5
 40
0.5
 40
0.5
 40
0.5
 40
0.5833333333333334
 40
0.5833333333333334
 40
0.5833333333333334
 40
0.5833333333333334
 40
0.6666666666666666
 40
0.6666666666666666
 40
0.6666666666666666
 40
0.6666666666666666
 40
0.75
 40
0.75
 40
0.75
 40
0.75
 40
0.8333333333333334
 40
0.8333333333333334
 40
0.8333333333333334
 40
0.8333333333333334
 40
1.0
 40
1.0
 40
1.0
 40
1.0
 10
-30.5443
 20
0.7364
 30
0.0
 10
-30.5443
 20
0.7364
 30
0.0
 10
-30.8767
 20
0.7364
 30
0.0
 10
-30.8767
 20
0.7364
 30
0.0
 10
-30.8767
 20
0.7364
 30
0.0
 10
-30.8767
 20
0.7364
 30
0.0
 10
-30.8767
 20
2.559
 30
0.0
 10
-30.8767
 20
2.559
 30
0.0
 10
-30.8767
 20
2.559
 30
0.0
 10
-30.8767
 20
2.559
 30
0.0
 10
-30.6079
 20
2.559
 30
0.0
 10
-30.6079
 20
2.559
 30
0.0
 10
-30.6079
 20
2.559
 30
0.0
 10
-30.4171
 20
2.38
 30
0.0
 10
-30.1633
 20
2.2024
 30
0.0
 10
-29.8473
 20
2.026
 30
0.0
 10
-29.8473
 20
2.026
 30
0.0
 10
-29.5313
 20
1.8503
 30
0.0
 10
-29.2055
 20
1.7139
 30
0.0
 10
-28.8718
 20
1.6182
 30
0.0
 10
-28.8718
 20
1.6182
 30
0.0
 10
-28.6358
 20
1.5487
 30
0.0
 10
-28.3781
 20
1.5048
 30
0.0
 10
-28.0975
 20
1.4858
 30
0.0
 10
-28.0975
 20
1.4858
 30
0.0
 10
-28.0975
 20
1.4858
 30
0.0
 10
-28.0975
 20
1.1304
 30
0.0
 10
-28.0975
 20
1.1304
 30
0.0
 10
-28.0975
 20
1.1304
 30
0.0
 10
-28.3191
 20
1.1344
 30
0.0
 10
-28.5866
 20
1.1776
 30
0.0
 10
-28.9006
 20
1.2609
 30
0.0
 10
-28.9006
 20
1.2609
 30
0.0
 10
-29.214
 20
1.3442
 30
0.0
 10
-29.5169
 20
1.4635
 30
0.0
 10
-29.808
 20
1.6189
 30
0.0
 10
-29.808
 20
1.6189
 30
0.0
 10
-30.0991
 20
1.7749
 30
0.0
 10
-30.345
 20
1.9401
 30
0.0
 10
-30.5443
 20
2.1158
 30
0.0
 10
-30.5443
 20
2.1158
 30
0.0
 10
-30.5443
 20
2.1158
 30
0.0
 10
-30.5443
 20
0.7364
 30
0.0
 10
-30.5443
 20
0.7364
 30
0.0
  0
SPLINE
  5
4E
330
1F
100
AcDbEntity
  8
ROUND
 62
   250
100
AcDbSpline
210
0.0
220
0.0
230
1.0
 70
    11
 71
     3
 72
    68
 73
    64
 74
     0
 42
0.0000000001
 43
0.0000000001
 40
0.0
 40
0.0
 40
0.0
 40
0.0
 40
0.0588235294117647
 40
0.0588235294117647
 40
0.0588235294117647
 40
0.0588235294117647
 40
0.1176470588235294
 40
0.1176470588235294
 40
0.1176470588235294
 40
0.1176470588235294
 40
0.1764705882352941
 40
0.1764705882352941
 40
0.1764705882352941
 40
0.1764705882352941
 40
0.2352941176470588
 40
0.2352941176470588
 40
0.2352941176470588
 40
0.2352941176470588
 40
0.2941176470588235
 40
0.2941176470588235
 40
0.2941176470588235
 40
0.2941176470588235
 40
0.3529411764705883
 40
0.3529411764705883
 40
0.3529411764705883
 40
0.3529411764705883
 40
0.4117647058823529
 40
0.4117647058823529
 40
0.4117647058823529
 40
0.4117647058823529
 40
0.4705882352941176
 40
0.4705882352941176
 40
0.4705882352941176
 40
0.4705882352941176
 40
0.5294117647058824
 40
0.5294117647058824
 40
0.5294117647058824
 40
0.5294117647058824
 40
0.5882352941176471
 40
0.5882352941176471
 40
0.5882352941176471
 40
0.5882352941176471
 40
0.6470588235294118
 40
0.6470588235294118
 40
0.6470588235294118
 40
0.6470588235294118
 40
0.7058823529411765
 40
0.7058823529411765
 40
0.7058823529411765
 40
0.7058823529411765
 40
0.7647058823529411
 40
0.7647058823529411
 40
0.7647058823529411
 40
0.7647058823529411
 40
0.8235294117647058
 40
0.8235294117647058
 40
0.8235294117647058
 40
0.8235294117647058
 40
0.8823529411764706
 40
0.8823529411764706
 40
0.8823529411764706
 40
0.8823529411764706
 40
1.0
 40
1.0
 40
1.0
 40
1.0
 10
-29.6244
 20
3.4336
 30
0.0
 10
-29.6769
 20
3.29
 30
0.0
 10
-29.7516
 20
3.1838
 30
0.0
 10
-29.8493
 20
3.1143
 30
0.0
 10
-29.8493
 20
3.1143
 30
0.0
 10
-29.9463
 20
3.0455
 30
0.0
 10
-30.063
 20
3.0107
 30
0.0
 10
-30.1988
 20
3.0107
 30
0.0
 10
-30.1988
 20
3.0107
 30
0.0
 10
-30.404
 20
3.0107
 30
0.0
 10
-30.5757
 20
3.0842
 30
0.0
 10
-30.7154
 20
3.2317
 30
0.0
 10
-30.7154
 20
3.2317
 30
0.0
 10
-30.855
 20
3.3792
 30
0.0
 10
-30.9252
 20
3.5746
 30
0.0
 10
-30.9252
 20
3.8191
 30
0.0
 10
-30.9252
 20
3.8191
 30
0.0
 10
-30.9252
 20
4.065
 30
0.0
 10
-30.8537
 20
4.263
 30
0.0
 10
-30.7108
 20
4.4131
 30
0.0
 10
-30.7108
 20
4.4131
 30
0.0
 10
-30.5679
 20
4.5626
 30
0.0
 10
-30.3941
 20
4.6373
 30
0.0
 10
-30.1889
 20
4.6373
 30
0.0
 10
-30.1889
 20
4.6373
 30
0.0
 10
-30.0584
 20
4.6373
 30
0.0
 10
-29.945
 20
4.6032
 30
0.0
 10
-29.848
 20
4.535
 30
0.0
 10
-29.848
 20
4.535
 30
0.0
 10
-29.7516
 20
4.4662
 30
0.0
 10
-29.6769
 20
4.3626
 30
0.0
 10
-29.6244
 20
4.223
 30
0.0
 10
-29.6244
 20
4.223
 30
0.0
 10
-29.568
 20
4.3954
 30
0.0
 10
-29.4776
 20
4.5272
 30
0.0
 10
-29.3517
 20
4.6177
 30
0.0
 10
-29.3517
 20
4.6177
 30
0.0
 10
-29.2265
 20
4.7075
 30
0.0
 10
-29.0763
 20
4.7527
 30
0.0
 10
-28.9026
 20
4.7527
 30
0.0
 10
-28.9026
 20
4.7527
 30
0.0
 10
-28.6613
 20
4.7527
 30
0.0
 10
-28.4594
 20
4.6675
 30
0.0
 10
-28.2955
 20
4.4977
 30
0.0
 10
-28.2955
 20
4.4977
 30
0.0
 10
-28.1316
 20
4.3272
 30
0.0
 10
-28.0496
 20
4.103
 30
0.0
 10
-28.0496
 20
3.825
 30
0.0
 10
-28.0496
 20
3.825
 30
0.0
 10
-28.0496
 20
3.547
 30
0.0
 10
-28.1316
 20
3.3235
 30
0.0
 10
-28.2962
 20
3.153
 30
0.0
 10
-28.2962
 20
3.153
 30
0.0
 10
-28.4607
 20
2.9825
 30
0.0
 10
-28.6659
 20
2.8973
 30
0.0
 10
-28.9118
 20
2.8973
 30
0.0
 10
-28.9118
 20
2.8973
 30
0.0
 10
-29.0947
 20
2.8973
 30
0.0
 10
-29.2481
 20
2.9439
 30
0.0
 10
-29.372
 20
3.037
 30
0.0
 10
-29.372
 20
3.037
 30
0.0
 10
-29.4953
 20
3.1294
 30
0.0
 10
-29.5798
 20
3.2618
 30
0.0
 10
-29.6244
 20
3.4336
 30
0.0
  0
SPLINE
  5
4F
330
1F
100
AcDbEntity
  8
ROUND
 62
   250
100
AcDbSpline
210
0.0
220
0.0
230
1.0
 70
    11
 71
     3
 72
    36
 73
    32
 74
     0
 42
0.0000000001
 43
0.0000000001
 40
0.0
 40
0.0
 40
0.0
 40
0.0
 40
0.1111111111111111
 40
0.1111111111111111
 40
0.1111111111111111
 40
0.1111111111111111
 40
0.2222222222222222
 40
0.2222222222222222
 40
0.2222222222222222
 40
0.2222222222222222
 40
0.3333333333333333
 40
0.3333333333333333
 40
0.3333333333333333
 40
0.3333333333333333
 40
0.4444444444444444
 40
0.4444444444444444
 40
0.4444444444444444
 40
0.4444444444444444
 40
0.5555555555555556
 40
0.5555555555555556
 40
0.5555555555555556
 40
0.5555555555555556
 40
0.6666666666666666
 40
0.6666666666666666
 40
0.6666666666666666
 40
0.6666666666666666
 40
0.7777777777777778
 40
0.7777777777777778
 40
0.7777777777777778
 40
0.7777777777777778
 40
1.0
 40
1.0
 40
1.0
 40
1.0
 10
-30.2106
 20
3.3641
 30
0.0
 10
-30.0775
 20
3.3641
 30
0.0
 10
-29.9686
 20
3.4074
 30
0.0
 10
-29.8841
 20
3.4926
 30
0.0
 10
-29.8841
 20
3.4926
 30
0.0
 10
-29.7995
 20
3.5785
 30
0.0
 10
-29.7569
 20
3.69
 30
0.0
 10
-29.7569
 20
3.827
 30
0.0
 10
-29.7569
 20
3.827
 30
0.0
 10
-29.7569
 20
3.9601
 30
0.0
 10
-29.7988
 20
4.0696
 30
0.0
 10
-29.8827
 20
4.1548
 30
0.0
 10
-29.8827
 20
4.1548
 30
0.0
 10
-29.9667
 20
4.24
 30
0.0
 10
-30.0696
 20
4.282
 30
0.0
 10
-30.1909
 20
4.282
 30
0.0
 10
-30.1909
 20
4.282
 30
0.0
 10
-30.3181
 20
4.282
 30
0.0
 10
-30.4243
 20
4.2387
 30
0.0
 10
-30.5108
 20
4.1509
 30
0.0
 10
-30.5108
 20
4.1509
 30
0.0
 10
-30.5974
 20
4.063
 30
0.0
 10
-30.6406
 20
3.9542
 30
0.0
 10
-30.6406
 20
3.823
 30
0.0
 10
-30.6406
 20
3.823
 30
0.0
 10
-30.6406
 20
3.6913
 30
0.0
 10
-30.598
 20
3.5818
 30
0.0
 10
-30.5141
 20
3.4946
 30
0.0
 10
-30.5141
 20
3.4946
 30
0.0
 10
-30.4295
 20
3.4074
 30
0.0
 10
-30.3279
 20
3.3641
 30
0.0
 10
-30.2106
 20
3.3641
 30
0.0
  0
SPLINE
  5
50
330
1F
100
AcDbEntity
  8
ROUND
 62
   250
100
AcDbSpline
210
0.0
220
0.0
230
1.0
 70
    11
 71
     3
 72
    40
 73
    36
 74
     0
 42
0.0000000001
 43
0.0000000001
 40
0.0
 40
0.0
 40
0.0
 40
0.0
 40
0.1
 40
0.1
 40
0.1
 40
0.1
 40
0.2
 40
0.2
 40
0.2
 40
0.2
 40
0.3
 40
0.3
 40
0.3
 40
0.3
 40
0.4
 40
0.4
 40
0.4
 40
0.4
 40
0.5
 40
0.5
 40
0.5
 40
0.5
 40
0.6
 40
0.6
 40
0.6
 40
0.6
 40
0.7
 40
0.7
 40
0.7
 40
0.7
 40
0.8
 40
0.8
 40
0.8
 40
0.8
 40
1.0
 40
1.0
 40
1.0
 40
1.0
 10
-28.9098
 20
3.2527
 30
0.0
 10
-28.8115
 20
3.2527
 30
0.0
 10
-28.7157
 20
3.2763
 30
0.0
 10
-28.624
 20
3.3228
 30
0.0
 10
-28.624
 20
3.3228
 30
0.0
 10
-28.5315
 20
3.3694
 30
0.0
 10
-28.4601
 20
3.4389
 30
0.0
 10
-28.4096
 20
3.5313
 30
0.0
 10
-28.4096
 20
3.5313
 30
0.0
 10
-28.3591
 20
3.6237
 30
0.0
 10
-28.3335
 20
3.7227
 30
0.0
 10
-28.3335
 20
3.8289
 30
0.0
 10
-28.3335
 20
3.8289
 30
0.0
 10
-28.3335
 20
3.9942
 30
0.0
 10
-28.3866
 20
4.1305
 30
0.0
 10
-28.4935
 20
4.2381
 30
0.0
 10
-28.4935
 20
4.2381
 30
0.0
 10
-28.5997
 20
4.3456
 30
0.0
 10
-28.7348
 20
4.3993
 30
0.0
 10
-28.8987
 20
4.3993
 30
0.0
 10
-28.8987
 20
4.3993
 30
0.0
 10
-29.0652
 20
4.3993
 30
0.0
 10
-29.2029
 20
4.3443
 30
0.0
 10
-29.3117
 20
4.2335
 30
0.0
 10
-29.3117
 20
4.2335
 30
0.0
 10
-29.4205
 20
4.1227
 30
0.0
 10
-29.475
 20
3.9837
 30
0.0
 10
-29.475
 20
3.8171
 30
0.0
 10
-29.475
 20
3.8171
 30
0.0
 10
-29.475
 20
3.6546
 30
0.0
 10
-29.4212
 20
3.5202
 30
0.0
 10
-29.3137
 20
3.4133
 30
0.0
 10
-29.3137
 20
3.4133
 30
0.0
 10
-29.2055
 20
3.3064
 30
0.0
 10
-29.0711
 20
3.2527
 30
0.0
 10
-28.9098
 20
3.2527
 30
0.0
  0
SPLINE
  5
51
330
1F
100
AcDbEntity
  8
ROUND
 62
   250
100
AcDbSpline
210
0.0
220
0.0
230
1.0
 70
    11
 71
     3
 72
    20
 73
    16
 74
     0
 42
0.0000000001
 43
0.0000000001
 40
0.0
 40
0.0
 40
0.0
 40
0.0
 40
0.2
 40
0.2
 40
0.2
 40
0.2
 40
0.4
 40
0.4
 40
0.4
 40
0.4
 40
0.6
 40
0.6
 40
0.6
 40
0.6
 40
1.0
 40
1.0
 40
1.0
 40
1.0
 10
-22.4603
 20
-1.2162
 30
0.0
 10
-22.4603
 20
-1.2162
 30
0.0
 10
-21.8702
 20
2.9654
 30
0.0
 10
-21.8702
 20
2.9654
 30
0.0
 10
-21.8702
 20
2.9654
 30
0.0
 10
-21.8702
 20
2.9654
 30
0.0
 10
-21.7391
 20
2.9654
 30
0.0
 10
-21.7391
 20
2.9654
 30
0.0
 10
-21.7391
 20
2.9654
 30
0.0
 10
-21.7391
 20
2.9654
 30
0.0
 10
-21.1097
 20
-1.2162
 30
0.0
 10
-21.1097
 20
-1.2162
 30
0.0
 10
-21.1097
 20
-1.2162
 30
0.0
 10
-21.1097
 20
-1.2162
 30
0.0
 10
-22.4603
 20
-1.2162
 30
0.0
 10
-22.4603
 20
-1.2162
 30
0.0
  0
SPLINE
  5
52
330
1F
100
AcDbEntity
  8
ROUND
 62
   250
100
AcDbSpline
210
0.0
220
0.0
230
1.0
 70
    11
 71
     3
 72
    20
 73
    16
 74
     0
 42
0.0000000001
 43
0.0000000001
 40
0.0
 40
0.0
 40
0.0
 40
0.0
 40
0.2
 40
0.2
 40
0.2
 40
0.2
 40
0.4
 40
0.4
 40
0.4
 40
0.4
 40
0.6
 40
0.6
 40
0.6
 40
0.6
 40
1.0
 40
1.0
 40
1.0
 40
1.0
 10
-21.1428
 20
-13.3574
 30
0.0
 10
-21.1428
 20
-13.3574
 30
0.0
 10
-21.7329
 20
-17.5389
 30
0.0
 10
-21.7329
 20
-17.5389
 30
0.0
 10
-21.7329
 20
-17.5389
 30
0.0
 10
-21.7329
 20
-17.5389
 30
0.0
 10
-21.864
 20
-17.5389
 30
0.0
 10
-21.864
 20
-17.5389
 30
0.0
 10
-21.864
 20
-17.5389
 30
0.0
 10
-21.864
 20
-17.5389
 30
0.0
 10
-22.4934
 20
-13.3574
 30
0.0
 10
-22.4934
 20
-13.3574
 30
0.0
 10
-22.4934
 20
-13.3574
 30
0.0
 10
-22.4934
 20
-13.3574
 30
0.0
 10
-21.1428
 20
-13.3574
 30
0.0
 10
-21.1428
 20
-13.3574
 30
0.0
  0
SPLINE
  5
53
330
1F
100
AcDbEntity
  8
ROUND
 62
   250
100
AcDbSpline
210
0.0
220
0.0
230
1.0
 70
    24
 71
     3
 72
     8
 73
     4
 74
     0
 42
0.0000000001
 43
0.0000000001
 40
0.0
 40
0.0
 40
0.0
 40
0.0
 40
1.0
 40
1.0
 40
1.0
 40
1.0
 10
-13.9668
 20
-18.84
 30
0.0
 10
-13.9668
 20
-18.84
 30
0.0
 10
-13.9668
 20
-29.364
 30
0.0
 10
-13.9668
 20
-29.364
 30
0.0
  0
SPLINE
  5
54
330
1F
100
AcDbEntity
  8
ROUND
 62
   250
100
AcDbSpline
210
0.0
220
0.0
230
1.0
 70
    24
 71
     3
 72
     8
 73
     4
 74
     0
 42
0.0000000001
 43
0.0000000001
 40
0.0
 40
0.0
 40
0.0
 40
0.0
 40
1.0
 40
1.0
 40
1.0
 40
1.0
 10
29.6583
 20
-19.0052
 30
0.0
 10
29.6583
 20
-19.0052
 30
0.0
 10
29.6583
 20
-29.3845
 30
0.0
 10
29.6583
 20
-29.3845
 30
0.0
  0
SPLINE
  5
55
330
1F
100
AcDbEntity
  8
ROUND
 62
   250
100
AcDbSpline
210
0.0
220
0.0
230
1.0
 70
    24
 71
     3
 72
     8
 73
     4
 74
     0
 42
0.0000000001
 43
0.0000000001
 40
0.0
 40
0.0
 40
0.0
 40
0.0
 40
1.0
 40
1.0
 40
1.0
 40
1.0
 10
28.1783
 20
-28.0681
 30
0.0
 10
28.1783
 20
-28.0681
 30
0.0
 10
-13.8108
 20
-28.0681
 30
0.0
 10
-13.8108
 20
-28.0681
 30
0.0
  0
SPLINE
  5
56
330
1F
100
AcDbEntity
  8
ROUND
 62
   250
100
AcDbSpline
210
0.0
220
0.0
230
1.0
 70
    24
 71
     3
 72
     8
 73
     4
 74
     0
 42
0.0000000001
 43
0.0000000001
 40
0.0
 40
0.0
 40
0.0
 40
0.0
 40
1.0
 40
1.0
 40
1.0
 40
1.0
 10
-16.0444
 20
3.064
 30
0.0
 10
-16.0444
 20
3.064
 30
0.0
 10
-22.8024
 20
3.064
 30
0.0
 10
-22.8024
 20
3.064
 30
0.0
  0
SPLINE
  5
57
330
1F
100
AcDbEntity
  8
ROUND
 62
   250
100
AcDbSpline
210
0.0
220
0.0
230
1.0
 70
    24
 71
     3
 72
     8
 73
     4
 74
     0
 42
0.0000000001
 43
0.0000000001
 40
0.0
 40
0.0
 40
0.0
 40
0.0
 40
1.0
 40
1.0
 40
1.0
 40
1.0
 10
-21.8071
 20
2.6256
 30
0.0
 10
-21.8071
 20
2.6256
 30
0.0
 10
-21.8071
 20
-16.9752
 30
0.0
 10
-21.8071
 20
-16.9752
 30
0.0
  0
SPLINE
  5
58
330
1F
100
AcDbEntity
  8
ROUND
 62
   250
100
AcDbSpline
210
0.0
220
0.0
230
1.0
 70
    24
 71
     3
 72
     8
 73
     4
 74
     0
 42
0.0000000001
 43
0.0000000001
 40
0.0
 40
0.0
 40
0.0
 40
0.0
 40
1.0
 40
1.0
 40
1.0
 40
1.0
 10
-14.3002
 20
-17.6555
 30
0.0
 10
-14.3002
 20
-17.6555
 30
0.0
 10
-28.2722
 20
-17.6555
 30
0.0
 10
-28.2722
 20
-17.6555
 30
0.0
  0
SPLINE
  5
59
330
1F
100
AcDbEntity
  8
ROUND
 62
   250
100
AcDbSpline
210
0.0
220
0.0
230
1.0
 70
    24
 71
     3
 72
     8
 73
     4
 74
     0
 42
0.0000000001
 43
0.0000000001
 40
0.0
 40
0.0
 40
0.0
 40
0.0
 40
1.0
 40
1.0
 40
1.0
 40
1.0
 10
-5.2271
 20
28.2211
 30
0.0
 10
-5.2271
 20
28.2211
 30
0.0
 10
-28.8182
 20
28.2211
 30
0.0
 10
-28.8182
 20
28.2211
 30
0.0
  0
SPLINE
  5
5A
330
1F
100
AcDbEntity
  8
ROUND
 62
   250
100
AcDbSpline
210
0.0
220
0.0
230
1.0
 70
    24
 71
     3
 72
     8
 73
     4
 74
     0
 42
0.0000000001
 43
0.0000000001
 40
0.0
 40
0.0
 40
0.0
 40
0.0
 40
1.0
 40
1.0
 40
1.0
 40
1.0
 10
-27.3287
 20
27.3237
 30
0.0
 10
-27.3287
 20
27.3237
 30
0.0
 10
-27.3287
 20
-17.0701
 30
0.0
 10
-27.3287
 20
-17.0701
 30
0.0
  0
SPLINE
  5
5B
330
1F
100
AcDbEntity
  8
ROUND
 62
   250
100
AcDbSpline
210
0.0
220
0.0
230
1.0
 70
     8
 71
     3
 72
    16
 73
    12
 74
     0
 42
0.0000000001
 43
0.0000000001
 40
0.0
 40
0.0
 40
0.0
 40
0.0
 40
0.25
 40
0.25
 40
0.25
 40
0.25
 40
0.5
 40
0.5
 40
0.5
 40
0.5
 40
1.0
 40
1.0
 40
1.0
 40
1.0
 10
2.7626
 20
10.7601
 30
0.0
 10
2.7626
 20
10.7601
 30
0.0
 10
2.7781
 20
8.9932
 30
0.0
 10
2.7781
 20
8.9932
 30
0.0
 10
2.7781
 20
8.9932
 30
0.0
 10
2.7781
 20
8.9932
 30
0.0
 10
12.5571
 20
9.0088
 30
0.0
 10
12.5571
 20
9.0088
 30
0.0
 10
12.5571
 20
9.0088
 30
0.0
 10
12.5571
 20
9.0088
 30
0.0
 10
12.5579
 20
10.781
 30
0.0
 10
12.5579
 20
10.781
 30
0.0
  0
SPLINE
  5
5C
330
1F
100
AcDbEntity
  8
ROUND
 62
   250
100
AcDbSpline
210
0.0
220
0.0
230
1.0
 70
    24
 71
     3
 72
     8
 73
     4
 74
     0
 42
0.0000000001
 43
0.0000000001
 40
0.0
 40
0.0
 40
0.0
 40
0.0
 40
1.0
 40
1.0
 40
1.0
 40
1.0
 10
-3.8637
 20
27.4638
 30
0.0
 10
-3.8637
 20
27.4638
 30
0.0
 10
-6.0897
 20
10.7696
 30
0.0
 10
-6.0897
 20
10.7696
 30
0.0
  0
SPLINE
  5
5D
330
1F
100
AcDbEntity
  8
ROUND
 62
   250
100
AcDbSpline
210
0.0
220
0.0
230
1.0
 70
    24
 71
     3
 72
     8
 73
     4
 74
     0
 42
0.0000000001
 43
0.0000000001
 40
0.0
 40
0.0
 40
0.0
 40
0.0
 40
1.0
 40
1.0
 40
1.0
 40
1.0
 10
-2.0175
 20
4.3707
 30
0.0
 10
-2.0175
 20
4.3707
 30
0.0
 10
-2.0175
 20
10.694
 30
0.0
 10
-2.0175
 20
10.694
 30
0.0
  0
SPLINE
  5
5E
330
1F
100
AcDbEntity
  8
ROUND
  6
NEW_LINE1
 62
   250
100
AcDbSpline
210
0.0
220
0.0
230
1.0
 70
    24
 71
     3
 72
     8
 73
     4
 74
     0
 42
0.0000000001
 43
0.0000000001
 40
0.0
 40
0.0
 40
0.0
 40
0.0
 40
1.0
 40
1.0
 40
1.0
 40
1.0
 10
7.8715
 20
-19.9617
 30
0.0
 10
7.8715
 20
-19.9617
 30
0.0
 10
7.8715
 20
29.3846
 30
0.0
 10
7.8715
 20
29.3846
 30
0.0
  0
SPLINE
  5
60
330
1F
100
AcDbEntity
  8
ROUND
 62
   250
100
AcDbSpline
210
0.0
220
0.0
230
1.0
 70
    24
 71
     3
 72
     8
 73
     4
 74
     0
 42
0.0000000001
 43
0.0000000001
 40
0.0
 40
0.0
 40
0.0
 40
0.0
 40
1.0
 40
1.0
 40
1.0
 40
1.0
 10
17.7608
 20
4.3707
 30
0.0
 10
17.7608
 20
4.3707
 30
0.0
 10
17.7608
 20
10.6572
 30
0.0
 10
17.7608
 20
10.6572
 30
0.0
  0
SPLINE
  5
61
330
1F
100
AcDbEntity
  8
ROUND
 62
   250
100
AcDbSpline
210
0.0
220
0.0
230
1.0
 70
    24
 71
     3
 72
     8
 73
     4
 74
     0
 42
0.0000000001
 43
0.0000000001
 40
0.0
 40
0.0
 40
0.0
 40
0.0
 40
1.0
 40
1.0
 40
1.0
 40
1.0
 10
19.6068
 20
27.4638
 30
0.0
 10
19.6068
 20
27.4638
 30
0.0
 10
21.8326
 20
10.7696
 30
0.0
 10
21.8326
 20
10.7696
 30
0.0
  0
SPLINE
  5
62
330
1F
100
AcDbEntity
  8
ROUND
 62
   250
100
AcDbSpline
210
0.0
220
0.0
230
1.0
 70
    24
 71
     3
 72
     8
 73
     4
 74
     0
 42
0.0000000001
 43
0.0000000001
 40
0.0
 40
0.0
 40
0.0
 40
0.0
 40
1.0
 40
1.0
 40
1.0
 40
1.0
 10
-6.0896
 20
10.7696
 30
0.0
 10
-6.0896
 20
10.7696
 30
0.0
 10
21.8326
 20
10.7696
 30
0.0
 10
21.8326
 20
10.7696
 30
0.0
  0
SPLINE
  5
63
330
1F
100
AcDbEntity
  8
ROUND
 62
   250
100
AcDbSpline
210
0.0
220
0.0
230
1.0
 70
    24
 71
     3
 72
     8
 73
     4
 74
     0
 42
0.0000000001
 43
0.0000000001
 40
0.0
 40
0.0
 40
0.0
 40
0.0
 40
1.0
 40
1.0
 40
1.0
 40
1.0
 10
18.7419
 20
28.2211
 30
0.0
 10
18.7419
 20
28.2211
 30
0.0
 10
-2.9988
 20
28.2211
 30
0.0
 10
-2.9988
 20
28.2211
 30
0.0
  0
SPLINE
  5
64
330
1F
100
AcDbEntity
  8
ROUND
 62
   250
100
AcDbSpline
210
0.0
220
0.0
230
1.0
 70
     8
 71
     3
 72
     8
 73
     4
 74
     0
 42
0.0000000001
 43
0.0000000001
 40
0.0
 40
0.0
 40
0.0
 40
0.0
 40
1.0
 40
1.0
 40
1.0
 40
1.0
 10
19.6068
 20
27.4638
 30
0.0
 10
19.5489
 20
27.8973
 30
0.0
 10
19.1792
 20
28.2211
 30
0.0
 10
18.7419
 20
28.2211
 30
0.0
  0
SPLINE
  5
65
330
1F
100
AcDbEntity
  8
ROUND
 62
   250
100
AcDbSpline
210
0.0
220
0.0
230
1.0
 70
     8
 71
     3
 72
     8
 73
     4
 74
     0
 42
0.0000000001
 43
0.0000000001
 40
0.0
 40
0.0
 40
0.0
 40
0.0
 40
1.0
 40
1.0
 40
1.0
 40
1.0
 10
-2.9988
 20
28.2211
 30
0.0
 10
-3.4362
 20
28.2211
 30
0.0
 10
-3.806
 20
27.8973
 30
0.0
 10
-3.8637
 20
27.4638
 30
0.0
  0
SPLINE
  5
66
330
1F
100
AcDbEntity
  8
ROUND
 62
   250
100
AcDbSpline
210
0.0
220
0.0
230
1.0
 70
    24
 71
     3
 72
     8
 73
     4
 74
     0
 42
0.0000000001
 43
0.0000000001
 40
0.0
 40
0.0
 40
0.0
 40
0.0
 40
1.0
 40
1.0
 40
1.0
 40
1.0
 10
-13.286
 20
-17.6972
 30
0.0
 10
-13.286
 20
-17.6972
 30
0.0
 10
-13.906
 20
-15.3833
 30
0.0
 10
-13.906
 20
-15.3833
 30
0.0
  0
SPLINE
  5
67
330
1F
100
AcDbEntity
  8
ROUND
 62
   250
100
AcDbSpline
210
0.0
220
0.0
230
1.0
 70
    24
 71
     3
 72
     8
 73
     4
 74
     0
 42
0.0000000001
 43
0.0000000001
 40
0.0
 40
0.0
 40
0.0
 40
0.0
 40
1.0
 40
1.0
 40
1.0
 40
1.0
 10
-15.3522
 20
3.1276
 30
0.0
 10
-15.3522
 20
3.1276
 30
0.0
 10
-15.3522
 20
4.2846
 30
0.0
 10
-15.3522
 20
4.2846
 30
0.0
  0
SPLINE
  5
68
330
1F
100
AcDbEntity
  8
ROUND
 62
   250
100
AcDbSpline
210
0.0
220
0.0
230
1.0
 70
    24
 71
     3
 72
     8
 73
     4
 74
     0
 42
0.0000000001
 43
0.0000000001
 40
0.0
 40
0.0
 40
0.0
 40
0.0
 40
1.0
 40
1.0
 40
1.0
 40
1.0
 10
-13.906
 20
-15.3833
 30
0.0
 10
-13.906
 20
-15.3833
 30
0.0
 10
-13.906
 20
3.1276
 30
0.0
 10
-13.906
 20
3.1276
 30
0.0
  0
SPLINE
  5
69
330
1F
100
AcDbEntity
  8
ROUND
 62
   250
100
AcDbSpline
210
0.0
220
0.0
230
1.0
 70
    24
 71
     3
 72
     8
 73
     4
 74
     0
 42
0.0000000001
 43
0.0000000001
 40
0.0
 40
0.0
 40
0.0
 40
0.0
 40
1.0
 40
1.0
 40
1.0
 40
1.0
 10
-13.286
 20
-17.6972
 30
0.0
 10
-13.286
 20
-17.6972
 30
0.0
 10
28.8589
 20
-17.6972
 30
0.0
 10
28.8589
 20
-17.6972
 30
0.0
  0
SPLINE
  5
6A
330
1F
100
AcDbEntity
  8
ROUND
 62
   250
100
AcDbSpline
210
0.0
220
0.0
230
1.0
 70
    24
 71
     3
 72
     8
 73
     4
 74
     0
 42
0.0000000001
 43
0.0000000001
 40
0.0
 40
0.0
 40
0.0
 40
0.0
 40
1.0
 40
1.0
 40
1.0
 40
1.0
 10
-13.906
 20
-15.3833
 30
0.0
 10
-13.906
 20
-15.3833
 30
0.0
 10
29.4789
 20
-15.3833
 30
0.0
 10
29.4789
 20
-15.3833
 30
0.0
  0
SPLINE
  5
6B
330
1F
100
AcDbEntity
  8
ROUND
 62
   250
100
AcDbSpline
210
0.0
220
0.0
230
1.0
 70
    24
 71
     3
 72
     8
 73
     4
 74
     0
 42
0.0000000001
 43
0.0000000001
 40
0.0
 40
0.0
 40
0.0
 40
0.0
 40
1.0
 40
1.0
 40
1.0
 40
1.0
 10
-15.3522
 20
3.1276
 30
0.0
 10
-15.3522
 20
3.1276
 30
0.0
 10
30.925
 20
3.1276
 30
0.0
 10
30.925
 20
3.1276
 30
0.0
  0
SPLINE
  5
6C
330
1F
100
AcDbEntity
  8
ROUND
 62
   250
100
AcDbSpline
210
0.0
220
0.0
230
1.0
 70
    24
 71
     3
 72
     8
 73
     4
 74
     0
 42
0.0000000001
 43
0.0000000001
 40
0.0
 40
0.0
 40
0.0
 40
0.0
 40
1.0
 40
1.0
 40
1.0
 40
1.0
 10
-15.3522
 20
4.2846
 30
0.0
 10
-15.3522
 20
4.2846
 30
0.0
 10
30.925
 20
4.2846
 30
0.0
 10
30.925
 20
4.2846
 30
0.0
  0
SPLINE
  5
6D
330
1F
100
AcDbEntity
  8
ROUND
 62
   250
100
AcDbSpline
210
0.0
220
0.0
230
1.0
 70
    24
 71
     3
 72
     8
 73
     4
 74
     0
 42
0.0000000001
 43
0.0000000001
 40
0.0
 40
0.0
 40
0.0
 40
0.0
 40
1.0
 40
1.0
 40
1.0
 40
1.0
 10
29.4789
 20
-15.3833
 30
0.0
 10
29.4789
 20
-15.3833
 30
0.0
 10
29.4789
 20
3.1276
 30
0.0
 10
29.4789
 20
3.1276
 30
0.0
  0
SPLINE
  5
6E
330
1F
100
AcDbEntity
  8
ROUND
 62
   250
100
AcDbSpline
210
0.0
220
0.0
230
1.0
 70
    24
 71
     3
 72
     8
 73
     4
 74
     0
 42
0.0000000001
 43
0.0000000001
 40
0.0
 40
0.0
 40
0.0
 40
0.0
 40
1.0
 40
1.0
 40
1.0
 40
1.0
 10
30.925
 20
3.1276
 30
0.0
 10
30.925
 20
3.1276
 30
0.0
 10
30.925
 20
4.2846
 30
0.0
 10
30.925
 20
4.2846
 30
0.0
  0
SPLINE
  5
6F
330
1F
100
AcDbEntity
  8
ROUND
 62
   250
100
AcDbSpline
210
0.0
220
0.0
230
1.0
 70
    24
 71
     3
 72
     8
 73
     4
 74
     0
 42
0.0000000001
 43
0.0000000001
 40
0.0
 40
0.0
 40
0.0
 40
0.0
 40
1.0
 40
1.0
 40
1.0
 40
1.0
 10
28.8589
 20
-17.6972
 30
0.0
 10
28.8589
 20
-17.6972
 30
0.0
 10
29.4789
 20
-15.3833
 30
0.0
 10
29.4789
 20
-15.3833
 30
0.0
  0
ENDSEC
  0
SECTION
  2
OBJECTS
  0
DICTIONARY
  5
C
330
0
100
AcDbDictionary
  3
ACAD_GROUP
350
D
  3
ACAD_LAYOUT
350
1A
  3
ACAD_MATERIAL
350
3B
  3
ACAD_MLEADERSTYLE
350
92
  3
ACAD_MLINESTYLE
350
17
  3
ACAD_PLOTSETTINGS
350
19
  3
ACAD_VISUALSTYLE
350
2A
  3
ACDBHEADERROUNDTRIPXREC
350
70
  3
ACDBVARIABLEDICTIONARY
350
90
  0
DICTIONARY
  5
D
102
{ACAD_REACTORS
330
C
102
}
330
C
100
AcDbDictionary
  0
DICTIONARY
  5
1A
102
{ACAD_REACTORS
330
C
102
}
330
C
100
AcDbDictionary
  0
DICTIONARY
  5
3B
102
{ACAD_REACTORS
330
C
102
}
330
C
100
AcDbDictionary
  3
BYBLOCK
350
3D
  3
BYLAYER
350
3C
  3
GLOBAL
350
3E
  0
DICTIONARY
  5
92
102
{ACAD_REACTORS
330
C
102
}
330
C
100
AcDbDictionary
  0
DICTIONARY
  5
17
102
{ACAD_REACTORS
330
C
102
}
330
C
100
AcDbDictionary
  3
STANDARD
350
18
  0
DICTIONARY
  5
19
102
{ACAD_REACTORS
330
C
102
}
330
C
100
AcDbDictionary
  0
DICTIONARY
  5
2A
102
{ACAD_REACTORS
330
C
102
}
330
C
100
AcDbDictionary
  3
2DWIREFRAME
350
2F
  3
3D_HIDDEN
350
31
  3
3DWIREFRAME
350
30
  3
BASIC
350
32
  3
BRIGHTEN
350
36
  3
COLORCHANGE
350
3A
  3
CONCEPTUAL
350
34
  3
DIM
350
35
  3
FACEPATTERN
350
39
  3
FLAT
350
2B
  3
FLATWITHEDGES
350
2C
  3
GOURAUD
350
2D
  3
GOURAUDWITHEDGES
350
2E
  3
LINEPATTERN
350
38
  3
REALISTIC
350
33
  3
THICKEN
350
37
  0
DICTIONARY
  5
70
102
{ACAD_REACTORS
330
C
102
}
330
C
100
AcDbDictionary
  3
CEPSNTYPE
350
79
  3
DIMSTYLEDATA
350
8F
  3
FINGERPRINTGUID
350
7A
  3
HYPERLINKBASE
350
73
  3
INSUNITS
350
78
  3
LAYOUTDICT
350
75
  3
LWETCUNION
350
77
  3
PLOTSETDICT
350
76
  3
PSVPSCALE
350
7C
  3
PUCSBASE
350
7F
  3
PUCSORGBACK
350
85
  3
PUCSORGBOTTOM
350
81
  3
PUCSORGFRONT
350
84
  3
PUCSORGLEFT
350
82
  3
PUCSORGRIGHT
350
83
  3
PUCSORGTOP
350
80
  3
PUCSORTHOREF
350
7D
  3
PUCSORTHOVIEW
350
7E
  3
STYLESHEET
350
74
  3
TSTACKALIGN
350
71
  3
TSTACKSIZE
350
72
  3
UCSBASE
350
88
  3
UCSORGBACK
350
8E
  3
UCSORGBOTTOM
350
8A
  3
UCSORGFRONT
350
8D
  3
UCSORGLEFT
350
8B
  3
UCSORGRIGHT
350
8C
  3
UCSORGTOP
350
89
  3
UCSORTHOREF
350
86
  3
UCSORTHOVIEW
350
87
  3
VERSIONGUID
350
7B
  0
DICTIONARY
  5
90
102
{ACAD_REACTORS
330
C
102
}
330
C
100
AcDbDictionary
  3
DIMASSOC
350
93
  3
HIDETEXT
350
94
  0
MATERIAL
  5
3D
102
{ACAD_REACTORS
330
3B
102
}
102
{ACAD_XDICTIONARY
360
97
102
}
330
3B
100
AcDbMaterial
  1
ByBlock
  0
MATERIAL
  5
3C
102
{ACAD_REACTORS
330
3B
102
}
102
{ACAD_XDICTIONARY
360
95
102
}
330
3B
100
AcDbMaterial
  1
ByLayer
  0
MATERIAL
  5
3E
102
{ACAD_REACTORS
330
3B
102
}
102
{ACAD_XDICTIONARY
360
99
102
}
330
3B
100
AcDbMaterial
  1
Global
  0
MLINESTYLE
  5
18
102
{ACAD_REACTORS
330
17
102
}
330
17
100
AcDbMlineStyle
  2
Standard
 70
     0
  3

 62
   256
 51
90.0
 52
90.0
 71
     2
 49
0.5
 62
   256
  6
BYLAYER
 49
-0.5
 62
   256
  6
BYLAYER
  0
ACAD_PROXY_OBJECT
  5
2F
102
{ACAD_REACTORS
330
2A
102
}
330
2A
100
AcDbProxyObject
 90
      499
 91
      501
 93
      436
310
42CC9915DA5C99599C985B595049028333333333333E3BF0000000000000FB0107901411070040501600405405064090741402480A0340
1001
ACAD
1000
AcDbSavedByObjectVersion
1070
     0
  0
ACAD_PROXY_OBJECT
  5
31
102
{ACAD_REACTORS
330
2A
102
}
330
2A
100
AcDbProxyObject
 90
      499
 91
      501
 93
      500
310
424CD108121A5919195B90640502408333333333333E3BF0000000000000FB01079024090700405020000000000001110200405405064090740C02480A0340
1001
ACAD
1000
AcDbSavedByObjectVersion
1070
     0
  0
ACAD_PROXY_OBJECT
  5
30
102
{ACAD_REACTORS
330
2A
102
}
330
2A
100
AcDbProxyObject
 90
      499
 91
      501
 93
      436
310
42CCD915DA5C99599C985B595059028333333333333E3BF0000000000000FB0107901411070040501600405405064090741402480A0340
1001
ACAD
1000
AcDbSavedByObjectVersion
1070
     0
  0
ACAD_PROXY_OBJECT
  5
32
102
{ACAD_REACTORS
330
2A
102
}
330
2A
100
AcDbProxyObject
 90
      499
 91
      501
 93
      388
310
4150985CDA58D07406404333333333333E3BF0000000000000FB0107A41107004050150841D405064090741402480A0350
1001
ACAD
1000
AcDbSavedByObjectVersion
1070
     0
  0
ACAD_PROXY_OBJECT
  5
36
102
{ACAD_REACTORS
330
2A
102
}
330
2A
100
AcDbProxyObject
 90
      499
 91
      501
 93
      428
310
42109C9A59DA1D195B90C409028333333333333E3BF0000000000000FB010790141107004050150841D405064090741402480A029950
1001
ACAD
1000
AcDbSavedByObjectVersion
1070
     0
  0
ACAD_PROXY_OBJECT
  5
3A
102
{ACAD_REACTORS
330
2A
102
}
330
2A
100
AcDbProxyObject
 90
      499
 91
      501
 93
      452
310
42D0DBDB1BDC90DA185B99D95104090240C333333333333E3BF0000000000000FB0108901411070040501508421405064090741402480A0350
1001
ACAD
1000
AcDbSavedByObjectVersion
1070
     0
  0
ACAD_PROXY_OBJECT
  5
34
102
{ACAD_REACTORS
330
2A
102
}
330
2A
100
AcDbProxyObject
 90
      499
 91
      501
 93
      500
310
4290DBDB98D95C1D1D585B10940D028333333333333E3BF0000000000000FB0107902409070040501000000000000111010841D405064090740C02480A0340
1001
ACAD
1000
AcDbSavedByObjectVersion
1070
     0
  0
ACAD_PROXY_OBJECT
  5
35
102
{ACAD_REACTORS
330
2A
102
}
330
2A
100
AcDbProxyObject
 90
      499
 91
      501
 93
      412
310
40D11A5B50B409028333333333333E3BF0000000000000FB010790141107004050150841D405064090741402480A02677FFFFFD0
1001
ACAD
1000
AcDbSavedByObjectVersion
1070
     0
  0
ACAD_PROXY_OBJECT
  5
39
102
{ACAD_REACTORS
330
2A
102
}
330
2A
100
AcDbProxyObject
 90
      499
 91
      501
 93
      444
310
42D19858D95C185D1D195C9B90F409028333333333333E3BF0000000000000FB010790141107004050150841D405064090741402480A0350
1001
ACAD
1000
AcDbSavedByObjectVersion
1070
     0
  0
ACAD_PROXY_OBJECT
  5
2B
102
{ACAD_REACTORS
330
2A
102
}
330
2A
100
AcDbProxyObject
 90
      499
 91
      501
 93
      388
310
41119B185D240901404333333333333E3BF0000000000000F9010740A41107004050150841D405064090741402480A1B50
1001
ACAD
1000
AcDbSavedByObjectVersion
1070
     0
  0
ACAD_PROXY_OBJECT
  5
2C
102
{ACAD_REACTORS
330
2A
102
}
330
2A
100
AcDbProxyObject
 90
      499
 91
      501
 93
      476
310
43519B185D15DA5D1A115919D95CD0140901404333333333333E3BF0000000000000F9010740901411070040501600405405064090741402480A1B50
1001
ACAD
1000
AcDbSavedByObjectVersion
1070
     0
  0
ACAD_PROXY_OBJECT
  5
2D
102
{ACAD_REACTORS
330
2A
102
}
330
2A
100
AcDbProxyObject
 90
      499
 91
      501
 93
      412
310
41D1DBDD5C985D5910240902404333333333333E3BF0000000000000F9010740A411070040501641D405064090741402480A1B50
1001
ACAD
1000
AcDbSavedByObjectVersion
1070
     0
  0
ACAD_PROXY_OBJECT
  5
2E
102
{ACAD_REACTORS
330
2A
102
}
330
2A
100
AcDbProxyObject
 90
      499
 91
      501
 93
      500
310
4411DBDD5C985D5915DA5D1A115919D95CD0340902404333333333333E3BF0000000000000F9010740901411070040501600405405064090741402480A1B50
1001
ACAD
1000
AcDbSavedByObjectVersion
1070
     0
  0
ACAD_PROXY_OBJECT
  5
38
102
{ACAD_REACTORS
330
2A
102
}
330
2A
100
AcDbProxyObject
 90
      499
 91
      501
 93
      444
310
42D31A5B995C185D1D195C9B90E409028333333333333E3BF0000000000000FB010790141107004050750841D405064090741402483A0350
1001
ACAD
1000
AcDbSavedByObjectVersion
1070
     0
  0
ACAD_PROXY_OBJECT
  5
33
102
{ACAD_REACTORS
330
2A
102
}
330
2A
100
AcDbProxyObject
 90
      499
 91
      501
 93
      420
310
425499585B1A5CDD1A58D08409028333333333333E3BF0000000000000FB01079019070040501508421405064090741402480A1B40
1001
ACAD
1000
AcDbSavedByObjectVersion
1070
     0
  0
ACAD_PROXY_OBJECT
  5
37
102
{ACAD_REACTORS
330
2A
102
}
330
2A
100
AcDbProxyObject
 90
      499
 91
      501
 93
      412
310
41D51A1A58DAD95B90D409028333333333333E3BF0000000000000FB010790141107004050150C41D405064090741402480A0350
1001
ACAD
1000
AcDbSavedByObjectVersion
1070
     0
  0
XRECORD
  5
79
102
{ACAD_REACTORS
330
70
102
}
330
70
100
AcDbXrecord
 90
        0
  0
XRECORD
  5
8F
102
{ACAD_REACTORS
330
70
102
}
330
70
100
AcDbXrecord
1000
DSTYLE
1002
{
1070
   340
340
11
1002
}
  0
XRECORD
  5
7A
102
{ACAD_REACTORS
330
70
102
}
330
70
100
AcDbXrecord
  1
{F0D7BF62-2EBE-44C1-8710-1344DFDBB1E0}
  0
XRECORD
  5
73
102
{ACAD_REACTORS
330
70
102
}
330
70
100
AcDbXrecord
  1

  0
XRECORD
  5
78
102
{ACAD_REACTORS
330
70
102
}
330
70
100
AcDbXrecord
 90
        4
  0
XRECORD
  5
75
102
{ACAD_REACTORS
330
70
102
}
330
70
100
AcDbXrecord
340
1A
  0
XRECORD
  5
77
102
{ACAD_REACTORS
330
70
102
}
330
70
100
AcDbXrecord
 90
    10781
  0
XRECORD
  5
76
102
{ACAD_REACTORS
330
70
102
}
330
70
100
AcDbXrecord
340
19
  0
XRECORD
  5
7C
102
{ACAD_REACTORS
330
70
102
}
330
70
100
AcDbXrecord
 40
0.0
  0
XRECORD
  5
7F
102
{ACAD_REACTORS
330
70
102
}
330
70
100
AcDbXrecord
340
0
  0
XRECORD
  5
85
102
{ACAD_REACTORS
330
70
102
}
330
70
100
AcDbXrecord
 10
0.0
 20
0.0
 30
0.0
  0
XRECORD
  5
81
102
{ACAD_REACTORS
330
70
102
}
330
70
100
AcDbXrecord
 10
0.0
 20
0.0
 30
0.0
  0
XRECORD
  5
84
102
{ACAD_REACTORS
330
70
102
}
330
70
100
AcDbXrecord
 10
0.0
 20
0.0
 30
0.0
  0
XRECORD
  5
82
102
{ACAD_REACTORS
330
70
102
}
330
70
100
AcDbXrecord
 10
0.0
 20
0.0
 30
0.0
  0
XRECORD
  5
83
102
{ACAD_REACTORS
330
70
102
}
330
70
100
AcDbXrecord
 10
0.0
 20
0.0
 30
0.0
  0
XRECORD
  5
80
102
{ACAD_REACTORS
330
70
102
}
330
70
100
AcDbXrecord
 10
0.0
 20
0.0
 30
0.0
  0
XRECORD
  5
7D
102
{ACAD_REACTORS
330
70
102
}
330
70
100
AcDbXrecord
340
0
  0
XRECORD
  5
7E
102
{ACAD_REACTORS
330
70
102
}
330
70
100
AcDbXrecord
 70
     0
  0
XRECORD
  5
74
102
{ACAD_REACTORS
330
70
102
}
330
70
100
AcDbXrecord
  1

  0
XRECORD
  5
71
102
{ACAD_REACTORS
330
70
102
}
330
70
100
AcDbXrecord
 90
        1
  0
XRECORD
  5
72
102
{ACAD_REACTORS
330
70
102
}
330
70
100
AcDbXrecord
 90
       70
  0
XRECORD
  5
88
102
{ACAD_REACTORS
330
70
102
}
330
70
100
AcDbXrecord
340
0
  0
XRECORD
  5
8E
102
{ACAD_REACTORS
330
70
102
}
330
70
100
AcDbXrecord
 10
0.0
 20
0.0
 30
0.0
  0
XRECORD
  5
8A
102
{ACAD_REACTORS
330
70
102
}
330
70
100
AcDbXrecord
 10
0.0
 20
0.0
 30
0.0
  0
XRECORD
  5
8D
102
{ACAD_REACTORS
330
70
102
}
330
70
100
AcDbXrecord
 10
0.0
 20
0.0
 30
0.0
  0
XRECORD
  5
8B
102
{ACAD_REACTORS
330
70
102
}
330
70
100
AcDbXrecord
 10
0.0
 20
0.0
 30
0.0
  0
XRECORD
  5
8C
102
{ACAD_REACTORS
330
70
102
}
330
70
100
AcDbXrecord
 10
0.0
 20
0.0
 30
0.0
  0
XRECORD
  5
89
102
{ACAD_REACTORS
330
70
102
}
330
70
100
AcDbXrecord
 10
0.0
 20
0.0
 30
0.0
  0
XRECORD
  5
86
102
{ACAD_REACTORS
330
70
102
}
330
70
100
AcDbXrecord
340
0
  0
XRECORD
  5
87
102
{ACAD_REACTORS
330
70
102
}
330
70
100
AcDbXrecord
 70
     0
  0
XRECORD
  5
7B
102
{ACAD_REACTORS
330
70
102
}
330
70
100
AcDbXrecord
  1
{FAEB1C32-E019-11D5-929B-00C0DF256EC4}
  0
DICTIONARYVAR
  5
93
102
{ACAD_REACTORS
330
90
102
}
330
90
100
DictionaryVariables
280
     0
  1
2
  0
DICTIONARYVAR
  5
94
102
{ACAD_REACTORS
330
90
102
}
330
90
100
DictionaryVariables
280
     0
  1
1
  0
DICTIONARY
  5
97
330
3D
100
AcDbDictionary
280
     1
  3
ACAD_XREC_ROUNDTRIP
360
98
  0
DICTIONARY
  5
95
330
3C
100
AcDbDictionary
280
     1
  3
ACAD_XREC_ROUNDTRIP
360
96
  0
DICTIONARY
  5
99
330
3E
100
AcDbDictionary
280
     1
  3
ACAD_XREC_ROUNDTRIP
360
9A
  0
XRECORD
  5
98
102
{ACAD_REACTORS
330
97
102
}
330
97
100
AcDbXrecord
102
MATERIAL
148
0.0
149
0.0
149
0.0
 93
        0
 94
      127
282
     0
 72
     1
 77
     1
171
     1
175
     1
179
     1
273
     0
  0
XRECORD
  5
96
102
{ACAD_REACTORS
330
95
102
}
330
95
100
AcDbXrecord
102
MATERIAL
148
0.0
149
0.0
149
0.0
 93
        0
 94
      127
282
     0
 72
     1
 77
     1
171
     1
175
     1
179
     1
273
     0
  0
XRECORD
  5
9A
102
{ACAD_REACTORS
330
99
102
}
330
99
100
AcDbXrecord
102
MATERIAL
148
0.0
149
0.0
149
0.0
 93
        0
 94
      127
282
     0
 72
     1
 77
     1
171
     1
175
     1
179
     1
273
     0
  0
ENDSEC
  0
EOF
