  0
SECTION
  2
HEADER
  9
$ACADVER
  1
AC1014
  9
$ACADMAINTVER
 70
     9
  9
$DWGCODEPAGE
  3
ANSI_1250
  9
$INSBASE
 10
0.0
 20
0.0
 30
0.0
  9
$EXTMIN
 10
-41.4402
 20
-35.2829
 30
0.0
  9
$EXTMAX
 10
41.5812
 20
35.283
 30
0.0
  9
$LIMMIN
 10
0.0
 20
0.0
  9
$LIMMAX
 10
12.0
 20
9.0
  9
$ORTHOMODE
 70
     0
  9
$REGENMODE
 70
     1
  9
$FILLMODE
 70
     1
  9
$QTEXTMODE
 70
     0
  9
$MIRRTEXT
 70
     1
  9
$DRAGMODE
 70
     2
  9
$LTSCALE
 40
1.0
  9
$OSMODE
 70
    37
  9
$ATTMODE
 70
     1
  9
$TEXTSIZE
 40
0.2
  9
$TRACEWID
 40
0.05
  9
$TEXTSTYLE
  7
STANDARD
  9
$CLAYER
  8
0
  9
$CELTYPE
  6
BYLAYER
  9
$CECOLOR
 62
   256
  9
$CELTSCALE
 40
1.0
  9
$DELOBJ
 70
     1
  9
$DISPSILH
 70
     0
  9
$DIMSCALE
 40
1.0
  9
$DIMASZ
 40
0.18
  9
$DIMEXO
 40
0.0625
  9
$DIMDLI
 40
0.38
  9
$DIMRND
 40
0.0
  9
$DIMDLE
 40
0.0
  9
$DIMEXE
 40
0.18
  9
$DIMTP
 40
0.0
  9
$DIMTM
 40
0.0
  9
$DIMTXT
 40
0.18
  9
$DIMCEN
 40
0.09
  9
$DIMTSZ
 40
0.0
  9
$DIMTOL
 70
     0
  9
$DIMLIM
 70
     0
  9
$DIMTIH
 70
     1
  9
$DIMTOH
 70
     1
  9
$DIMSE1
 70
     0
  9
$DIMSE2
 70
     0
  9
$DIMTAD
 70
     0
  9
$DIMZIN
 70
     0
  9
$DIMBLK
  1

  9
$DIMASO
 70
     1
  9
$DIMSHO
 70
     1
  9
$DIMPOST
  1

  9
$DIMAPOST
  1

  9
$DIMALT
 70
     0
  9
$DIMALTD
 70
     2
  9
$DIMALTF
 40
25.4
  9
$DIMLFAC
 40
1.0
  9
$DIMTOFL
 70
     0
  9
$DIMTVP
 40
0.0
  9
$DIMTIX
 70
     0
  9
$DIMSOXD
 70
     0
  9
$DIMSAH
 70
     0
  9
$DIMBLK1
  1

  9
$DIMBLK2
  1

  9
$DIMSTYLE
  2
STANDARD
  9
$DIMCLRD
 70
     0
  9
$DIMCLRE
 70
     0
  9
$DIMCLRT
 70
     0
  9
$DIMTFAC
 40
1.0
  9
$DIMGAP
 40
0.09
  9
$DIMJUST
 70
     0
  9
$DIMSD1
 70
     0
  9
$DIMSD2
 70
     0
  9
$DIMTOLJ
 70
     1
  9
$DIMTZIN
 70
     0
  9
$DIMALTZ
 70
     0
  9
$DIMALTTZ
 70
     0
  9
$DIMFIT
 70
     3
  9
$DIMUPT
 70
     0
  9
$DIMUNIT
 70
     2
  9
$DIMDEC
 70
     4
  9
$DIMTDEC
 70
     4
  9
$DIMALTU
 70
     2
  9
$DIMALTTD
 70
     2
  9
$DIMTXSTY
  7
STANDARD
  9
$DIMAUNIT
 70
     0
  9
$LUNITS
 70
     2
  9
$LUPREC
 70
     4
  9
$SKETCHINC
 40
0.1
  9
$FILLETRAD
 40
0.5
  9
$AUNITS
 70
     0
  9
$AUPREC
 70
     0
  9
$MENU
  1
.
  9
$ELEVATION
 40
0.0
  9
$PELEVATION
 40
0.0
  9
$THICKNESS
 40
0.0
  9
$LIMCHECK
 70
     0
  9
$CHAMFERA
 40
0.5
  9
$CHAMFERB
 40
0.5
  9
$CHAMFERC
 40
1.0
  9
$CHAMFERD
 40
0.0
  9
$SKPOLY
 70
     0
  9
$TDCREATE
 40
2456272.414914248
  9
$TDUPDATE
 40
2456272.414914259
  9
$TDINDWG
 40
0.0000000116
  9
$TDUSRTIMER
 40
0.0000000116
  9
$USRTIMER
 70
     1
  9
$ANGBASE
 50
0.0
  9
$ANGDIR
 70
     0
  9
$PDMODE
 70
     0
  9
$PDSIZE
 40
0.0
  9
$PLINEWID
 40
0.0
  9
$COORDS
 70
     1
  9
$SPLFRAME
 70
     0
  9
$SPLINETYPE
 70
     6
  9
$SPLINESEGS
 70
     8
  9
$ATTDIA
 70
     0
  9
$ATTREQ
 70
     1
  9
$HANDLING
 70
     1
  9
$HANDSEED
  5
B3
  9
$SURFTAB1
 70
     6
  9
$SURFTAB2
 70
     6
  9
$SURFTYPE
 70
     6
  9
$SURFU
 70
     6
  9
$SURFV
 70
     6
  9
$UCSNAME
  2

  9
$UCSORG
 10
0.0
 20
0.0
 30
0.0
  9
$UCSXDIR
 10
1.0
 20
0.0
 30
0.0
  9
$UCSYDIR
 10
0.0
 20
1.0
 30
0.0
  9
$PUCSNAME
  2

  9
$PUCSORG
 10
0.0
 20
0.0
 30
0.0
  9
$PUCSXDIR
 10
1.0
 20
0.0
 30
0.0
  9
$PUCSYDIR
 10
0.0
 20
1.0
 30
0.0
  9
$USERI1
 70
     0
  9
$USERI2
 70
     0
  9
$USERI3
 70
     0
  9
$USERI4
 70
     0
  9
$USERI5
 70
     0
  9
$USERR1
 40
0.0
  9
$USERR2
 40
0.0
  9
$USERR3
 40
0.0
  9
$USERR4
 40
0.0
  9
$USERR5
 40
0.0
  9
$WORLDVIEW
 70
     1
  9
$SHADEDGE
 70
     3
  9
$SHADEDIF
 70
    70
  9
$TILEMODE
 70
     1
  9
$MAXACTVP
 70
    64
  9
$PINSBASE
 10
0.0
 20
0.0
 30
0.0
  9
$PLIMCHECK
 70
     0
  9
$PEXTMIN
 10
1.000000000000000E+20
 20
1.000000000000000E+20
 30
1.000000000000000E+20
  9
$PEXTMAX
 10
-1.000000000000000E+20
 20
-1.000000000000000E+20
 30
-1.000000000000000E+20
  9
$PLIMMIN
 10
0.0
 20
0.0
  9
$PLIMMAX
 10
12.0
 20
9.0
  9
$UNITMODE
 70
     0
  9
$VISRETAIN
 70
     1
  9
$PLINEGEN
 70
     0
  9
$PSLTSCALE
 70
     1
  9
$TREEDEPTH
 70
  3020
  9
$PICKSTYLE
 70
     1
  9
$CMLSTYLE
  2
STANDARD
  9
$CMLJUST
 70
     0
  9
$CMLSCALE
 40
1.0
  9
$PROXYGRAPHICS
 70
     1
  9
$MEASUREMENT
 70
     0
  0
ENDSEC
  0
SECTION
  2
CLASSES
  0
CLASS
  1
ACDBDICTIONARYWDFLT
  2
AcDbDictionaryWithDefault
  3
ObjectDBX Classes
 90
        0
280
     0
281
     0
  0
CLASS
  1
VISUALSTYLE
  2
AcDbVisualStyle
  3
ObjectDBX Classes
 90
     4095
280
     0
281
     0
  0
CLASS
  1
MATERIAL
  2
AcDbMaterial
  3
ObjectDBX Classes
 90
     1153
280
     0
281
     0
  0
CLASS
  1
DICTIONARYVAR
  2
AcDbDictionaryVar
  3
ObjectDBX Classes
 90
        0
280
     0
281
     0
  0
CLASS
  1
XRECORD
  2
AcDbXrecord
  3
AutoCAD 2000
 90
        0
280
     0
281
     0
  0
CLASS
  1
LWPOLYLINE
  2
AcDbPolyline
  3
AutoCAD 2000
 90
        0
280
     0
281
     1
  0
CLASS
  1
HATCH
  2
AcDbHatch
  3
AutoCAD 2000
 90
        0
280
     0
281
     1
  0
CLASS
  1
ACDBPLACEHOLDER
  2
AcDbPlaceHolder
  3
ObjectDBX Classes
 90
        0
280
     0
281
     0
  0
CLASS
  1
LAYOUT
  2
AcDbLayout
  3
ObjectDBX Classes
 90
        0
280
     0
281
     0
  0
ENDSEC
  0
SECTION
  2
TABLES
  0
TABLE
  2
VPORT
  5
8
330
0
100
AcDbSymbolTable
 70
     1
  0
VPORT
  5
29
330
8
100
AcDbSymbolTableRecord
100
AcDbViewportTableRecord
  2
*ACTIVE
 70
     0
 10
0.0
 20
0.0
 11
1.0
 21
1.0
 12
10.42990654205607
 22
4.5
 13
0.0
 23
0.0
 14
0.5
 24
0.5
 15
0.5
 25
0.5
 16
0.0
 26
0.0
 36
1.0
 17
0.0
 27
0.0
 37
0.0
 40
9.0
 41
1.972972972850329
 42
50.0
 43
0.0
 44
0.0
 50
0.0
 51
0.0
 71
     0
 72
   100
 73
     1
 74
     3
 75
     0
 76
     0
 77
     0
 78
     0
  0
ENDTAB
  0
TABLE
  2
LTYPE
  5
5
330
0
100
AcDbSymbolTable
 70
     4
  0
LTYPE
  5
14
330
5
100
AcDbSymbolTableRecord
100
AcDbLinetypeTableRecord
  2
BYBLOCK
 70
     0
  3

 72
    65
 73
     0
 40
0.0
  0
LTYPE
  5
15
330
5
100
AcDbSymbolTableRecord
100
AcDbLinetypeTableRecord
  2
BYLAYER
 70
     0
  3

 72
    65
 73
     0
 40
0.0
  0
LTYPE
  5
16
330
5
100
AcDbSymbolTableRecord
100
AcDbLinetypeTableRecord
  2
CONTINUOUS
 70
     0
  3
Solid line
 72
    65
 73
     0
 40
0.0
  0
LTYPE
  5
70
330
5
100
AcDbSymbolTableRecord
100
AcDbLinetypeTableRecord
  2
NEW_LINE1
 70
     0
  3

 72
    65
 73
     4
 40
1.2
 49
0.5
 74
     4
 75
     0
340
0
 46
1.0
 50
0.0
 44
0.0
 45
0.0
 49
-0.3
 74
     4
 75
     0
340
0
 46
1.0
 50
0.0
 44
0.0
 45
0.0
 49
0.1
 74
     4
 75
     0
340
0
 46
1.0
 50
0.0
 44
0.0
 45
0.0
 49
-0.3
 74
     4
 75
     0
340
0
 46
1.0
 50
0.0
 44
0.0
 45
0.0
  0
LTYPE
  5
73
330
5
100
AcDbSymbolTableRecord
100
AcDbLinetypeTableRecord
  2
NEW_LINE2
 70
     0
  3

 72
    65
 73
     4
 40
1.2
 49
0.5
 74
     4
 75
     0
340
0
 46
1.0
 50
0.0
 44
0.0
 45
0.0
 49
-0.3
 74
     4
 75
     0
340
0
 46
1.0
 50
0.0
 44
0.0
 45
0.0
 49
0.1
 74
     4
 75
     0
340
0
 46
1.0
 50
0.0
 44
0.0
 45
0.0
 49
-0.3
 74
     4
 75
     0
340
0
 46
1.0
 50
0.0
 44
0.0
 45
0.0
  0
LTYPE
  5
81
330
5
100
AcDbSymbolTableRecord
100
AcDbLinetypeTableRecord
  2
NEW_LINE3
 70
     0
  3

 72
    65
 73
     4
 40
1.2
 49
0.5
 74
     4
 75
     0
340
0
 46
1.0
 50
0.0
 44
0.0
 45
0.0
 49
-0.3
 74
     4
 75
     0
340
0
 46
1.0
 50
0.0
 44
0.0
 45
0.0
 49
0.1
 74
     4
 75
     0
340
0
 46
1.0
 50
0.0
 44
0.0
 45
0.0
 49
-0.3
 74
     4
 75
     0
340
0
 46
1.0
 50
0.0
 44
0.0
 45
0.0
  0
ENDTAB
  0
TABLE
  2
LAYER
  5
2
330
0
100
AcDbSymbolTable
 70
     2
  0
LAYER
  5
10
330
2
100
AcDbSymbolTableRecord
100
AcDbLayerTableRecord
  2
0
 70
     0
 62
     7
  6
CONTINUOUS
  0
LAYER
  5
40
330
2
100
AcDbSymbolTableRecord
100
AcDbLayerTableRecord
  2
ROUND
 70
     0
 62
     7
  6
CONTINUOUS
  0
ENDTAB
  0
TABLE
  2
STYLE
  5
3
330
0
100
AcDbSymbolTable
 70
     1
  0
STYLE
  5
11
330
3
100
AcDbSymbolTableRecord
100
AcDbTextStyleTableRecord
  2
STANDARD
 70
     0
 40
0.0
 41
1.0
 50
0.0
 71
     0
 42
0.2
  3
txt
  4

  0
ENDTAB
  0
TABLE
  2
VIEW
  5
6
330
0
100
AcDbSymbolTable
 70
     0
  0
ENDTAB
  0
TABLE
  2
UCS
  5
7
330
0
100
AcDbSymbolTable
 70
     0
  0
ENDTAB
  0
TABLE
  2
APPID
  5
9
330
0
100
AcDbSymbolTable
 70
     2
  0
APPID
  5
12
330
9
100
AcDbSymbolTableRecord
100
AcDbRegAppTableRecord
  2
ACAD
 70
     0
  0
APPID
  5
3F
330
9
100
AcDbSymbolTableRecord
100
AcDbRegAppTableRecord
  2
ODA
 70
     0
  0
ENDTAB
  0
TABLE
  2
DIMSTYLE
  5
A
330
0
100
AcDbSymbolTable
 70
     1
  0
DIMSTYLE
105
27
330
A
100
AcDbSymbolTableRecord
100
AcDbDimStyleTableRecord
  2
STANDARD
 70
     0
  3

  4

  5

  6

  7

 40
1.0
 41
0.18
 42
0.0625
 43
0.38
 44
0.18
 45
0.0
 46
0.0
 47
0.0
 48
0.0
140
0.18
141
0.09
142
0.0
143
25.4
144
1.0
145
0.0
146
1.0
147
0.09
 71
     0
 72
     0
 73
     1
 74
     1
 75
     0
 76
     0
 77
     0
 78
     0
170
     0
171
     2
172
     0
173
     0
174
     0
175
     0
176
     0
177
     0
178
     0
270
     2
271
     4
272
     4
273
     2
274
     2
340
11
275
     0
280
     0
281
     0
282
     0
283
     1
284
     0
285
     0
286
     0
287
     3
288
     0
  0
ENDTAB
  0
TABLE
  2
BLOCK_RECORD
  5
1
330
0
100
AcDbSymbolTable
 70
     1
  0
BLOCK_RECORD
  5
1F
330
1
100
AcDbSymbolTableRecord
100
AcDbBlockTableRecord
  2
*MODEL_SPACE
  0
BLOCK_RECORD
  5
1B
330
1
100
AcDbSymbolTableRecord
100
AcDbBlockTableRecord
  2
*PAPER_SPACE
  0
ENDTAB
  0
ENDSEC
  0
SECTION
  2
BLOCKS
  0
BLOCK
  5
20
330
1F
100
AcDbEntity
  8
0
100
AcDbBlockBegin
  2
*MODEL_SPACE
 70
     0
 10
0.0
 20
0.0
 30
0.0
  3
*MODEL_SPACE
  1

  0
ENDBLK
  5
21
330
1F
100
AcDbEntity
  8
0
100
AcDbBlockEnd
  0
BLOCK
  5
1C
330
1B
100
AcDbEntity
 67
     1
  8
0
100
AcDbBlockBegin
  2
*PAPER_SPACE
 70
     0
 10
0.0
 20
0.0
 30
0.0
  3
*PAPER_SPACE
  1

  0
ENDBLK
  5
1D
330
1B
100
AcDbEntity
 67
     1
  8
0
100
AcDbBlockEnd
  0
ENDSEC
  0
SECTION
  2
ENTITIES
  0
SPLINE
  5
41
330
1F
100
AcDbEntity
  8
ROUND
 62
   250
100
AcDbSpline
210
0.0
220
0.0
230
1.0
 70
    11
 71
     3
 72
    92
 73
    88
 74
     0
 42
0.0000000001
 43
0.0000000001
 40
0.0
 40
0.0
 40
0.0
 40
0.0
 40
0.0434782608695652
 40
0.0434782608695652
 40
0.0434782608695652
 40
0.0434782608695652
 40
0.0869565217391304
 40
0.0869565217391304
 40
0.0869565217391304
 40
0.0869565217391304
 40
0.1304347826086956
 40
0.1304347826086956
 40
0.1304347826086956
 40
0.1304347826086956
 40
0.1739130434782609
 40
0.1739130434782609
 40
0.1739130434782609
 40
0.1739130434782609
 40
0.2173913043478261
 40
0.2173913043478261
 40
0.2173913043478261
 40
0.2173913043478261
 40
0.2608695652173913
 40
0.2608695652173913
 40
0.2608695652173913
 40
0.2608695652173913
 40
0.3043478260869565
 40
0.3043478260869565
 40
0.3043478260869565
 40
0.3043478260869565
 40
0.3478260869565217
 40
0.3478260869565217
 40
0.3478260869565217
 40
0.3478260869565217
 40
0.391304347826087
 40
0.391304347826087
 40
0.391304347826087
 40
0.391304347826087
 40
0.4347826086956522
 40
0.4347826086956522
 40
0.4347826086956522
 40
0.4347826086956522
 40
0.4782608695652174
 40
0.4782608695652174
 40
0.4782608695652174
 40
0.4782608695652174
 40
0.5217391304347826
 40
0.5217391304347826
 40
0.5217391304347826
 40
0.5217391304347826
 40
0.5652173913043478
 40
0.5652173913043478
 40
0.5652173913043478
 40
0.5652173913043478
 40
0.6086956521739131
 40
0.6086956521739131
 40
0.6086956521739131
 40
0.6086956521739131
 40
0.6521739130434783
 40
0.6521739130434783
 40
0.6521739130434783
 40
0.6521739130434783
 40
0.6956521739130435
 40
0.6956521739130435
 40
0.6956521739130435
 40
0.6956521739130435
 40
0.7391304347826086
 40
0.7391304347826086
 40
0.7391304347826086
 40
0.7391304347826086
 40
0.782608695652174
 40
0.782608695652174
 40
0.782608695652174
 40
0.782608695652174
 40
0.8260869565217391
 40
0.8260869565217391
 40
0.8260869565217391
 40
0.8260869565217391
 40
0.8695652173913043
 40
0.8695652173913043
 40
0.8695652173913043
 40
0.8695652173913043
 40
0.9130434782608695
 40
0.9130434782608695
 40
0.9130434782608695
 40
0.9130434782608695
 40
1.0
 40
1.0
 40
1.0
 40
1.0
 10
6.9577
 20
33.2166
 30
0.0
 10
6.9577
 20
33.2166
 30
0.0
 10
7.3169
 20
33.247
 30
0.0
 10
7.3169
 20
33.247
 30
0.0
 10
7.3169
 20
33.247
 30
0.0
 10
7.3434
 20
33.072
 30
0.0
 10
7.405
 20
32.9411
 30
0.0
 10
7.5016
 20
32.8529
 30
0.0
 10
7.5016
 20
32.8529
 30
0.0
 10
7.5988
 20
32.7647
 30
0.0
 10
7.7155
 20
32.7206
 30
0.0
 10
7.8522
 20
32.7206
 30
0.0
 10
7.8522
 20
32.7206
 30
0.0
 10
8.0169
 20
32.7206
 30
0.0
 10
8.1562
 20
32.7829
 30
0.0
 10
8.2696
 20
32.9067
 30
0.0
 10
8.2696
 20
32.9067
 30
0.0
 10
8.3837
 20
33.0311
 30
0.0
 10
8.4408
 20
33.1958
 30
0.0
 10
8.4408
 20
33.4006
 30
0.0
 10
8.4408
 20
33.4006
 30
0.0
 10
8.4408
 20
33.5957
 30
0.0
 10
8.3864
 20
33.7493
 30
0.0
 10
8.2768
 20
33.8621
 30
0.0
 10
8.2768
 20
33.8621
 30
0.0
 10
8.1673
 20
33.9749
 30
0.0
 10
8.0241
 20
34.0313
 30
0.0
 10
7.8464
 20
34.0313
 30
0.0
 10
7.8464
 20
34.0313
 30
0.0
 10
7.7362
 20
34.0313
 30
0.0
 10
7.6371
 20
34.0061
 30
0.0
 10
7.5482
 20
33.9562
 30
0.0
 10
7.5482
 20
33.9562
 30
0.0
 10
7.4595
 20
33.9062
 30
0.0
 10
7.3902
 20
33.8414
 30
0.0
 10
7.3396
 20
33.7616
 30
0.0
 10
7.3396
 20
33.7616
 30
0.0
 10
7.3396
 20
33.7616
 30
0.0
 10
7.0186
 20
33.8031
 30
0.0
 10
7.0186
 20
33.8031
 30
0.0
 10
7.0186
 20
33.8031
 30
0.0
 10
7.0186
 20
33.8031
 30
0.0
 10
7.2883
 20
35.2331
 30
0.0
 10
7.2883
 20
35.2331
 30
0.0
 10
7.2883
 20
35.2331
 30
0.0
 10
7.2883
 20
35.2331
 30
0.0
 10
8.6729
 20
35.2331
 30
0.0
 10
8.6729
 20
35.2331
 30
0.0
 10
8.6729
 20
35.2331
 30
0.0
 10
8.6729
 20
35.2331
 30
0.0
 10
8.6729
 20
34.9064
 30
0.0
 10
8.6729
 20
34.9064
 30
0.0
 10
8.6729
 20
34.9064
 30
0.0
 10
8.6729
 20
34.9064
 30
0.0
 10
7.5619
 20
34.9064
 30
0.0
 10
7.5619
 20
34.9064
 30
0.0
 10
7.5619
 20
34.9064
 30
0.0
 10
7.5619
 20
34.9064
 30
0.0
 10
7.4115
 20
34.1584
 30
0.0
 10
7.4115
 20
34.1584
 30
0.0
 10
7.4115
 20
34.1584
 30
0.0
 10
7.5787
 20
34.2751
 30
0.0
 10
7.7544
 20
34.3334
 30
0.0
 10
7.9378
 20
34.3334
 30
0.0
 10
7.9378
 20
34.3334
 30
0.0
 10
8.1809
 20
34.3334
 30
0.0
 10
8.3857
 20
34.2492
 30
0.0
 10
8.553
 20
34.0806
 30
0.0
 10
8.553
 20
34.0806
 30
0.0
 10
8.7201
 20
33.9121
 30
0.0
 10
8.8038
 20
33.6956
 30
0.0
 10
8.8038
 20
33.4312
 30
0.0
 10
8.8038
 20
33.4312
 30
0.0
 10
8.8038
 20
33.179
 30
0.0
 10
8.7299
 20
32.9611
 30
0.0
 10
8.5834
 20
32.7777
 30
0.0
 10
8.5834
 20
32.7777
 30
0.0
 10
8.4046
 20
32.5528
 30
0.0
 10
8.1608
 20
32.44
 30
0.0
 10
7.8522
 20
32.44
 30
0.0
 10
7.8522
 20
32.44
 30
0.0
 10
7.5988
 20
32.44
 30
0.0
 10
7.3921
 20
32.5106
 30
0.0
 10
7.232
 20
32.6525
 30
0.0
 10
7.232
 20
32.6525
 30
0.0
 10
7.0718
 20
32.7946
 30
0.0
 10
6.9805
 20
32.9826
 30
0.0
 10
6.9577
 20
33.2166
 30
0.0
  0
SPLINE
  5
42
330
1F
100
AcDbEntity
  8
ROUND
 62
   250
100
AcDbSpline
210
0.0
220
0.0
230
1.0
 70
    11
 71
     3
 72
    92
 73
    88
 74
     0
 42
0.0000000001
 43
0.0000000001
 40
0.0
 40
0.0
 40
0.0
 40
0.0
 40
0.0434782608695652
 40
0.0434782608695652
 40
0.0434782608695652
 40
0.0434782608695652
 40
0.0869565217391304
 40
0.0869565217391304
 40
0.0869565217391304
 40
0.0869565217391304
 40
0.1304347826086956
 40
0.1304347826086956
 40
0.1304347826086956
 40
0.1304347826086956
 40
0.1739130434782609
 40
0.1739130434782609
 40
0.1739130434782609
 40
0.1739130434782609
 40
0.2173913043478261
 40
0.2173913043478261
 40
0.2173913043478261
 40
0.2173913043478261
 40
0.2608695652173913
 40
0.2608695652173913
 40
0.2608695652173913
 40
0.2608695652173913
 40
0.3043478260869565
 40
0.3043478260869565
 40
0.3043478260869565
 40
0.3043478260869565
 40
0.3478260869565217
 40
0.3478260869565217
 40
0.3478260869565217
 40
0.3478260869565217
 40
0.391304347826087
 40
0.391304347826087
 40
0.391304347826087
 40
0.391304347826087
 40
0.4347826086956522
 40
0.4347826086956522
 40
0.4347826086956522
 40
0.4347826086956522
 40
0.4782608695652174
 40
0.4782608695652174
 40
0.4782608695652174
 40
0.4782608695652174
 40
0.5217391304347826
 40
0.5217391304347826
 40
0.5217391304347826
 40
0.5217391304347826
 40
0.5652173913043478
 40
0.5652173913043478
 40
0.5652173913043478
 40
0.5652173913043478
 40
0.6086956521739131
 40
0.6086956521739131
 40
0.6086956521739131
 40
0.6086956521739131
 40
0.6521739130434783
 40
0.6521739130434783
 40
0.6521739130434783
 40
0.6521739130434783
 40
0.6956521739130435
 40
0.6956521739130435
 40
0.6956521739130435
 40
0.6956521739130435
 40
0.7391304347826086
 40
0.7391304347826086
 40
0.7391304347826086
 40
0.7391304347826086
 40
0.782608695652174
 40
0.782608695652174
 40
0.782608695652174
 40
0.782608695652174
 40
0.8260869565217391
 40
0.8260869565217391
 40
0.8260869565217391
 40
0.8260869565217391
 40
0.8695652173913043
 40
0.8695652173913043
 40
0.8695652173913043
 40
0.8695652173913043
 40
0.9130434782608695
 40
0.9130434782608695
 40
0.9130434782608695
 40
0.9130434782608695
 40
1.0
 40
1.0
 40
1.0
 40
1.0
 10
10.9176
 20
32.816
 30
0.0
 10
10.9176
 20
32.816
 30
0.0
 10
10.9176
 20
32.4873
 30
0.0
 10
10.9176
 20
32.4873
 30
0.0
 10
10.9176
 20
32.4873
 30
0.0
 10
10.9176
 20
32.4873
 30
0.0
 10
9.0773
 20
32.4873
 30
0.0
 10
9.0773
 20
32.4873
 30
0.0
 10
9.0773
 20
32.4873
 30
0.0
 10
9.0747
 20
32.5696
 30
0.0
 10
9.0877
 20
32.6487
 30
0.0
 10
9.1169
 20
32.7246
 30
0.0
 10
9.1169
 20
32.7246
 30
0.0
 10
9.1636
 20
32.8503
 30
0.0
 10
9.2387
 20
32.9735
 30
0.0
 10
9.3418
 20
33.0953
 30
0.0
 10
9.3418
 20
33.0953
 30
0.0
 10
9.4455
 20
33.2166
 30
0.0
 10
9.5947
 20
33.3572
 30
0.0
 10
9.7891
 20
33.5166
 30
0.0
 10
9.7891
 20
33.5166
 30
0.0
 10
10.0917
 20
33.7649
 30
0.0
 10
10.2966
 20
33.9613
 30
0.0
 10
10.4029
 20
34.1065
 30
0.0
 10
10.4029
 20
34.1065
 30
0.0
 10
10.5091
 20
34.2511
 30
0.0
 10
10.5623
 20
34.3885
 30
0.0
 10
10.5623
 20
34.5175
 30
0.0
 10
10.5623
 20
34.5175
 30
0.0
 10
10.5623
 20
34.6529
 30
0.0
 10
10.5137
 20
34.767
 30
0.0
 10
10.4172
 20
34.8603
 30
0.0
 10
10.4172
 20
34.8603
 30
0.0
 10
10.3199
 20
34.9531
 30
0.0
 10
10.1936
 20
34.9997
 30
0.0
 10
10.038
 20
34.9997
 30
0.0
 10
10.038
 20
34.9997
 30
0.0
 10
9.8733
 20
34.9997
 30
0.0
 10
9.7417
 20
34.9505
 30
0.0
 10
9.6432
 20
34.8512
 30
0.0
 10
9.6432
 20
34.8512
 30
0.0
 10
9.5441
 20
34.7527
 30
0.0
 10
9.4942
 20
34.616
 30
0.0
 10
9.4928
 20
34.4417
 30
0.0
 10
9.4928
 20
34.4417
 30
0.0
 10
9.4928
 20
34.4417
 30
0.0
 10
9.1415
 20
34.4772
 30
0.0
 10
9.1415
 20
34.4772
 30
0.0
 10
9.1415
 20
34.4772
 30
0.0
 10
9.1655
 20
34.7398
 30
0.0
 10
9.2562
 20
34.9394
 30
0.0
 10
9.4132
 20
35.0768
 30
0.0
 10
9.4132
 20
35.0768
 30
0.0
 10
9.57
 20
35.2142
 30
0.0
 10
9.7812
 20
35.283
 30
0.0
 10
10.0457
 20
35.283
 30
0.0
 10
10.0457
 20
35.283
 30
0.0
 10
10.3128
 20
35.283
 30
0.0
 10
10.5242
 20
35.2084
 30
0.0
 10
10.6797
 20
35.0607
 30
0.0
 10
10.6797
 20
35.0607
 30
0.0
 10
10.8359
 20
34.9122
 30
0.0
 10
10.9137
 20
34.7287
 30
0.0
 10
10.9137
 20
34.5096
 30
0.0
 10
10.9137
 20
34.5096
 30
0.0
 10
10.9137
 20
34.3981
 30
0.0
 10
10.891
 20
34.2886
 30
0.0
 10
10.845
 20
34.1811
 30
0.0
 10
10.845
 20
34.1811
 30
0.0
 10
10.7996
 20
34.0735
 30
0.0
 10
10.7237
 20
33.9601
 30
0.0
 10
10.6181
 20
33.8414
 30
0.0
 10
10.6181
 20
33.8414
 30
0.0
 10
10.5124
 20
33.7221
 30
0.0
 10
10.3367
 20
33.5588
 30
0.0
 10
10.0912
 20
33.3514
 30
0.0
 10
10.0912
 20
33.3514
 30
0.0
 10
9.8863
 20
33.179
 30
0.0
 10
9.7546
 20
33.0622
 30
0.0
 10
9.6964
 20
33.0006
 30
0.0
 10
9.6964
 20
33.0006
 30
0.0
 10
9.6381
 20
32.9397
 30
0.0
 10
9.5901
 20
32.8781
 30
0.0
 10
9.5518
 20
32.816
 30
0.0
 10
9.5518
 20
32.816
 30
0.0
 10
9.5518
 20
32.816
 30
0.0
 10
10.9176
 20
32.816
 30
0.0
 10
10.9176
 20
32.816
 30
0.0
  0
SPLINE
  5
43
330
1F
100
AcDbEntity
  8
ROUND
 62
   250
100
AcDbSpline
210
0.0
220
0.0
230
1.0
 70
    11
 71
     3
 72
    20
 73
    16
 74
     0
 42
0.0000000001
 43
0.0000000001
 40
0.0
 40
0.0
 40
0.0
 40
0.0
 40
0.2
 40
0.2
 40
0.2
 40
0.2
 40
0.4
 40
0.4
 40
0.4
 40
0.4
 40
0.6
 40
0.6
 40
0.6
 40
0.6
 40
1.0
 40
1.0
 40
1.0
 40
1.0
 10
35.7739
 20
-33.3138
 30
0.0
 10
35.7739
 20
-33.3138
 30
0.0
 10
39.9081
 20
-33.8973
 30
0.0
 10
39.9081
 20
-33.8973
 30
0.0
 10
39.9081
 20
-33.8973
 30
0.0
 10
39.9081
 20
-33.8973
 30
0.0
 10
39.9081
 20
-34.0268
 30
0.0
 10
39.9081
 20
-34.0268
 30
0.0
 10
39.9081
 20
-34.0268
 30
0.0
 10
39.9081
 20
-34.0268
 30
0.0
 10
35.7739
 20
-34.6491
 30
0.0
 10
35.7739
 20
-34.6491
 30
0.0
 10
35.7739
 20
-34.6491
 30
0.0
 10
35.7739
 20
-34.6491
 30
0.0
 10
35.7739
 20
-33.3138
 30
0.0
 10
35.7739
 20
-33.3138
 30
0.0
  0
SPLINE
  5
44
330
1F
100
AcDbEntity
  8
ROUND
 62
   250
100
AcDbSpline
210
0.0
220
0.0
230
1.0
 70
    11
 71
     3
 72
    20
 73
    16
 74
     0
 42
0.0000000001
 43
0.0000000001
 40
0.0
 40
0.0
 40
0.0
 40
0.0
 40
0.2
 40
0.2
 40
0.2
 40
0.2
 40
0.4
 40
0.4
 40
0.4
 40
0.4
 40
0.6
 40
0.6
 40
0.6
 40
0.6
 40
1.0
 40
1.0
 40
1.0
 40
1.0
 10
-19.0735
 20
-34.6257
 30
0.0
 10
-19.0735
 20
-34.6257
 30
0.0
 10
-23.2078
 20
-34.0424
 30
0.0
 10
-23.2078
 20
-34.0424
 30
0.0
 10
-23.2078
 20
-34.0424
 30
0.0
 10
-23.2078
 20
-34.0424
 30
0.0
 10
-23.2078
 20
-33.9127
 30
0.0
 10
-23.2078
 20
-33.9127
 30
0.0
 10
-23.2078
 20
-33.9127
 30
0.0
 10
-23.2078
 20
-33.9127
 30
0.0
 10
-19.0735
 20
-33.2905
 30
0.0
 10
-19.0735
 20
-33.2905
 30
0.0
 10
-19.0735
 20
-33.2905
 30
0.0
 10
-19.0735
 20
-33.2905
 30
0.0
 10
-19.0735
 20
-34.6257
 30
0.0
 10
-19.0735
 20
-34.6257
 30
0.0
  0
SPLINE
  5
45
330
1F
100
AcDbEntity
  8
ROUND
 62
   250
100
AcDbSpline
210
0.0
220
0.0
230
1.0
 70
    11
 71
     3
 72
   124
 73
   120
 74
     0
 42
0.0000000001
 43
0.0000000001
 40
0.0
 40
0.0
 40
0.0
 40
0.0
 40
0.032258064516129
 40
0.032258064516129
 40
0.032258064516129
 40
0.032258064516129
 40
0.0645161290322581
 40
0.0645161290322581
 40
0.0645161290322581
 40
0.0645161290322581
 40
0.0967741935483871
 40
0.0967741935483871
 40
0.0967741935483871
 40
0.0967741935483871
 40
0.1290322580645161
 40
0.1290322580645161
 40
0.1290322580645161
 40
0.1290322580645161
 40
0.1612903225806452
 40
0.1612903225806452
 40
0.1612903225806452
 40
0.1612903225806452
 40
0.1935483870967742
 40
0.1935483870967742
 40
0.1935483870967742
 40
0.1935483870967742
 40
0.2258064516129032
 40
0.2258064516129032
 40
0.2258064516129032
 40
0.2258064516129032
 40
0.2580645161290323
 40
0.2580645161290323
 40
0.2580645161290323
 40
0.2580645161290323
 40
0.2903225806451613
 40
0.2903225806451613
 40
0.2903225806451613
 40
0.2903225806451613
 40
0.3225806451612903
 40
0.3225806451612903
 40
0.3225806451612903
 40
0.3225806451612903
 40
0.3548387096774194
 40
0.3548387096774194
 40
0.3548387096774194
 40
0.3548387096774194
 40
0.3870967741935484
 40
0.3870967741935484
 40
0.3870967741935484
 40
0.3870967741935484
 40
0.4193548387096774
 40
0.4193548387096774
 40
0.4193548387096774
 40
0.4193548387096774
 40
0.4516129032258064
 40
0.4516129032258064
 40
0.4516129032258064
 40
0.4516129032258064
 40
0.4838709677419355
 40
0.4838709677419355
 40
0.4838709677419355
 40
0.4838709677419355
 40
0.5161290322580645
 40
0.5161290322580645
 40
0.5161290322580645
 40
0.5161290322580645
 40
0.5483870967741935
 40
0.5483870967741935
 40
0.5483870967741935
 40
0.5483870967741935
 40
0.5806451612903226
 40
0.5806451612903226
 40
0.5806451612903226
 40
0.5806451612903226
 40
0.6129032258064516
 40
0.6129032258064516
 40
0.6129032258064516
 40
0.6129032258064516
 40
0.6451612903225806
 40
0.6451612903225806
 40
0.6451612903225806
 40
0.6451612903225806
 40
0.6774193548387096
 40
0.6774193548387096
 40
0.6774193548387096
 40
0.6774193548387096
 40
0.7096774193548387
 40
0.7096774193548387
 40
0.7096774193548387
 40
0.7096774193548387
 40
0.7419354838709677
 40
0.7419354838709677
 40
0.7419354838709677
 40
0.7419354838709677
 40
0.7741935483870968
 40
0.7741935483870968
 40
0.7741935483870968
 40
0.7741935483870968
 40
0.8064516129032258
 40
0.8064516129032258
 40
0.8064516129032258
 40
0.8064516129032258
 40
0.8387096774193549
 40
0.8387096774193549
 40
0.8387096774193549
 40
0.8387096774193549
 40
0.8709677419354839
 40
0.8709677419354839
 40
0.8709677419354839
 40
0.8709677419354839
 40
0.9032258064516129
 40
0.9032258064516129
 40
0.9032258064516129
 40
0.9032258064516129
 40
0.9354838709677419
 40
0.9354838709677419
 40
0.9354838709677419
 40
0.9354838709677419
 40
1.0
 40
1.0
 40
1.0
 40
1.0
 10
-33.7879
 20
-14.1744
 30
0.0
 10
-33.7879
 20
-14.1744
 30
0.0
 10
-33.8333
 20
-13.8328
 30
0.0
 10
-33.8333
 20
-13.8328
 30
0.0
 10
-33.8333
 20
-13.8328
 30
0.0
 10
-33.6395
 20
-13.7932
 30
0.0
 10
-33.5002
 20
-13.7264
 30
0.0
 10
-33.4146
 20
-13.6324
 30
0.0
 10
-33.4146
 20
-13.6324
 30
0.0
 10
-33.329
 20
-13.5379
 30
0.0
 10
-33.2862
 20
-13.4231
 30
0.0
 10
-33.2862
 20
-13.2876
 30
0.0
 10
-33.2862
 20
-13.2876
 30
0.0
 10
-33.2862
 20
-13.1269
 30
0.0
 10
-33.342
 20
-12.9908
 30
0.0
 10
-33.4535
 20
-12.8798
 30
0.0
 10
-33.4535
 20
-12.8798
 30
0.0
 10
-33.565
 20
-12.7697
 30
0.0
 10
-33.7031
 20
-12.7139
 30
0.0
 10
-33.8677
 20
-12.7139
 30
0.0
 10
-33.8677
 20
-12.7139
 30
0.0
 10
-34.0246
 20
-12.7139
 30
0.0
 10
-34.1542
 20
-12.7652
 30
0.0
 10
-34.2559
 20
-12.8676
 30
0.0
 10
-34.2559
 20
-12.8676
 30
0.0
 10
-34.3576
 20
-12.9706
 30
0.0
 10
-34.4089
 20
-13.1009
 30
0.0
 10
-34.4089
 20
-13.2591
 30
0.0
 10
-34.4089
 20
-13.2591
 30
0.0
 10
-34.4089
 20
-13.3238
 30
0.0
 10
-34.3959
 20
-13.4043
 30
0.0
 10
-34.3707
 20
-13.5002
 30
0.0
 10
-34.3707
 20
-13.5002
 30
0.0
 10
-34.3707
 20
-13.5002
 30
0.0
 10
-34.6707
 20
-13.4619
 30
0.0
 10
-34.6707
 20
-13.4619
 30
0.0
 10
-34.6707
 20
-13.4619
 30
0.0
 10
-34.6682
 20
-13.4393
 30
0.0
 10
-34.6669
 20
-13.4211
 30
0.0
 10
-34.6669
 20
-13.4069
 30
0.0
 10
-34.6669
 20
-13.4069
 30
0.0
 10
-34.6669
 20
-13.2617
 30
0.0
 10
-34.7052
 20
-13.1308
 30
0.0
 10
-34.781
 20
-13.0141
 30
0.0
 10
-34.781
 20
-13.0141
 30
0.0
 10
-34.8568
 20
-12.8973
 30
0.0
 10
-34.9742
 20
-12.839
 30
0.0
 10
-35.1322
 20
-12.839
 30
0.0
 10
-35.1322
 20
-12.839
 30
0.0
 10
-35.2574
 20
-12.839
 30
0.0
 10
-35.3617
 20
-12.8819
 30
0.0
 10
-35.4434
 20
-12.9668
 30
0.0
 10
-35.4434
 20
-12.9668
 30
0.0
 10
-35.5257
 20
-13.0517
 30
0.0
 10
-35.5673
 20
-13.1612
 30
0.0
 10
-35.5673
 20
-13.2955
 30
0.0
 10
-35.5673
 20
-13.2955
 30
0.0
 10
-35.5673
 20
-13.4283
 30
0.0
 10
-35.5251
 20
-13.5391
 30
0.0
 10
-35.4422
 20
-13.6273
 30
0.0
 10
-35.4422
 20
-13.6273
 30
0.0
 10
-35.3585
 20
-13.716
 30
0.0
 10
-35.2327
 20
-13.7731
 30
0.0
 10
-35.0655
 20
-13.7984
 30
0.0
 10
-35.0655
 20
-13.7984
 30
0.0
 10
-35.0655
 20
-13.7984
 30
0.0
 10
-35.1265
 20
-14.1399
 30
0.0
 10
-35.1265
 20
-14.1399
 30
0.0
 10
-35.1265
 20
-14.1399
 30
0.0
 10
-35.3559
 20
-14.0985
 30
0.0
 10
-35.5335
 20
-14.0032
 30
0.0
 10
-35.6592
 20
-13.8554
 30
0.0
 10
-35.6592
 20
-13.8554
 30
0.0
 10
-35.785
 20
-13.7069
 30
0.0
 10
-35.8486
 20
-13.5228
 30
0.0
 10
-35.8486
 20
-13.3025
 30
0.0
 10
-35.8486
 20
-13.3025
 30
0.0
 10
-35.8486
 20
-13.1509
 30
0.0
 10
-35.8155
 20
-13.0109
 30
0.0
 10
-35.7507
 20
-12.8831
 30
0.0
 10
-35.7507
 20
-12.8831
 30
0.0
 10
-35.6853
 20
-12.7554
 30
0.0
 10
-35.5964
 20
-12.6575
 30
0.0
 10
-35.4837
 20
-12.5895
 30
0.0
 10
-35.4837
 20
-12.5895
 30
0.0
 10
-35.3708
 20
-12.5221
 30
0.0
 10
-35.2516
 20
-12.4878
 30
0.0
 10
-35.1245
 20
-12.4878
 30
0.0
 10
-35.1245
 20
-12.4878
 30
0.0
 10
-35.0046
 20
-12.4878
 30
0.0
 10
-34.8951
 20
-12.5202
 30
0.0
 10
-34.7959
 20
-12.5849
 30
0.0
 10
-34.7959
 20
-12.5849
 30
0.0
 10
-34.6973
 20
-12.6498
 30
0.0
 10
-34.6189
 20
-12.7451
 30
0.0
 10
-34.5606
 20
-12.8714
 30
0.0
 10
-34.5606
 20
-12.8714
 30
0.0
 10
-34.523
 20
-12.7069
 30
0.0
 10
-34.4439
 20
-12.5791
 30
0.0
 10
-34.324
 20
-12.4878
 30
0.0
 10
-34.324
 20
-12.4878
 30
0.0
 10
-34.2047
 20
-12.397
 30
0.0
 10
-34.055
 20
-12.3516
 30
0.0
 10
-33.8754
 20
-12.3516
 30
0.0
 10
-33.8754
 20
-12.3516
 30
0.0
 10
-33.6324
 20
-12.3516
 30
0.0
 10
-33.4262
 20
-12.4398
 30
0.0
 10
-33.2571
 20
-12.6173
 30
0.0
 10
-33.2571
 20
-12.6173
 30
0.0
 10
-33.0879
 20
-12.7944
 30
0.0
 10
-33.0037
 20
-13.0186
 30
0.0
 10
-33.0037
 20
-13.2895
 30
0.0
 10
-33.0037
 20
-13.2895
 30
0.0
 10
-33.0037
 20
-13.5339
 30
0.0
 10
-33.0762
 20
-13.7369
 30
0.0
 10
-33.2221
 20
-13.8982
 30
0.0
 10
-33.2221
 20
-13.8982
 30
0.0
 10
-33.3672
 20
-14.0596
 30
0.0
 10
-33.5559
 20
-14.1516
 30
0.0
 10
-33.7879
 20
-14.1744
 30
0.0
  0
SPLINE
  5
46
330
1F
100
AcDbEntity
  8
ROUND
 62
   250
100
AcDbSpline
210
0.0
220
0.0
230
1.0
 70
    11
 71
     3
 72
    68
 73
    64
 74
     0
 42
0.0000000001
 43
0.0000000001
 40
0.0
 40
0.0
 40
0.0
 40
0.0
 40
0.0588235294117647
 40
0.0588235294117647
 40
0.0588235294117647
 40
0.0588235294117647
 40
0.1176470588235294
 40
0.1176470588235294
 40
0.1176470588235294
 40
0.1176470588235294
 40
0.1764705882352941
 40
0.1764705882352941
 40
0.1764705882352941
 40
0.1764705882352941
 40
0.2352941176470588
 40
0.2352941176470588
 40
0.2352941176470588
 40
0.2352941176470588
 40
0.2941176470588235
 40
0.2941176470588235
 40
0.2941176470588235
 40
0.2941176470588235
 40
0.3529411764705883
 40
0.3529411764705883
 40
0.3529411764705883
 40
0.3529411764705883
 40
0.4117647058823529
 40
0.4117647058823529
 40
0.4117647058823529
 40
0.4117647058823529
 40
0.4705882352941176
 40
0.4705882352941176
 40
0.4705882352941176
 40
0.4705882352941176
 40
0.5294117647058824
 40
0.5294117647058824
 40
0.5294117647058824
 40
0.5294117647058824
 40
0.5882352941176471
 40
0.5882352941176471
 40
0.5882352941176471
 40
0.5882352941176471
 40
0.6470588235294118
 40
0.6470588235294118
 40
0.6470588235294118
 40
0.6470588235294118
 40
0.7058823529411765
 40
0.7058823529411765
 40
0.7058823529411765
 40
0.7058823529411765
 40
0.7647058823529411
 40
0.7647058823529411
 40
0.7647058823529411
 40
0.7647058823529411
 40
0.8235294117647058
 40
0.8235294117647058
 40
0.8235294117647058
 40
0.8235294117647058
 40
0.8823529411764706
 40
0.8823529411764706
 40
0.8823529411764706
 40
0.8823529411764706
 40
1.0
 40
1.0
 40
1.0
 40
1.0
 10
-34.5626
 20
-11.4869
 30
0.0
 10
-34.6144
 20
-11.629
 30
0.0
 10
-34.6882
 20
-11.734
 30
0.0
 10
-34.7848
 20
-11.8026
 30
0.0
 10
-34.7848
 20
-11.8026
 30
0.0
 10
-34.8807
 20
-11.8707
 30
0.0
 10
-34.9962
 20
-11.905
 30
0.0
 10
-35.1303
 20
-11.905
 30
0.0
 10
-35.1303
 20
-11.905
 30
0.0
 10
-35.3332
 20
-11.905
 30
0.0
 10
-35.5031
 20
-11.8324
 30
0.0
 10
-35.6412
 20
-11.6866
 30
0.0
 10
-35.6412
 20
-11.6866
 30
0.0
 10
-35.7792
 20
-11.5408
 30
0.0
 10
-35.8486
 20
-11.3476
 30
0.0
 10
-35.8486
 20
-11.1058
 30
0.0
 10
-35.8486
 20
-11.1058
 30
0.0
 10
-35.8486
 20
-10.8628
 30
0.0
 10
-35.7779
 20
-10.6669
 30
0.0
 10
-35.6366
 20
-10.5185
 30
0.0
 10
-35.6366
 20
-10.5185
 30
0.0
 10
-35.4952
 20
-10.3708
 30
0.0
 10
-35.3235
 20
-10.2968
 30
0.0
 10
-35.1207
 20
-10.2968
 30
0.0
 10
-35.1207
 20
-10.2968
 30
0.0
 10
-34.9917
 20
-10.2968
 30
0.0
 10
-34.8795
 20
-10.3305
 30
0.0
 10
-34.7836
 20
-10.3979
 30
0.0
 10
-34.7836
 20
-10.3979
 30
0.0
 10
-34.6882
 20
-10.466
 30
0.0
 10
-34.6144
 20
-10.5684
 30
0.0
 10
-34.5626
 20
-10.7065
 30
0.0
 10
-34.5626
 20
-10.7065
 30
0.0
 10
-34.5067
 20
-10.536
 30
0.0
 10
-34.4173
 20
-10.4058
 30
0.0
 10
-34.2929
 20
-10.3164
 30
0.0
 10
-34.2929
 20
-10.3164
 30
0.0
 10
-34.1691
 20
-10.2275
 30
0.0
 10
-34.0207
 20
-10.1828
 30
0.0
 10
-33.8489
 20
-10.1828
 30
0.0
 10
-33.8489
 20
-10.1828
 30
0.0
 10
-33.6103
 20
-10.1828
 30
0.0
 10
-33.4106
 20
-10.267
 30
0.0
 10
-33.2487
 20
-10.4349
 30
0.0
 10
-33.2487
 20
-10.4349
 30
0.0
 10
-33.0866
 20
-10.6034
 30
0.0
 10
-33.0056
 20
-10.8251
 30
0.0
 10
-33.0056
 20
-11.0999
 30
0.0
 10
-33.0056
 20
-11.0999
 30
0.0
 10
-33.0056
 20
-11.3748
 30
0.0
 10
-33.0866
 20
-11.5959
 30
0.0
 10
-33.2493
 20
-11.7644
 30
0.0
 10
-33.2493
 20
-11.7644
 30
0.0
 10
-33.412
 20
-11.933
 30
0.0
 10
-33.6149
 20
-12.0172
 30
0.0
 10
-33.8579
 20
-12.0172
 30
0.0
 10
-33.8579
 20
-12.0172
 30
0.0
 10
-34.0387
 20
-12.0172
 30
0.0
 10
-34.1905
 20
-11.9711
 30
0.0
 10
-34.313
 20
-11.8791
 30
0.0
 10
-34.313
 20
-11.8791
 30
0.0
 10
-34.4348
 20
-11.7877
 30
0.0
 10
-34.5185
 20
-11.6568
 30
0.0
 10
-34.5626
 20
-11.4869
 30
0.0
  0
SPLINE
  5
47
330
1F
100
AcDbEntity
  8
ROUND
 62
   250
100
AcDbSpline
210
0.0
220
0.0
230
1.0
 70
    11
 71
     3
 72
    36
 73
    32
 74
     0
 42
0.0000000001
 43
0.0000000001
 40
0.0
 40
0.0
 40
0.0
 40
0.0
 40
0.1111111111111111
 40
0.1111111111111111
 40
0.1111111111111111
 40
0.1111111111111111
 40
0.2222222222222222
 40
0.2222222222222222
 40
0.2222222222222222
 40
0.2222222222222222
 40
0.3333333333333333
 40
0.3333333333333333
 40
0.3333333333333333
 40
0.3333333333333333
 40
0.4444444444444444
 40
0.4444444444444444
 40
0.4444444444444444
 40
0.4444444444444444
 40
0.5555555555555556
 40
0.5555555555555556
 40
0.5555555555555556
 40
0.5555555555555556
 40
0.6666666666666666
 40
0.6666666666666666
 40
0.6666666666666666
 40
0.6666666666666666
 40
0.7777777777777778
 40
0.7777777777777778
 40
0.7777777777777778
 40
0.7777777777777778
 40
1.0
 40
1.0
 40
1.0
 40
1.0
 10
-35.142
 20
-11.5556
 30
0.0
 10
-35.0104
 20
-11.5556
 30
0.0
 10
-34.9028
 20
-11.5129
 30
0.0
 10
-34.8191
 20
-11.4286
 30
0.0
 10
-34.8191
 20
-11.4286
 30
0.0
 10
-34.7356
 20
-11.3437
 30
0.0
 10
-34.6935
 20
-11.2335
 30
0.0
 10
-34.6935
 20
-11.098
 30
0.0
 10
-34.6935
 20
-11.098
 30
0.0
 10
-34.6935
 20
-10.9664
 30
0.0
 10
-34.7349
 20
-10.8582
 30
0.0
 10
-34.8179
 20
-10.7739
 30
0.0
 10
-34.8179
 20
-10.7739
 30
0.0
 10
-34.9009
 20
-10.6897
 30
0.0
 10
-35.0027
 20
-10.6482
 30
0.0
 10
-35.1226
 20
-10.6482
 30
0.0
 10
-35.1226
 20
-10.6482
 30
0.0
 10
-35.2483
 20
-10.6482
 30
0.0
 10
-35.3533
 20
-10.6909
 30
0.0
 10
-35.4389
 20
-10.7779
 30
0.0
 10
-35.4389
 20
-10.7779
 30
0.0
 10
-35.5244
 20
-10.8647
 30
0.0
 10
-35.5673
 20
-10.9723
 30
0.0
 10
-35.5673
 20
-11.1019
 30
0.0
 10
-35.5673
 20
-11.1019
 30
0.0
 10
-35.5673
 20
-11.2322
 30
0.0
 10
-35.5251
 20
-11.3404
 30
0.0
 10
-35.4422
 20
-11.4267
 30
0.0
 10
-35.4422
 20
-11.4267
 30
0.0
 10
-35.3585
 20
-11.5129
 30
0.0
 10
-35.2581
 20
-11.5556
 30
0.0
 10
-35.142
 20
-11.5556
 30
0.0
  0
SPLINE
  5
48
330
1F
100
AcDbEntity
  8
ROUND
 62
   250
100
AcDbSpline
210
0.0
220
0.0
230
1.0
 70
    11
 71
     3
 72
    40
 73
    36
 74
     0
 42
0.0000000001
 43
0.0000000001
 40
0.0
 40
0.0
 40
0.0
 40
0.0
 40
0.1
 40
0.1
 40
0.1
 40
0.1
 40
0.2
 40
0.2
 40
0.2
 40
0.2
 40
0.3
 40
0.3
 40
0.3
 40
0.3
 40
0.4
 40
0.4
 40
0.4
 40
0.4
 40
0.5
 40
0.5
 40
0.5
 40
0.5
 40
0.6
 40
0.6
 40
0.6
 40
0.6
 40
0.7
 40
0.7
 40
0.7
 40
0.7
 40
0.8
 40
0.8
 40
0.8
 40
0.8
 40
1.0
 40
1.0
 40
1.0
 40
1.0
 10
-33.856
 20
-11.6659
 30
0.0
 10
-33.7587
 20
-11.6659
 30
0.0
 10
-33.6642
 20
-11.6425
 30
0.0
 10
-33.5734
 20
-11.5964
 30
0.0
 10
-33.5734
 20
-11.5964
 30
0.0
 10
-33.482
 20
-11.5504
 30
0.0
 10
-33.4113
 20
-11.4818
 30
0.0
 10
-33.3614
 20
-11.3904
 30
0.0
 10
-33.3614
 20
-11.3904
 30
0.0
 10
-33.3115
 20
-11.2989
 30
0.0
 10
-33.2862
 20
-11.2011
 30
0.0
 10
-33.2862
 20
-11.0961
 30
0.0
 10
-33.2862
 20
-11.0961
 30
0.0
 10
-33.2862
 20
-10.9328
 30
0.0
 10
-33.3387
 20
-10.7979
 30
0.0
 10
-33.4444
 20
-10.6916
 30
0.0
 10
-33.4444
 20
-10.6916
 30
0.0
 10
-33.5494
 20
-10.5854
 30
0.0
 10
-33.6829
 20
-10.5322
 30
0.0
 10
-33.845
 20
-10.5322
 30
0.0
 10
-33.845
 20
-10.5322
 30
0.0
 10
-34.0097
 20
-10.5322
 30
0.0
 10
-34.1457
 20
-10.5866
 30
0.0
 10
-34.2533
 20
-10.6961
 30
0.0
 10
-34.2533
 20
-10.6961
 30
0.0
 10
-34.3609
 20
-10.8057
 30
0.0
 10
-34.4147
 20
-10.9431
 30
0.0
 10
-34.4147
 20
-11.1078
 30
0.0
 10
-34.4147
 20
-11.1078
 30
0.0
 10
-34.4147
 20
-11.2685
 30
0.0
 10
-34.3616
 20
-11.4014
 30
0.0
 10
-34.2552
 20
-11.507
 30
0.0
 10
-34.2552
 20
-11.507
 30
0.0
 10
-34.1483
 20
-11.6127
 30
0.0
 10
-34.0155
 20
-11.6659
 30
0.0
 10
-33.856
 20
-11.6659
 30
0.0
  0
SPLINE
  5
49
330
1F
100
AcDbEntity
  8
ROUND
 62
   250
100
AcDbSpline
210
0.0
220
0.0
230
1.0
 70
    11
 71
     3
 72
    20
 73
    16
 74
     0
 42
0.0000000001
 43
0.0000000001
 40
0.0
 40
0.0
 40
0.0
 40
0.0
 40
0.2
 40
0.2
 40
0.2
 40
0.2
 40
0.4
 40
0.4
 40
0.4
 40
0.4
 40
0.6
 40
0.6
 40
0.6
 40
0.6
 40
1.0
 40
1.0
 40
1.0
 40
1.0
 10
-38.4902
 20
20.4598
 30
0.0
 10
-38.4902
 20
20.4598
 30
0.0
 10
-37.9067
 20
24.5942
 30
0.0
 10
-37.9067
 20
24.5942
 30
0.0
 10
-37.9067
 20
24.5942
 30
0.0
 10
-37.9067
 20
24.5942
 30
0.0
 10
-37.7772
 20
24.5942
 30
0.0
 10
-37.7772
 20
24.5942
 30
0.0
 10
-37.7772
 20
24.5942
 30
0.0
 10
-37.7772
 20
24.5942
 30
0.0
 10
-37.1548
 20
20.4598
 30
0.0
 10
-37.1548
 20
20.4598
 30
0.0
 10
-37.1548
 20
20.4598
 30
0.0
 10
-37.1548
 20
20.4598
 30
0.0
 10
-38.4902
 20
20.4598
 30
0.0
 10
-38.4902
 20
20.4598
 30
0.0
  0
SPLINE
  5
4A
330
1F
100
AcDbEntity
  8
ROUND
 62
   250
100
AcDbSpline
210
0.0
220
0.0
230
1.0
 70
    11
 71
     3
 72
    20
 73
    16
 74
     0
 42
0.0000000001
 43
0.0000000001
 40
0.0
 40
0.0
 40
0.0
 40
0.0
 40
0.2
 40
0.2
 40
0.2
 40
0.2
 40
0.4
 40
0.4
 40
0.4
 40
0.4
 40
0.6
 40
0.6
 40
0.6
 40
0.6
 40
1.0
 40
1.0
 40
1.0
 40
1.0
 10
-37.2084
 20
-18.489
 30
0.0
 10
-37.2084
 20
-18.489
 30
0.0
 10
-37.7919
 20
-22.6232
 30
0.0
 10
-37.7919
 20
-22.6232
 30
0.0
 10
-37.7919
 20
-22.6232
 30
0.0
 10
-37.7919
 20
-22.6232
 30
0.0
 10
-37.9216
 20
-22.6232
 30
0.0
 10
-37.9216
 20
-22.6232
 30
0.0
 10
-37.9216
 20
-22.6232
 30
0.0
 10
-37.9216
 20
-22.6232
 30
0.0
 10
-38.5438
 20
-18.489
 30
0.0
 10
-38.5438
 20
-18.489
 30
0.0
 10
-38.5438
 20
-18.489
 30
0.0
 10
-38.5438
 20
-18.489
 30
0.0
 10
-37.2084
 20
-18.489
 30
0.0
 10
-37.2084
 20
-18.489
 30
0.0
  0
SPLINE
  5
4B
330
1F
100
AcDbEntity
  8
ROUND
 62
   250
100
AcDbSpline
210
0.0
220
0.0
230
1.0
 70
    11
 71
     3
 72
    84
 73
    80
 74
     0
 42
0.0000000001
 43
0.0000000001
 40
0.0
 40
0.0
 40
0.0
 40
0.0
 40
0.0476190476190476
 40
0.0476190476190476
 40
0.0476190476190476
 40
0.0476190476190476
 40
0.0952380952380952
 40
0.0952380952380952
 40
0.0952380952380952
 40
0.0952380952380952
 40
0.1428571428571428
 40
0.1428571428571428
 40
0.1428571428571428
 40
0.1428571428571428
 40
0.1904761904761905
 40
0.1904761904761905
 40
0.1904761904761905
 40
0.1904761904761905
 40
0.2380952380952381
 40
0.2380952380952381
 40
0.2380952380952381
 40
0.2380952380952381
 40
0.2857142857142857
 40
0.2857142857142857
 40
0.2857142857142857
 40
0.2857142857142857
 40
0.3333333333333333
 40
0.3333333333333333
 40
0.3333333333333333
 40
0.3333333333333333
 40
0.3809523809523809
 40
0.3809523809523809
 40
0.3809523809523809
 40
0.3809523809523809
 40
0.4285714285714285
 40
0.4285714285714285
 40
0.4285714285714285
 40
0.4285714285714285
 40
0.4761904761904762
 40
0.4761904761904762
 40
0.4761904761904762
 40
0.4761904761904762
 40
0.5238095238095238
 40
0.5238095238095238
 40
0.5238095238095238
 40
0.5238095238095238
 40
0.5714285714285714
 40
0.5714285714285714
 40
0.5714285714285714
 40
0.5714285714285714
 40
0.6190476190476191
 40
0.6190476190476191
 40
0.6190476190476191
 40
0.6190476190476191
 40
0.6666666666666666
 40
0.6666666666666666
 40
0.6666666666666666
 40
0.6666666666666666
 40
0.7142857142857143
 40
0.7142857142857143
 40
0.7142857142857143
 40
0.7142857142857143
 40
0.7619047619047619
 40
0.7619047619047619
 40
0.7619047619047619
 40
0.7619047619047619
 40
0.8095238095238095
 40
0.8095238095238095
 40
0.8095238095238095
 40
0.8095238095238095
 40
0.8571428571428571
 40
0.8571428571428571
 40
0.8571428571428571
 40
0.8571428571428571
 40
0.9047619047619048
 40
0.9047619047619048
 40
0.9047619047619048
 40
0.9047619047619048
 40
1.0
 40
1.0
 40
1.0
 40
1.0
 10
6.2956
 20
-30.3822
 30
0.0
 10
6.2956
 20
-30.3822
 30
0.0
 10
6.6145
 20
-30.0252
 30
0.0
 10
6.6145
 20
-30.0252
 30
0.0
 10
6.6145
 20
-30.0252
 30
0.0
 10
6.6145
 20
-30.0252
 30
0.0
 10
6.8024
 20
-30.1846
 30
0.0
 10
6.8024
 20
-30.1846
 30
0.0
 10
6.8024
 20
-30.1846
 30
0.0
 10
6.8024
 20
-30.1846
 30
0.0
 10
6.4687
 20
-30.5605
 30
0.0
 10
6.4687
 20
-30.5605
 30
0.0
 10
6.4687
 20
-30.5605
 30
0.0
 10
6.5775
 20
-30.7226
 30
0.0
 10
6.6507
 20
-30.8645
 30
0.0
 10
6.689
 20
-30.9857
 30
0.0
 10
6.689
 20
-30.9857
 30
0.0
 10
6.7396
 20
-31.1453
 30
0.0
 10
6.7648
 20
-31.3241
 30
0.0
 10
6.7648
 20
-31.5212
 30
0.0
 10
6.7648
 20
-31.5212
 30
0.0
 10
6.7648
 20
-31.8063
 30
0.0
 10
6.7072
 20
-32.0604
 30
0.0
 10
6.5917
 20
-32.2827
 30
0.0
 10
6.5917
 20
-32.2827
 30
0.0
 10
6.4764
 20
-32.5058
 30
0.0
 10
6.315
 20
-32.6742
 30
0.0
 10
6.1069
 20
-32.7883
 30
0.0
 10
6.1069
 20
-32.7883
 30
0.0
 10
5.8981
 20
-32.9017
 30
0.0
 10
5.6772
 20
-32.9588
 30
0.0
 10
5.4432
 20
-32.9588
 30
0.0
 10
5.4432
 20
-32.9588
 30
0.0
 10
5.2682
 20
-32.9588
 30
0.0
 10
5.11
 20
-32.9343
 30
0.0
 10
4.9681
 20
-32.8849
 30
0.0
 10
4.9681
 20
-32.8849
 30
0.0
 10
4.8592
 20
-32.8468
 30
0.0
 10
4.7322
 20
-32.7741
 30
0.0
 10
4.5862
 20
-32.6665
 30
0.0
 10
4.5862
 20
-32.6665
 30
0.0
 10
4.5862
 20
-32.6665
 30
0.0
 10
4.2673
 20
-33.0237
 30
0.0
 10
4.2673
 20
-33.0237
 30
0.0
 10
4.2673
 20
-33.0237
 30
0.0
 10
4.2673
 20
-33.0237
 30
0.0
 10
4.0794
 20
-32.8643
 30
0.0
 10
4.0794
 20
-32.8643
 30
0.0
 10
4.0794
 20
-32.8643
 30
0.0
 10
4.0794
 20
-32.8643
 30
0.0
 10
4.4138
 20
-32.4903
 30
0.0
 10
4.4138
 20
-32.4903
 30
0.0
 10
4.4138
 20
-32.4903
 30
0.0
 10
4.2894
 20
-32.3016
 30
0.0
 10
4.2064
 20
-32.1402
 30
0.0
 10
4.1649
 20
-32.0067
 30
0.0
 10
4.1649
 20
-32.0067
 30
0.0
 10
4.1235
 20
-31.8732
 30
0.0
 10
4.1021
 20
-31.7123
 30
0.0
 10
4.1021
 20
-31.5251
 30
0.0
 10
4.1021
 20
-31.5251
 30
0.0
 10
4.1021
 20
-31.2392
 30
0.0
 10
4.1592
 20
-30.9844
 30
0.0
 10
4.2731
 20
-30.7608
 30
0.0
 10
4.2731
 20
-30.7608
 30
0.0
 10
4.3872
 20
-30.5371
 30
0.0
 10
4.5467
 20
-30.368
 30
0.0
 10
4.7528
 20
-30.2527
 30
0.0
 10
4.7528
 20
-30.2527
 30
0.0
 10
4.9583
 20
-30.1379
 30
0.0
 10
5.1872
 20
-30.0802
 30
0.0
 10
5.4392
 20
-30.0802
 30
0.0
 10
5.4392
 20
-30.0802
 30
0.0
 10
5.6092
 20
-30.0802
 30
0.0
 10
5.7576
 20
-30.1022
 30
0.0
 10
5.8846
 20
-30.1477
 30
0.0
 10
5.8846
 20
-30.1477
 30
0.0
 10
6.0117
 20
-30.1923
 30
0.0
 10
6.1491
 20
-30.2707
 30
0.0
 10
6.2956
 20
-30.3822
 30
0.0
  0
SPLINE
  5
4C
330
1F
100
AcDbEntity
  8
ROUND
 62
   250
100
AcDbSpline
210
0.0
220
0.0
230
1.0
 70
    11
 71
     3
 72
    32
 73
    28
 74
     0
 42
0.0000000001
 43
0.0000000001
 40
0.0
 40
0.0
 40
0.0
 40
0.0
 40
0.125
 40
0.125
 40
0.125
 40
0.125
 40
0.25
 40
0.25
 40
0.25
 40
0.25
 40
0.375
 40
0.375
 40
0.375
 40
0.375
 40
0.5
 40
0.5
 40
0.5
 40
0.5
 40
0.625
 40
0.625
 40
0.625
 40
0.625
 40
0.75
 40
0.75
 40
0.75
 40
0.75
 40
1.0
 40
1.0
 40
1.0
 40
1.0
 10
6.068
 20
-30.6383
 30
0.0
 10
5.9487
 20
-30.545
 30
0.0
 10
5.8444
 20
-30.4808
 30
0.0
 10
5.7556
 20
-30.4464
 30
0.0
 10
5.7556
 20
-30.4464
 30
0.0
 10
5.6662
 20
-30.4127
 30
0.0
 10
5.5612
 20
-30.3952
 30
0.0
 10
5.4412
 20
-30.3952
 30
0.0
 10
5.4412
 20
-30.3952
 30
0.0
 10
5.1638
 20
-30.3952
 30
0.0
 10
4.935
 20
-30.4892
 30
0.0
 10
4.7535
 20
-30.6771
 30
0.0
 10
4.7535
 20
-30.6771
 30
0.0
 10
4.5726
 20
-30.8652
 30
0.0
 10
4.4819
 20
-31.1458
 30
0.0
 10
4.4819
 20
-31.5198
 30
0.0
 10
4.4819
 20
-31.5198
 30
0.0
 10
4.4819
 20
-31.6663
 30
0.0
 10
4.4961
 20
-31.7967
 30
0.0
 10
4.5241
 20
-31.9108
 30
0.0
 10
4.5241
 20
-31.9108
 30
0.0
 10
4.5442
 20
-31.9957
 30
0.0
 10
4.5862
 20
-32.1
 30
0.0
 10
4.6511
 20
-32.2237
 30
0.0
 10
4.6511
 20
-32.2237
 30
0.0
 10
4.6511
 20
-32.2237
 30
0.0
 10
6.068
 20
-30.6383
 30
0.0
 10
6.068
 20
-30.6383
 30
0.0
  0
SPLINE
  5
4D
330
1F
100
AcDbEntity
  8
ROUND
 62
   250
100
AcDbSpline
210
0.0
220
0.0
230
1.0
 70
    11
 71
     3
 72
    28
 73
    24
 74
     0
 42
0.0000000001
 43
0.0000000001
 40
0.0
 40
0.0
 40
0.0
 40
0.0
 40
0.1428571428571428
 40
0.1428571428571428
 40
0.1428571428571428
 40
0.1428571428571428
 40
0.2857142857142857
 40
0.2857142857142857
 40
0.2857142857142857
 40
0.2857142857142857
 40
0.4285714285714285
 40
0.4285714285714285
 40
0.4285714285714285
 40
0.4285714285714285
 40
0.5714285714285714
 40
0.5714285714285714
 40
0.5714285714285714
 40
0.5714285714285714
 40
0.7142857142857143
 40
0.7142857142857143
 40
0.7142857142857143
 40
0.7142857142857143
 40
1.0
 40
1.0
 40
1.0
 40
1.0
 10
6.2236
 20
-30.8341
 30
0.0
 10
6.2236
 20
-30.8341
 30
0.0
 10
4.8125
 20
-32.4138
 30
0.0
 10
4.8125
 20
-32.4138
 30
0.0
 10
4.8125
 20
-32.4138
 30
0.0
 10
4.9096
 20
-32.4934
 30
0.0
 10
4.9998
 20
-32.5492
 30
0.0
 10
5.0822
 20
-32.5809
 30
0.0
 10
5.0822
 20
-32.5809
 30
0.0
 10
5.1897
 20
-32.6231
 30
0.0
 10
5.3064
 20
-32.6438
 30
0.0
 10
5.4315
 20
-32.6438
 30
0.0
 10
5.4315
 20
-32.6438
 30
0.0
 10
5.7077
 20
-32.6438
 30
0.0
 10
5.9352
 20
-32.5466
 30
0.0
 10
6.1153
 20
-32.3515
 30
0.0
 10
6.1153
 20
-32.3515
 30
0.0
 10
6.2949
 20
-32.1563
 30
0.0
 10
6.385
 20
-31.8828
 30
0.0
 10
6.385
 20
-31.5308
 30
0.0
 10
6.385
 20
-31.5308
 30
0.0
 10
6.385
 20
-31.2678
 30
0.0
 10
6.3313
 20
-31.035
 30
0.0
 10
6.2236
 20
-30.8341
 30
0.0
  0
SPLINE
  5
4E
330
1F
100
AcDbEntity
  8
ROUND
 62
   250
100
AcDbSpline
210
0.0
220
0.0
230
1.0
 70
    11
 71
     3
 72
    40
 73
    36
 74
     0
 42
0.0000000001
 43
0.0000000001
 40
0.0
 40
0.0
 40
0.0
 40
0.0
 40
0.1
 40
0.1
 40
0.1
 40
0.1
 40
0.2
 40
0.2
 40
0.2
 40
0.2
 40
0.3
 40
0.3
 40
0.3
 40
0.3
 40
0.4
 40
0.4
 40
0.4
 40
0.4
 40
0.5
 40
0.5
 40
0.5
 40
0.5
 40
0.6
 40
0.6
 40
0.6
 40
0.6
 40
0.7
 40
0.7
 40
0.7
 40
0.7
 40
0.8
 40
0.8
 40
0.8
 40
0.8
 40
1.0
 40
1.0
 40
1.0
 40
1.0
 10
8.3957
 20
-32.9115
 30
0.0
 10
8.3957
 20
-32.9115
 30
0.0
 10
8.0541
 20
-32.9115
 30
0.0
 10
8.0541
 20
-32.9115
 30
0.0
 10
8.0541
 20
-32.9115
 30
0.0
 10
8.0541
 20
-32.9115
 30
0.0
 10
8.0541
 20
-30.7336
 30
0.0
 10
8.0541
 20
-30.7336
 30
0.0
 10
8.0541
 20
-30.7336
 30
0.0
 10
7.9717
 20
-30.812
 30
0.0
 10
7.8642
 20
-30.8905
 30
0.0
 10
7.7307
 20
-30.9689
 30
0.0
 10
7.7307
 20
-30.9689
 30
0.0
 10
7.5965
 20
-31.0473
 30
0.0
 10
7.4766
 20
-31.1063
 30
0.0
 10
7.3702
 20
-31.1453
 30
0.0
 10
7.3702
 20
-31.1453
 30
0.0
 10
7.3702
 20
-31.1453
 30
0.0
 10
7.3702
 20
-30.8152
 30
0.0
 10
7.3702
 20
-30.8152
 30
0.0
 10
7.3702
 20
-30.8152
 30
0.0
 10
7.5615
 20
-30.7252
 30
0.0
 10
7.7288
 20
-30.6162
 30
0.0
 10
7.8719
 20
-30.4886
 30
0.0
 10
7.8719
 20
-30.4886
 30
0.0
 10
8.0146
 20
-30.3602
 30
0.0
 10
8.1163
 20
-30.2364
 30
0.0
 10
8.1759
 20
-30.1158
 30
0.0
 10
8.1759
 20
-30.1158
 30
0.0
 10
8.1759
 20
-30.1158
 30
0.0
 10
8.3957
 20
-30.1158
 30
0.0
 10
8.3957
 20
-30.1158
 30
0.0
 10
8.3957
 20
-30.1158
 30
0.0
 10
8.3957
 20
-30.1158
 30
0.0
 10
8.3957
 20
-32.9115
 30
0.0
 10
8.3957
 20
-32.9115
 30
0.0
  0
SPLINE
  5
4F
330
1F
100
AcDbEntity
  8
ROUND
 62
   250
100
AcDbSpline
210
0.0
220
0.0
230
1.0
 70
    11
 71
     3
 72
    40
 73
    36
 74
     0
 42
0.0000000001
 43
0.0000000001
 40
0.0
 40
0.0
 40
0.0
 40
0.0
 40
0.1
 40
0.1
 40
0.1
 40
0.1
 40
0.2
 40
0.2
 40
0.2
 40
0.2
 40
0.3
 40
0.3
 40
0.3
 40
0.3
 40
0.4
 40
0.4
 40
0.4
 40
0.4
 40
0.5
 40
0.5
 40
0.5
 40
0.5
 40
0.6
 40
0.6
 40
0.6
 40
0.6
 40
0.7
 40
0.7
 40
0.7
 40
0.7
 40
0.8
 40
0.8
 40
0.8
 40
0.8
 40
1.0
 40
1.0
 40
1.0
 40
1.0
 10
10.2703
 20
-32.9115
 30
0.0
 10
10.2703
 20
-32.9115
 30
0.0
 10
9.9287
 20
-32.9115
 30
0.0
 10
9.9287
 20
-32.9115
 30
0.0
 10
9.9287
 20
-32.9115
 30
0.0
 10
9.9287
 20
-32.9115
 30
0.0
 10
9.9287
 20
-30.7336
 30
0.0
 10
9.9287
 20
-30.7336
 30
0.0
 10
9.9287
 20
-30.7336
 30
0.0
 10
9.8463
 20
-30.812
 30
0.0
 10
9.7388
 20
-30.8905
 30
0.0
 10
9.6053
 20
-30.9689
 30
0.0
 10
9.6053
 20
-30.9689
 30
0.0
 10
9.471
 20
-31.0473
 30
0.0
 10
9.3512
 20
-31.1063
 30
0.0
 10
9.2448
 20
-31.1453
 30
0.0
 10
9.2448
 20
-31.1453
 30
0.0
 10
9.2448
 20
-31.1453
 30
0.0
 10
9.2448
 20
-30.8152
 30
0.0
 10
9.2448
 20
-30.8152
 30
0.0
 10
9.2448
 20
-30.8152
 30
0.0
 10
9.436
 20
-30.7252
 30
0.0
 10
9.6033
 20
-30.6162
 30
0.0
 10
9.7465
 20
-30.4886
 30
0.0
 10
9.7465
 20
-30.4886
 30
0.0
 10
9.8891
 20
-30.3602
 30
0.0
 10
9.9908
 20
-30.2364
 30
0.0
 10
10.0505
 20
-30.1158
 30
0.0
 10
10.0505
 20
-30.1158
 30
0.0
 10
10.0505
 20
-30.1158
 30
0.0
 10
10.2703
 20
-30.1158
 30
0.0
 10
10.2703
 20
-30.1158
 30
0.0
 10
10.2703
 20
-30.1158
 30
0.0
 10
10.2703
 20
-30.1158
 30
0.0
 10
10.2703
 20
-32.9115
 30
0.0
 10
10.2703
 20
-32.9115
 30
0.0
  0
SPLINE
  5
50
330
1F
100
AcDbEntity
  8
ROUND
 62
   250
100
AcDbSpline
210
0.0
220
0.0
230
1.0
 70
    11
 71
     3
 72
    52
 73
    48
 74
     0
 42
0.0000000001
 43
0.0000000001
 40
0.0
 40
0.0
 40
0.0
 40
0.0
 40
0.0769230769230769
 40
0.0769230769230769
 40
0.0769230769230769
 40
0.0769230769230769
 40
0.1538461538461539
 40
0.1538461538461539
 40
0.1538461538461539
 40
0.1538461538461539
 40
0.2307692307692308
 40
0.2307692307692308
 40
0.2307692307692308
 40
0.2307692307692308
 40
0.3076923076923077
 40
0.3076923076923077
 40
0.3076923076923077
 40
0.3076923076923077
 40
0.3846153846153846
 40
0.3846153846153846
 40
0.3846153846153846
 40
0.3846153846153846
 40
0.4615384615384616
 40
0.4615384615384616
 40
0.4615384615384616
 40
0.4615384615384616
 40
0.5384615384615384
 40
0.5384615384615384
 40
0.5384615384615384
 40
0.5384615384615384
 40
0.6153846153846154
 40
0.6153846153846154
 40
0.6153846153846154
 40
0.6153846153846154
 40
0.6923076923076923
 40
0.6923076923076923
 40
0.6923076923076923
 40
0.6923076923076923
 40
0.7692307692307693
 40
0.7692307692307693
 40
0.7692307692307693
 40
0.7692307692307693
 40
0.8461538461538461
 40
0.8461538461538461
 40
0.8461538461538461
 40
0.8461538461538461
 40
1.0
 40
1.0
 40
1.0
 40
1.0
 10
11.1459
 20
-31.5387
 30
0.0
 10
11.1459
 20
-31.2093
 30
0.0
 10
11.1797
 20
-30.9442
 30
0.0
 10
11.2478
 20
-30.744
 30
0.0
 10
11.2478
 20
-30.744
 30
0.0
 10
11.3152
 20
-30.543
 30
0.0
 10
11.4163
 20
-30.3882
 30
0.0
 10
11.5499
 20
-30.2791
 30
0.0
 10
11.5499
 20
-30.2791
 30
0.0
 10
11.6834
 20
-30.1703
 30
0.0
 10
11.8512
 20
-30.1158
 30
0.0
 10
12.0534
 20
-30.1158
 30
0.0
 10
12.0534
 20
-30.1158
 30
0.0
 10
12.2032
 20
-30.1158
 30
0.0
 10
12.3341
 20
-30.1463
 30
0.0
 10
12.4468
 20
-30.2067
 30
0.0
 10
12.4468
 20
-30.2067
 30
0.0
 10
12.5597
 20
-30.2662
 30
0.0
 10
12.6524
 20
-30.3531
 30
0.0
 10
12.7263
 20
-30.4666
 30
0.0
 10
12.7263
 20
-30.4666
 30
0.0
 10
12.7995
 20
-30.58
 30
0.0
 10
12.8572
 20
-30.7181
 30
0.0
 10
12.8987
 20
-30.8807
 30
0.0
 10
12.8987
 20
-30.8807
 30
0.0
 10
12.9409
 20
-31.0434
 30
0.0
 10
12.9615
 20
-31.2625
 30
0.0
 10
12.9615
 20
-31.5387
 30
0.0
 10
12.9615
 20
-31.5387
 30
0.0
 10
12.9615
 20
-31.8653
 30
0.0
 10
12.9279
 20
-32.1285
 30
0.0
 10
12.8611
 20
-32.3294
 30
0.0
 10
12.8611
 20
-32.3294
 30
0.0
 10
12.7937
 20
-32.5304
 30
0.0
 10
12.6932
 20
-32.6852
 30
0.0
 10
12.5597
 20
-32.7948
 30
0.0
 10
12.5597
 20
-32.7948
 30
0.0
 10
12.4262
 20
-32.9044
 30
0.0
 10
12.2576
 20
-32.9588
 30
0.0
 10
12.0534
 20
-32.9588
 30
0.0
 10
12.0534
 20
-32.9588
 30
0.0
 10
11.7851
 20
-32.9588
 30
0.0
 10
11.5744
 20
-32.8629
 30
0.0
 10
11.4214
 20
-32.6704
 30
0.0
 10
11.4214
 20
-32.6704
 30
0.0
 10
11.238
 20
-32.439
 30
0.0
 10
11.1459
 20
-32.0611
 30
0.0
 10
11.1459
 20
-31.5387
 30
0.0
  0
SPLINE
  5
51
330
1F
100
AcDbEntity
  8
ROUND
 62
   250
100
AcDbSpline
210
0.0
220
0.0
230
1.0
 70
    11
 71
     3
 72
    36
 73
    32
 74
     0
 42
0.0000000001
 43
0.0000000001
 40
0.0
 40
0.0
 40
0.0
 40
0.0
 40
0.1111111111111111
 40
0.1111111111111111
 40
0.1111111111111111
 40
0.1111111111111111
 40
0.2222222222222222
 40
0.2222222222222222
 40
0.2222222222222222
 40
0.2222222222222222
 40
0.3333333333333333
 40
0.3333333333333333
 40
0.3333333333333333
 40
0.3333333333333333
 40
0.4444444444444444
 40
0.4444444444444444
 40
0.4444444444444444
 40
0.4444444444444444
 40
0.5555555555555556
 40
0.5555555555555556
 40
0.5555555555555556
 40
0.5555555555555556
 40
0.6666666666666666
 40
0.6666666666666666
 40
0.6666666666666666
 40
0.6666666666666666
 40
0.7777777777777778
 40
0.7777777777777778
 40
0.7777777777777778
 40
0.7777777777777778
 40
1.0
 40
1.0
 40
1.0
 40
1.0
 10
11.4973
 20
-31.5387
 30
0.0
 10
11.4973
 20
-31.9957
 30
0.0
 10
11.5511
 20
-32.2997
 30
0.0
 10
11.658
 20
-32.4513
 30
0.0
 10
11.658
 20
-32.4513
 30
0.0
 10
11.765
 20
-32.6023
 30
0.0
 10
11.8966
 20
-32.6782
 30
0.0
 10
12.0534
 20
-32.6782
 30
0.0
 10
12.0534
 20
-32.6782
 30
0.0
 10
12.2109
 20
-32.6782
 30
0.0
 10
12.3425
 20
-32.6017
 30
0.0
 10
12.4495
 20
-32.45
 30
0.0
 10
12.4495
 20
-32.45
 30
0.0
 10
12.5564
 20
-32.2983
 30
0.0
 10
12.6103
 20
-31.9943
 30
0.0
 10
12.6103
 20
-31.5387
 30
0.0
 10
12.6103
 20
-31.5387
 30
0.0
 10
12.6103
 20
-31.0804
 30
0.0
 10
12.5564
 20
-30.7757
 30
0.0
 10
12.4495
 20
-30.6253
 30
0.0
 10
12.4495
 20
-30.6253
 30
0.0
 10
12.3425
 20
-30.4743
 30
0.0
 10
12.2097
 20
-30.3992
 30
0.0
 10
12.0502
 20
-30.3992
 30
0.0
 10
12.0502
 20
-30.3992
 30
0.0
 10
11.8927
 20
-30.3992
 30
0.0
 10
11.7676
 20
-30.4659
 30
0.0
 10
11.6736
 20
-30.5987
 30
0.0
 10
11.6736
 20
-30.5987
 30
0.0
 10
11.5563
 20
-30.7679
 30
0.0
 10
11.4973
 20
-31.0817
 30
0.0
 10
11.4973
 20
-31.5387
 30
0.0
  0
SPLINE
  5
52
330
1F
100
AcDbEntity
  8
ROUND
 62
   250
100
AcDbSpline
210
0.0
220
0.0
230
1.0
 70
    11
 71
     3
 72
    20
 73
    16
 74
     0
 42
0.0000000001
 43
0.0000000001
 40
0.0
 40
0.0
 40
0.0
 40
0.0
 40
0.2
 40
0.2
 40
0.2
 40
0.2
 40
0.4
 40
0.4
 40
0.4
 40
0.4
 40
0.6
 40
0.6
 40
0.6
 40
0.6
 40
1.0
 40
1.0
 40
1.0
 40
1.0
 10
19.0781
 20
32.199
 30
0.0
 10
19.0781
 20
32.199
 30
0.0
 10
23.2123
 20
31.6157
 30
0.0
 10
23.2123
 20
31.6157
 30
0.0
 10
23.2123
 20
31.6157
 30
0.0
 10
23.2123
 20
31.6157
 30
0.0
 10
23.2123
 20
31.486
 30
0.0
 10
23.2123
 20
31.486
 30
0.0
 10
23.2123
 20
31.486
 30
0.0
 10
23.2123
 20
31.486
 30
0.0
 10
19.0781
 20
30.8638
 30
0.0
 10
19.0781
 20
30.8638
 30
0.0
 10
19.0781
 20
30.8638
 30
0.0
 10
19.0781
 20
30.8638
 30
0.0
 10
19.0781
 20
32.199
 30
0.0
 10
19.0781
 20
32.199
 30
0.0
  0
SPLINE
  5
53
330
1F
100
AcDbEntity
  8
ROUND
 62
   250
100
AcDbSpline
210
0.0
220
0.0
230
1.0
 70
    11
 71
     3
 72
    20
 73
    16
 74
     0
 42
0.0000000001
 43
0.0000000001
 40
0.0
 40
0.0
 40
0.0
 40
0.0
 40
0.2
 40
0.2
 40
0.2
 40
0.2
 40
0.4
 40
0.4
 40
0.4
 40
0.4
 40
0.6
 40
0.6
 40
0.6
 40
0.6
 40
1.0
 40
1.0
 40
1.0
 40
1.0
 10
-2.3105
 20
30.864
 30
0.0
 10
-2.3105
 20
30.864
 30
0.0
 10
-6.4446
 20
31.4474
 30
0.0
 10
-6.4446
 20
31.4474
 30
0.0
 10
-6.4446
 20
31.4474
 30
0.0
 10
-6.4446
 20
31.4474
 30
0.0
 10
-6.4446
 20
31.577
 30
0.0
 10
-6.4446
 20
31.577
 30
0.0
 10
-6.4446
 20
31.577
 30
0.0
 10
-6.4446
 20
31.577
 30
0.0
 10
-2.3105
 20
32.1992
 30
0.0
 10
-2.3105
 20
32.1992
 30
0.0
 10
-2.3105
 20
32.1992
 30
0.0
 10
-2.3105
 20
32.1992
 30
0.0
 10
-2.3105
 20
30.864
 30
0.0
 10
-2.3105
 20
30.864
 30
0.0
  0
SPLINE
  5
54
330
1F
100
AcDbEntity
  8
ROUND
 62
   250
100
AcDbSpline
210
0.0
220
0.0
230
1.0
 70
    11
 71
     3
 72
    68
 73
    64
 74
     0
 42
0.0000000001
 43
0.0000000001
 40
0.0
 40
0.0
 40
0.0
 40
0.0
 40
0.0588235294117647
 40
0.0588235294117647
 40
0.0588235294117647
 40
0.0588235294117647
 40
0.1176470588235294
 40
0.1176470588235294
 40
0.1176470588235294
 40
0.1176470588235294
 40
0.1764705882352941
 40
0.1764705882352941
 40
0.1764705882352941
 40
0.1764705882352941
 40
0.2352941176470588
 40
0.2352941176470588
 40
0.2352941176470588
 40
0.2352941176470588
 40
0.2941176470588235
 40
0.2941176470588235
 40
0.2941176470588235
 40
0.2941176470588235
 40
0.3529411764705883
 40
0.3529411764705883
 40
0.3529411764705883
 40
0.3529411764705883
 40
0.4117647058823529
 40
0.4117647058823529
 40
0.4117647058823529
 40
0.4117647058823529
 40
0.4705882352941176
 40
0.4705882352941176
 40
0.4705882352941176
 40
0.4705882352941176
 40
0.5294117647058824
 40
0.5294117647058824
 40
0.5294117647058824
 40
0.5294117647058824
 40
0.5882352941176471
 40
0.5882352941176471
 40
0.5882352941176471
 40
0.5882352941176471
 40
0.6470588235294118
 40
0.6470588235294118
 40
0.6470588235294118
 40
0.6470588235294118
 40
0.7058823529411765
 40
0.7058823529411765
 40
0.7058823529411765
 40
0.7058823529411765
 40
0.7647058823529411
 40
0.7647058823529411
 40
0.7647058823529411
 40
0.7647058823529411
 40
0.8235294117647058
 40
0.8235294117647058
 40
0.8235294117647058
 40
0.8235294117647058
 40
0.8823529411764706
 40
0.8823529411764706
 40
0.8823529411764706
 40
0.8823529411764706
 40
1.0
 40
1.0
 40
1.0
 40
1.0
 10
-40.1542
 20
-1.9193
 30
0.0
 10
-40.206
 20
-2.0613
 30
0.0
 10
-40.2799
 20
-2.1663
 30
0.0
 10
-40.3765
 20
-2.235
 30
0.0
 10
-40.3765
 20
-2.235
 30
0.0
 10
-40.4724
 20
-2.303
 30
0.0
 10
-40.5879
 20
-2.3374
 30
0.0
 10
-40.722
 20
-2.3374
 30
0.0
 10
-40.722
 20
-2.3374
 30
0.0
 10
-40.9248
 20
-2.3374
 30
0.0
 10
-41.0947
 20
-2.2647
 30
0.0
 10
-41.2328
 20
-2.1189
 30
0.0
 10
-41.2328
 20
-2.1189
 30
0.0
 10
-41.3709
 20
-1.9731
 30
0.0
 10
-41.4402
 20
-1.7799
 30
0.0
 10
-41.4402
 20
-1.5382
 30
0.0
 10
-41.4402
 20
-1.5382
 30
0.0
 10
-41.4402
 20
-1.2951
 30
0.0
 10
-41.3695
 20
-1.0993
 30
0.0
 10
-41.2283
 20
-0.9509
 30
0.0
 10
-41.2283
 20
-0.9509
 30
0.0
 10
-41.0869
 20
-0.8032
 30
0.0
 10
-40.9152
 20
-0.7292
 30
0.0
 10
-40.7123
 20
-0.7292
 30
0.0
 10
-40.7123
 20
-0.7292
 30
0.0
 10
-40.5833
 20
-0.7292
 30
0.0
 10
-40.4711
 20
-0.7629
 30
0.0
 10
-40.3752
 20
-0.8303
 30
0.0
 10
-40.3752
 20
-0.8303
 30
0.0
 10
-40.2799
 20
-0.8984
 30
0.0
 10
-40.206
 20
-1.0008
 30
0.0
 10
-40.1542
 20
-1.1389
 30
0.0
 10
-40.1542
 20
-1.1389
 30
0.0
 10
-40.0984
 20
-0.9684
 30
0.0
 10
-40.0089
 20
-0.8382
 30
0.0
 10
-39.8845
 20
-0.7487
 30
0.0
 10
-39.8845
 20
-0.7487
 30
0.0
 10
-39.7608
 20
-0.6598
 30
0.0
 10
-39.6123
 20
-0.6152
 30
0.0
 10
-39.4405
 20
-0.6152
 30
0.0
 10
-39.4405
 20
-0.6152
 30
0.0
 10
-39.2019
 20
-0.6152
 30
0.0
 10
-39.0023
 20
-0.6994
 30
0.0
 10
-38.8403
 20
-0.8672
 30
0.0
 10
-38.8403
 20
-0.8672
 30
0.0
 10
-38.6783
 20
-1.0358
 30
0.0
 10
-38.5973
 20
-1.2575
 30
0.0
 10
-38.5973
 20
-1.5323
 30
0.0
 10
-38.5973
 20
-1.5323
 30
0.0
 10
-38.5973
 20
-1.8072
 30
0.0
 10
-38.6783
 20
-2.0283
 30
0.0
 10
-38.8409
 20
-2.1968
 30
0.0
 10
-38.8409
 20
-2.1968
 30
0.0
 10
-39.0036
 20
-2.3653
 30
0.0
 10
-39.2065
 20
-2.4495
 30
0.0
 10
-39.4496
 20
-2.4495
 30
0.0
 10
-39.4496
 20
-2.4495
 30
0.0
 10
-39.6304
 20
-2.4495
 30
0.0
 10
-39.7821
 20
-2.4035
 30
0.0
 10
-39.9046
 20
-2.3114
 30
0.0
 10
-39.9046
 20
-2.3114
 30
0.0
 10
-40.0264
 20
-2.2201
 30
0.0
 10
-40.1101
 20
-2.0892
 30
0.0
 10
-40.1542
 20
-1.9193
 30
0.0
  0
SPLINE
  5
55
330
1F
100
AcDbEntity
  8
ROUND
 62
   250
100
AcDbSpline
210
0.0
220
0.0
230
1.0
 70
    11
 71
     3
 72
    36
 73
    32
 74
     0
 42
0.0000000001
 43
0.0000000001
 40
0.0
 40
0.0
 40
0.0
 40
0.0
 40
0.1111111111111111
 40
0.1111111111111111
 40
0.1111111111111111
 40
0.1111111111111111
 40
0.2222222222222222
 40
0.2222222222222222
 40
0.2222222222222222
 40
0.2222222222222222
 40
0.3333333333333333
 40
0.3333333333333333
 40
0.3333333333333333
 40
0.3333333333333333
 40
0.4444444444444444
 40
0.4444444444444444
 40
0.4444444444444444
 40
0.4444444444444444
 40
0.5555555555555556
 40
0.5555555555555556
 40
0.5555555555555556
 40
0.5555555555555556
 40
0.6666666666666666
 40
0.6666666666666666
 40
0.6666666666666666
 40
0.6666666666666666
 40
0.7777777777777778
 40
0.7777777777777778
 40
0.7777777777777778
 40
0.7777777777777778
 40
1.0
 40
1.0
 40
1.0
 40
1.0
 10
-40.7337
 20
-1.988
 30
0.0
 10
-40.6021
 20
-1.988
 30
0.0
 10
-40.4944
 20
-1.9453
 30
0.0
 10
-40.4108
 20
-1.861
 30
0.0
 10
-40.4108
 20
-1.861
 30
0.0
 10
-40.3273
 20
-1.7761
 30
0.0
 10
-40.2851
 20
-1.6658
 30
0.0
 10
-40.2851
 20
-1.5304
 30
0.0
 10
-40.2851
 20
-1.5304
 30
0.0
 10
-40.2851
 20
-1.3988
 30
0.0
 10
-40.3266
 20
-1.2906
 30
0.0
 10
-40.4095
 20
-1.2062
 30
0.0
 10
-40.4095
 20
-1.2062
 30
0.0
 10
-40.4925
 20
-1.122
 30
0.0
 10
-40.5943
 20
-1.0806
 30
0.0
 10
-40.7142
 20
-1.0806
 30
0.0
 10
-40.7142
 20
-1.0806
 30
0.0
 10
-40.8399
 20
-1.0806
 30
0.0
 10
-40.9449
 20
-1.1233
 30
0.0
 10
-41.0305
 20
-1.2102
 30
0.0
 10
-41.0305
 20
-1.2102
 30
0.0
 10
-41.1161
 20
-1.2971
 30
0.0
 10
-41.1589
 20
-1.4047
 30
0.0
 10
-41.1589
 20
-1.5342
 30
0.0
 10
-41.1589
 20
-1.5342
 30
0.0
 10
-41.1589
 20
-1.6646
 30
0.0
 10
-41.1168
 20
-1.7728
 30
0.0
 10
-41.0338
 20
-1.859
 30
0.0
 10
-41.0338
 20
-1.859
 30
0.0
 10
-40.9502
 20
-1.9453
 30
0.0
 10
-40.8497
 20
-1.988
 30
0.0
 10
-40.7337
 20
-1.988
 30
0.0
  0
SPLINE
  5
56
330
1F
100
AcDbEntity
  8
ROUND
 62
   250
100
AcDbSpline
210
0.0
220
0.0
230
1.0
 70
    11
 71
     3
 72
    40
 73
    36
 74
     0
 42
0.0000000001
 43
0.0000000001
 40
0.0
 40
0.0
 40
0.0
 40
0.0
 40
0.1
 40
0.1
 40
0.1
 40
0.1
 40
0.2
 40
0.2
 40
0.2
 40
0.2
 40
0.3
 40
0.3
 40
0.3
 40
0.3
 40
0.4
 40
0.4
 40
0.4
 40
0.4
 40
0.5
 40
0.5
 40
0.5
 40
0.5
 40
0.6
 40
0.6
 40
0.6
 40
0.6
 40
0.7
 40
0.7
 40
0.7
 40
0.7
 40
0.8
 40
0.8
 40
0.8
 40
0.8
 40
1.0
 40
1.0
 40
1.0
 40
1.0
 10
-39.4477
 20
-2.0983
 30
0.0
 10
-39.3504
 20
-2.0983
 30
0.0
 10
-39.2558
 20
-2.0748
 30
0.0
 10
-39.165
 20
-2.0288
 30
0.0
 10
-39.165
 20
-2.0288
 30
0.0
 10
-39.0736
 20
-1.9828
 30
0.0
 10
-39.003
 20
-1.9142
 30
0.0
 10
-38.9531
 20
-1.8228
 30
0.0
 10
-38.9531
 20
-1.8228
 30
0.0
 10
-38.9032
 20
-1.7313
 30
0.0
 10
-38.8778
 20
-1.6334
 30
0.0
 10
-38.8778
 20
-1.5284
 30
0.0
 10
-38.8778
 20
-1.5284
 30
0.0
 10
-38.8778
 20
-1.3651
 30
0.0
 10
-38.9303
 20
-1.2302
 30
0.0
 10
-39.036
 20
-1.124
 30
0.0
 10
-39.036
 20
-1.124
 30
0.0
 10
-39.141
 20
-1.0177
 30
0.0
 10
-39.2746
 20
-0.9645
 30
0.0
 10
-39.4366
 20
-0.9645
 30
0.0
 10
-39.4366
 20
-0.9645
 30
0.0
 10
-39.6013
 20
-0.9645
 30
0.0
 10
-39.7373
 20
-1.019
 30
0.0
 10
-39.845
 20
-1.1285
 30
0.0
 10
-39.845
 20
-1.1285
 30
0.0
 10
-39.9526
 20
-1.2381
 30
0.0
 10
-40.0063
 20
-1.3755
 30
0.0
 10
-40.0063
 20
-1.5401
 30
0.0
 10
-40.0063
 20
-1.5401
 30
0.0
 10
-40.0063
 20
-1.7008
 30
0.0
 10
-39.9533
 20
-1.8338
 30
0.0
 10
-39.8469
 20
-1.9394
 30
0.0
 10
-39.8469
 20
-1.9394
 30
0.0
 10
-39.7399
 20
-2.0451
 30
0.0
 10
-39.6071
 20
-2.0983
 30
0.0
 10
-39.4477
 20
-2.0983
 30
0.0
  0
SPLINE
  5
57
330
1F
100
AcDbEntity
  8
ROUND
 62
   250
100
AcDbSpline
210
0.0
220
0.0
230
1.0
 70
    11
 71
     3
 72
    52
 73
    48
 74
     0
 42
0.0000000001
 43
0.0000000001
 40
0.0
 40
0.0
 40
0.0
 40
0.0
 40
0.0769230769230769
 40
0.0769230769230769
 40
0.0769230769230769
 40
0.0769230769230769
 40
0.1538461538461539
 40
0.1538461538461539
 40
0.1538461538461539
 40
0.1538461538461539
 40
0.2307692307692308
 40
0.2307692307692308
 40
0.2307692307692308
 40
0.2307692307692308
 40
0.3076923076923077
 40
0.3076923076923077
 40
0.3076923076923077
 40
0.3076923076923077
 40
0.3846153846153846
 40
0.3846153846153846
 40
0.3846153846153846
 40
0.3846153846153846
 40
0.4615384615384616
 40
0.4615384615384616
 40
0.4615384615384616
 40
0.4615384615384616
 40
0.5384615384615384
 40
0.5384615384615384
 40
0.5384615384615384
 40
0.5384615384615384
 40
0.6153846153846154
 40
0.6153846153846154
 40
0.6153846153846154
 40
0.6153846153846154
 40
0.6923076923076923
 40
0.6923076923076923
 40
0.6923076923076923
 40
0.6923076923076923
 40
0.7692307692307693
 40
0.7692307692307693
 40
0.7692307692307693
 40
0.7692307692307693
 40
0.8461538461538461
 40
0.8461538461538461
 40
0.8461538461538461
 40
0.8461538461538461
 40
1.0
 40
1.0
 40
1.0
 40
1.0
 10
-40.0173
 20
-0.2827
 30
0.0
 10
-40.3467
 20
-0.2827
 30
0.0
 10
-40.6118
 20
-0.2489
 30
0.0
 10
-40.8121
 20
-0.1808
 30
0.0
 10
-40.8121
 20
-0.1808
 30
0.0
 10
-41.013
 20
-0.1134
 30
0.0
 10
-41.1679
 20
-0.0123
 30
0.0
 10
-41.2769
 20
0.1212
 30
0.0
 10
-41.2769
 20
0.1212
 30
0.0
 10
-41.3858
 20
0.2548
 30
0.0
 10
-41.4402
 20
0.4226
 30
0.0
 10
-41.4402
 20
0.6248
 30
0.0
 10
-41.4402
 20
0.6248
 30
0.0
 10
-41.4402
 20
0.7746
 30
0.0
 10
-41.4097
 20
0.9055
 30
0.0
 10
-41.3494
 20
1.0182
 30
0.0
 10
-41.3494
 20
1.0182
 30
0.0
 10
-41.2899
 20
1.1311
 30
0.0
 10
-41.2029
 20
1.2238
 30
0.0
 10
-41.0895
 20
1.2977
 30
0.0
 10
-41.0895
 20
1.2977
 30
0.0
 10
-40.9761
 20
1.3709
 30
0.0
 10
-40.838
 20
1.4286
 30
0.0
 10
-40.6754
 20
1.4701
 30
0.0
 10
-40.6754
 20
1.4701
 30
0.0
 10
-40.5126
 20
1.5123
 30
0.0
 10
-40.2935
 20
1.5329
 30
0.0
 10
-40.0173
 20
1.5329
 30
0.0
 10
-40.0173
 20
1.5329
 30
0.0
 10
-39.6907
 20
1.5329
 30
0.0
 10
-39.4275
 20
1.4993
 30
0.0
 10
-39.2266
 20
1.4325
 30
0.0
 10
-39.2266
 20
1.4325
 30
0.0
 10
-39.0257
 20
1.3651
 30
0.0
 10
-38.8708
 20
1.2646
 30
0.0
 10
-38.7612
 20
1.1311
 30
0.0
 10
-38.7612
 20
1.1311
 30
0.0
 10
-38.6517
 20
0.9976
 30
0.0
 10
-38.5973
 20
0.829
 30
0.0
 10
-38.5973
 20
0.6248
 30
0.0
 10
-38.5973
 20
0.6248
 30
0.0
 10
-38.5973
 20
0.3565
 30
0.0
 10
-38.6932
 20
0.1458
 30
0.0
 10
-38.8857
 20
-0.0072
 30
0.0
 10
-38.8857
 20
-0.0072
 30
0.0
 10
-39.1171
 20
-0.1906
 30
0.0
 10
-39.4949
 20
-0.2827
 30
0.0
 10
-40.0173
 20
-0.2827
 30
0.0
  0
SPLINE
  5
58
330
1F
100
AcDbEntity
  8
ROUND
 62
   250
100
AcDbSpline
210
0.0
220
0.0
230
1.0
 70
    11
 71
     3
 72
    36
 73
    32
 74
     0
 42
0.0000000001
 43
0.0000000001
 40
0.0
 40
0.0
 40
0.0
 40
0.0
 40
0.1111111111111111
 40
0.1111111111111111
 40
0.1111111111111111
 40
0.1111111111111111
 40
0.2222222222222222
 40
0.2222222222222222
 40
0.2222222222222222
 40
0.2222222222222222
 40
0.3333333333333333
 40
0.3333333333333333
 40
0.3333333333333333
 40
0.3333333333333333
 40
0.4444444444444444
 40
0.4444444444444444
 40
0.4444444444444444
 40
0.4444444444444444
 40
0.5555555555555556
 40
0.5555555555555556
 40
0.5555555555555556
 40
0.5555555555555556
 40
0.6666666666666666
 40
0.6666666666666666
 40
0.6666666666666666
 40
0.6666666666666666
 40
0.7777777777777778
 40
0.7777777777777778
 40
0.7777777777777778
 40
0.7777777777777778
 40
1.0
 40
1.0
 40
1.0
 40
1.0
 10
-40.0173
 20
0.0687
 30
0.0
 10
-39.5604
 20
0.0687
 30
0.0
 10
-39.2564
 20
0.1225
 30
0.0
 10
-39.1048
 20
0.2294
 30
0.0
 10
-39.1048
 20
0.2294
 30
0.0
 10
-38.9538
 20
0.3364
 30
0.0
 10
-38.8778
 20
0.468
 30
0.0
 10
-38.8778
 20
0.6248
 30
0.0
 10
-38.8778
 20
0.6248
 30
0.0
 10
-38.8778
 20
0.7823
 30
0.0
 10
-38.9543
 20
0.9139
 30
0.0
 10
-39.106
 20
1.0209
 30
0.0
 10
-39.106
 20
1.0209
 30
0.0
 10
-39.2578
 20
1.1278
 30
0.0
 10
-39.5618
 20
1.1817
 30
0.0
 10
-40.0173
 20
1.1817
 30
0.0
 10
-40.0173
 20
1.1817
 30
0.0
 10
-40.4757
 20
1.1817
 30
0.0
 10
-40.7804
 20
1.1278
 30
0.0
 10
-40.9307
 20
1.0209
 30
0.0
 10
-40.9307
 20
1.0209
 30
0.0
 10
-41.0818
 20
0.9139
 30
0.0
 10
-41.1569
 20
0.7811
 30
0.0
 10
-41.1569
 20
0.6216
 30
0.0
 10
-41.1569
 20
0.6216
 30
0.0
 10
-41.1569
 20
0.4641
 30
0.0
 10
-41.0902
 20
0.339
 30
0.0
 10
-40.9573
 20
0.245
 30
0.0
 10
-40.9573
 20
0.245
 30
0.0
 10
-40.7881
 20
0.1277
 30
0.0
 10
-40.4743
 20
0.0687
 30
0.0
 10
-40.0173
 20
0.0687
 30
0.0
  0
SPLINE
  5
59
330
1F
100
AcDbEntity
  8
ROUND
 62
   250
100
AcDbSpline
210
0.0
220
0.0
230
1.0
 70
    11
 71
     3
 72
    20
 73
    16
 74
     0
 42
0.0000000001
 43
0.0000000001
 40
0.0
 40
0.0
 40
0.0
 40
0.0
 40
0.2
 40
0.2
 40
0.2
 40
0.2
 40
0.4
 40
0.4
 40
0.4
 40
0.4
 40
0.6
 40
0.6
 40
0.6
 40
0.6
 40
1.0
 40
1.0
 40
1.0
 40
1.0
 10
-33.0501
 20
-4.8194
 30
0.0
 10
-33.0501
 20
-4.8194
 30
0.0
 10
-32.4668
 20
-0.6852
 30
0.0
 10
-32.4668
 20
-0.6852
 30
0.0
 10
-32.4668
 20
-0.6852
 30
0.0
 10
-32.4668
 20
-0.6852
 30
0.0
 10
-32.3371
 20
-0.6852
 30
0.0
 10
-32.3371
 20
-0.6852
 30
0.0
 10
-32.3371
 20
-0.6852
 30
0.0
 10
-32.3371
 20
-0.6852
 30
0.0
 10
-31.7149
 20
-4.8194
 30
0.0
 10
-31.7149
 20
-4.8194
 30
0.0
 10
-31.7149
 20
-4.8194
 30
0.0
 10
-31.7149
 20
-4.8194
 30
0.0
 10
-33.0501
 20
-4.8194
 30
0.0
 10
-33.0501
 20
-4.8194
 30
0.0
  0
SPLINE
  5
5A
330
1F
100
AcDbEntity
  8
ROUND
 62
   250
100
AcDbSpline
210
0.0
220
0.0
230
1.0
 70
    11
 71
     3
 72
    20
 73
    16
 74
     0
 42
0.0000000001
 43
0.0000000001
 40
0.0
 40
0.0
 40
0.0
 40
0.0
 40
0.2
 40
0.2
 40
0.2
 40
0.2
 40
0.4
 40
0.4
 40
0.4
 40
0.4
 40
0.6
 40
0.6
 40
0.6
 40
0.6
 40
1.0
 40
1.0
 40
1.0
 40
1.0
 10
-31.7576
 20
-18.4931
 30
0.0
 10
-31.7576
 20
-18.4931
 30
0.0
 10
-32.3411
 20
-22.6273
 30
0.0
 10
-32.3411
 20
-22.6273
 30
0.0
 10
-32.3411
 20
-22.6273
 30
0.0
 10
-32.3411
 20
-22.6273
 30
0.0
 10
-32.4706
 20
-22.6273
 30
0.0
 10
-32.4706
 20
-22.6273
 30
0.0
 10
-32.4706
 20
-22.6273
 30
0.0
 10
-32.4706
 20
-22.6273
 30
0.0
 10
-33.093
 20
-18.4931
 30
0.0
 10
-33.093
 20
-18.4931
 30
0.0
 10
-33.093
 20
-18.4931
 30
0.0
 10
-33.093
 20
-18.4931
 30
0.0
 10
-31.7576
 20
-18.4931
 30
0.0
 10
-31.7576
 20
-18.4931
 30
0.0
  0
SPLINE
  5
5B
330
1F
100
AcDbEntity
  8
ROUND
 62
   250
100
AcDbSpline
210
0.0
220
0.0
230
1.0
 70
     8
 71
     3
 72
    16
 73
    12
 74
     0
 42
0.0000000001
 43
0.0000000001
 40
0.0
 40
0.0
 40
0.0
 40
0.0
 40
0.25
 40
0.25
 40
0.25
 40
0.25
 40
0.5
 40
0.5
 40
0.5
 40
0.5
 40
1.0
 40
1.0
 40
1.0
 40
1.0
 10
18.4326
 20
7.4712
 30
0.0
 10
18.4326
 20
7.4712
 30
0.0
 10
18.4479
 20
5.7242
 30
0.0
 10
18.4479
 20
5.7242
 30
0.0
 10
18.4479
 20
5.7242
 30
0.0
 10
18.4479
 20
5.7242
 30
0.0
 10
28.116
 20
5.7396
 30
0.0
 10
28.116
 20
5.7396
 30
0.0
 10
28.116
 20
5.7396
 30
0.0
 10
28.116
 20
5.7396
 30
0.0
 10
28.117
 20
7.4918
 30
0.0
 10
28.117
 20
7.4918
 30
0.0
  0
SPLINE
  5
5C
330
1F
100
AcDbEntity
  8
ROUND
 62
   250
100
AcDbSpline
210
0.0
220
0.0
230
1.0
 70
    24
 71
     3
 72
     8
 73
     4
 74
     0
 42
0.0000000001
 43
0.0000000001
 40
0.0
 40
0.0
 40
0.0
 40
0.0
 40
1.0
 40
1.0
 40
1.0
 40
1.0
 10
-23.2619
 20
-24.8578
 30
0.0
 10
-23.2619
 20
-24.8578
 30
0.0
 10
-23.2619
 20
-35.2626
 30
0.0
 10
-23.2619
 20
-35.2626
 30
0.0
  0
SPLINE
  5
5D
330
1F
100
AcDbEntity
  8
ROUND
 62
   250
100
AcDbSpline
210
0.0
220
0.0
230
1.0
 70
    24
 71
     3
 72
     8
 73
     4
 74
     0
 42
0.0000000001
 43
0.0000000001
 40
0.0
 40
0.0
 40
0.0
 40
0.0
 40
1.0
 40
1.0
 40
1.0
 40
1.0
 10
40.0024
 20
-25.0211
 30
0.0
 10
40.0024
 20
-25.0211
 30
0.0
 10
40.0024
 20
-35.2829
 30
0.0
 10
40.0024
 20
-35.2829
 30
0.0
  0
SPLINE
  5
5E
330
1F
100
AcDbEntity
  8
ROUND
 62
   250
100
AcDbSpline
210
0.0
220
0.0
230
1.0
 70
    24
 71
     3
 72
     8
 73
     4
 74
     0
 42
0.0000000001
 43
0.0000000001
 40
0.0
 40
0.0
 40
0.0
 40
0.0
 40
1.0
 40
1.0
 40
1.0
 40
1.0
 10
39.1812
 20
-33.9815
 30
0.0
 10
39.1812
 20
-33.9815
 30
0.0
 10
-23.1075
 20
-33.9815
 30
0.0
 10
-23.1075
 20
-33.9815
 30
0.0
  0
SPLINE
  5
5F
330
1F
100
AcDbEntity
  8
ROUND
 62
   250
100
AcDbSpline
210
0.0
220
0.0
230
1.0
 70
    24
 71
     3
 72
     8
 73
     4
 74
     0
 42
0.0000000001
 43
0.0000000001
 40
0.0
 40
0.0
 40
0.0
 40
0.0
 40
1.0
 40
1.0
 40
1.0
 40
1.0
 10
-25.9224
 20
-0.5551
 30
0.0
 10
-25.9224
 20
-0.5551
 30
0.0
 10
-33.6441
 20
-0.5551
 30
0.0
 10
-33.6441
 20
-0.5551
 30
0.0
  0
SPLINE
  5
60
330
1F
100
AcDbEntity
  8
ROUND
 62
   250
100
AcDbSpline
210
0.0
220
0.0
230
1.0
 70
    24
 71
     3
 72
     8
 73
     4
 74
     0
 42
0.0000000001
 43
0.0000000001
 40
0.0
 40
0.0
 40
0.0
 40
0.0
 40
1.0
 40
1.0
 40
1.0
 40
1.0
 10
-32.4253
 20
-0.5551
 30
0.0
 10
-32.4253
 20
-0.5551
 30
0.0
 10
-32.4253
 20
-21.3504
 30
0.0
 10
-32.4253
 20
-21.3504
 30
0.0
  0
SPLINE
  5
61
330
1F
100
AcDbEntity
  8
ROUND
 62
   250
100
AcDbSpline
210
0.0
220
0.0
230
1.0
 70
    24
 71
     3
 72
     8
 73
     4
 74
     0
 42
0.0000000001
 43
0.0000000001
 40
0.0
 40
0.0
 40
0.0
 40
0.0
 40
1.0
 40
1.0
 40
1.0
 40
1.0
 10
-25.36
 20
-22.6976
 30
0.0
 10
-25.36
 20
-22.6976
 30
0.0
 10
-38.7822
 20
-22.6976
 30
0.0
 10
-38.7822
 20
-22.6976
 30
0.0
  0
SPLINE
  5
62
330
1F
100
AcDbEntity
  8
ROUND
 62
   250
100
AcDbSpline
210
0.0
220
0.0
230
1.0
 70
    24
 71
     3
 72
     8
 73
     4
 74
     0
 42
0.0000000001
 43
0.0000000001
 40
0.0
 40
0.0
 40
0.0
 40
0.0
 40
1.0
 40
1.0
 40
1.0
 40
1.0
 10
-17.3303
 20
24.7506
 30
0.0
 10
-17.3303
 20
24.7506
 30
0.0
 10
-39.2218
 20
24.7506
 30
0.0
 10
-39.2218
 20
24.7506
 30
0.0
  0
SPLINE
  5
63
330
1F
100
AcDbEntity
  8
ROUND
 62
   250
100
AcDbSpline
210
0.0
220
0.0
230
1.0
 70
    24
 71
     3
 72
     8
 73
     4
 74
     0
 42
0.0000000001
 43
0.0000000001
 40
0.0
 40
0.0
 40
0.0
 40
0.0
 40
1.0
 40
1.0
 40
1.0
 40
1.0
 10
-37.8845
 20
23.8634
 30
0.0
 10
-37.8845
 20
23.8634
 30
0.0
 10
-37.8845
 20
-22.5238
 30
0.0
 10
-37.8845
 20
-22.5238
 30
0.0
  0
SPLINE
  5
64
330
1F
100
AcDbEntity
  8
ROUND
 62
   250
100
AcDbSpline
210
0.0
220
0.0
230
1.0
 70
    24
 71
     3
 72
     8
 73
     4
 74
     0
 42
0.0000000001
 43
0.0000000001
 40
0.0
 40
0.0
 40
0.0
 40
0.0
 40
1.0
 40
1.0
 40
1.0
 40
1.0
 10
-6.5833
 20
26.7988
 30
0.0
 10
-6.5833
 20
26.7988
 30
0.0
 10
-6.5833
 20
32.8732
 30
0.0
 10
-6.5833
 20
32.8732
 30
0.0
  0
SPLINE
  5
65
330
1F
100
AcDbEntity
  8
ROUND
 62
   250
100
AcDbSpline
210
0.0
220
0.0
230
1.0
 70
    24
 71
     3
 72
     8
 73
     4
 74
     0
 42
0.0000000001
 43
0.0000000001
 40
0.0
 40
0.0
 40
0.0
 40
0.0
 40
1.0
 40
1.0
 40
1.0
 40
1.0
 10
23.3235
 20
23.0251
 30
0.0
 10
23.3235
 20
23.0251
 30
0.0
 10
23.3235
 20
32.8073
 30
0.0
 10
23.3235
 20
32.8073
 30
0.0
  0
SPLINE
  5
66
330
1F
100
AcDbEntity
  8
ROUND
 62
   250
100
AcDbSpline
210
0.0
220
0.0
230
1.0
 70
    24
 71
     3
 72
     8
 73
     4
 74
     0
 42
0.0000000001
 43
0.0000000001
 40
0.0
 40
0.0
 40
0.0
 40
0.0
 40
1.0
 40
1.0
 40
1.0
 40
1.0
 10
23.0798
 20
31.5315
 30
0.0
 10
23.0798
 20
31.5315
 30
0.0
 10
-6.0844
 20
31.5315
 30
0.0
 10
-6.0844
 20
31.5315
 30
0.0
  0
SPLINE
  5
67
330
1F
100
AcDbEntity
  8
ROUND
 62
   250
100
AcDbSpline
210
0.0
220
0.0
230
1.0
 70
     8
 71
     3
 72
    16
 73
    12
 74
     0
 42
0.0000000001
 43
0.0000000001
 40
0.0
 40
0.0
 40
0.0
 40
0.0
 40
0.25
 40
0.25
 40
0.25
 40
0.25
 40
0.5
 40
0.5
 40
0.5
 40
0.5
 40
1.0
 40
1.0
 40
1.0
 40
1.0
 10
-11.634
 20
7.4873
 30
0.0
 10
-11.634
 20
7.4873
 30
0.0
 10
-11.6187
 20
5.7403
 30
0.0
 10
-11.6187
 20
5.7403
 30
0.0
 10
-11.6187
 20
5.7403
 30
0.0
 10
-11.6187
 20
5.7403
 30
0.0
 10
-1.9506
 20
5.7557
 30
0.0
 10
-1.9506
 20
5.7557
 30
0.0
 10
-1.9506
 20
5.7557
 30
0.0
 10
-1.9506
 20
5.7557
 30
0.0
 10
-1.9497
 20
7.508
 30
0.0
 10
-1.9497
 20
7.508
 30
0.0
  0
SPLINE
  5
68
330
1F
100
AcDbEntity
  8
ROUND
 62
   250
100
AcDbSpline
210
0.0
220
0.0
230
1.0
 70
    24
 71
     3
 72
     8
 73
     4
 74
     0
 42
0.0000000001
 43
0.0000000001
 40
0.0
 40
0.0
 40
0.0
 40
0.0
 40
1.0
 40
1.0
 40
1.0
 40
1.0
 10
-22.6455
 20
-22.6976
 30
0.0
 10
-22.6455
 20
-22.6976
 30
0.0
 10
-23.2619
 20
-20.397
 30
0.0
 10
-23.2619
 20
-20.397
 30
0.0
  0
SPLINE
  5
69
330
1F
100
AcDbEntity
  8
ROUND
 62
   250
100
AcDbSpline
210
0.0
220
0.0
230
1.0
 70
    24
 71
     3
 72
     8
 73
     4
 74
     0
 42
0.0000000001
 43
0.0000000001
 40
0.0
 40
0.0
 40
0.0
 40
0.0
 40
1.0
 40
1.0
 40
1.0
 40
1.0
 10
-24.6997
 20
-0.5551
 30
0.0
 10
-24.6997
 20
-0.5551
 30
0.0
 10
-24.6997
 20
1.1702
 30
0.0
 10
-24.6997
 20
1.1702
 30
0.0
  0
SPLINE
  5
6A
330
1F
100
AcDbEntity
  8
ROUND
 62
   250
100
AcDbSpline
210
0.0
220
0.0
230
1.0
 70
    24
 71
     3
 72
     8
 73
     4
 74
     0
 42
0.0000000001
 43
0.0000000001
 40
0.0
 40
0.0
 40
0.0
 40
0.0
 40
1.0
 40
1.0
 40
1.0
 40
1.0
 10
-23.2619
 20
-20.397
 30
0.0
 10
-23.2619
 20
-20.397
 30
0.0
 10
-23.2619
 20
-0.5551
 30
0.0
 10
-23.2619
 20
-0.5551
 30
0.0
  0
SPLINE
  5
6B
330
1F
100
AcDbEntity
  8
ROUND
 62
   250
100
AcDbSpline
210
0.0
220
0.0
230
1.0
 70
    24
 71
     3
 72
     8
 73
     4
 74
     0
 42
0.0000000001
 43
0.0000000001
 40
0.0
 40
0.0
 40
0.0
 40
0.0
 40
1.0
 40
1.0
 40
1.0
 40
1.0
 10
-18.1855
 20
24.0019
 30
0.0
 10
-18.1855
 20
24.0019
 30
0.0
 10
-20.3863
 20
7.4967
 30
0.0
 10
-20.3863
 20
7.4967
 30
0.0
  0
SPLINE
  5
6C
330
1F
100
AcDbEntity
  8
ROUND
 62
   250
100
AcDbSpline
210
0.0
220
0.0
230
1.0
 70
    24
 71
     3
 72
     8
 73
     4
 74
     0
 42
0.0000000001
 43
0.0000000001
 40
0.0
 40
0.0
 40
0.0
 40
0.0
 40
1.0
 40
1.0
 40
1.0
 40
1.0
 10
-16.3601
 20
1.1702
 30
0.0
 10
-16.3601
 20
1.1702
 30
0.0
 10
-16.3601
 20
7.422
 30
0.0
 10
-16.3601
 20
7.422
 30
0.0
  0
SPLINE
  5
6D
330
1F
100
AcDbEntity
  8
ROUND
 62
   250
100
AcDbSpline
210
0.0
220
0.0
230
1.0
 70
    24
 71
     3
 72
     8
 73
     4
 74
     0
 42
0.0000000001
 43
0.0000000001
 40
0.0
 40
0.0
 40
0.0
 40
0.0
 40
1.0
 40
1.0
 40
1.0
 40
1.0
 10
-22.6455
 20
-22.6976
 30
0.0
 10
-22.6455
 20
-22.6976
 30
0.0
 10
39.3859
 20
-22.6976
 30
0.0
 10
39.3859
 20
-22.6976
 30
0.0
  0
SPLINE
  5
6E
330
1F
100
AcDbEntity
  8
ROUND
 62
   250
100
AcDbSpline
210
0.0
220
0.0
230
1.0
 70
    24
 71
     3
 72
     8
 73
     4
 74
     0
 42
0.0000000001
 43
0.0000000001
 40
0.0
 40
0.0
 40
0.0
 40
0.0
 40
1.0
 40
1.0
 40
1.0
 40
1.0
 10
-23.2619
 20
-20.397
 30
0.0
 10
-23.2619
 20
-20.397
 30
0.0
 10
40.0024
 20
-20.397
 30
0.0
 10
40.0024
 20
-20.397
 30
0.0
  0
SPLINE
  5
6F
330
1F
100
AcDbEntity
  8
ROUND
  6
NEW_LINE1
 62
   250
100
AcDbSpline
210
0.0
220
0.0
230
1.0
 70
    24
 71
     3
 72
     8
 73
     4
 74
     0
 42
0.0000000001
 43
0.0000000001
 40
0.0
 40
0.0
 40
0.0
 40
0.0
 40
1.0
 40
1.0
 40
1.0
 40
1.0
 10
-6.5831
 20
-1.7054
 30
0.0
 10
-6.5831
 20
-1.7054
 30
0.0
 10
-6.5831
 20
25.9009
 30
0.0
 10
-6.5831
 20
25.9009
 30
0.0
  0
SPLINE
  5
71
330
1F
100
AcDbEntity
  8
ROUND
 62
   250
100
AcDbSpline
210
0.0
220
0.0
230
1.0
 70
    24
 71
     3
 72
     8
 73
     4
 74
     0
 42
0.0000000001
 43
0.0000000001
 40
0.0
 40
0.0
 40
0.0
 40
0.0
 40
1.0
 40
1.0
 40
1.0
 40
1.0
 10
3.1942
 20
1.1702
 30
0.0
 10
3.1942
 20
1.1702
 30
0.0
 10
3.1942
 20
7.3856
 30
0.0
 10
3.1942
 20
7.3856
 30
0.0
  0
SPLINE
  5
72
330
1F
100
AcDbEntity
  8
ROUND
  6
NEW_LINE2
 62
   250
100
AcDbSpline
210
0.0
220
0.0
230
1.0
 70
    24
 71
     3
 72
     8
 73
     4
 74
     0
 42
0.0000000001
 43
0.0000000001
 40
0.0
 40
0.0
 40
0.0
 40
0.0
 40
1.0
 40
1.0
 40
1.0
 40
1.0
 10
8.3702
 20
2.3205
 30
0.0
 10
8.3702
 20
2.3205
 30
0.0
 10
8.3702
 20
-23.8479
 30
0.0
 10
8.3702
 20
-23.8479
 30
0.0
  0
SPLINE
  5
74
330
1F
100
AcDbEntity
  8
ROUND
 62
   250
100
AcDbSpline
210
0.0
220
0.0
230
1.0
 70
    24
 71
     3
 72
     8
 73
     4
 74
     0
 42
0.0000000001
 43
0.0000000001
 40
0.0
 40
0.0
 40
0.0
 40
0.0
 40
1.0
 40
1.0
 40
1.0
 40
1.0
 10
11.7213
 20
24.0019
 30
0.0
 10
11.7213
 20
24.0019
 30
0.0
 10
9.5205
 20
7.4967
 30
0.0
 10
9.5205
 20
7.4967
 30
0.0
  0
SPLINE
  5
75
330
1F
100
AcDbEntity
  8
ROUND
 62
   250
100
AcDbSpline
210
0.0
220
0.0
230
1.0
 70
    24
 71
     3
 72
     8
 73
     4
 74
     0
 42
0.0000000001
 43
0.0000000001
 40
0.0
 40
0.0
 40
0.0
 40
0.0
 40
1.0
 40
1.0
 40
1.0
 40
1.0
 10
-24.6997
 20
-0.5551
 30
0.0
 10
-24.6997
 20
-0.5551
 30
0.0
 10
41.4401
 20
-0.5551
 30
0.0
 10
41.4401
 20
-0.5551
 30
0.0
  0
SPLINE
  5
76
330
1F
100
AcDbEntity
  8
ROUND
 62
   250
100
AcDbSpline
210
0.0
220
0.0
230
1.0
 70
    24
 71
     3
 72
     8
 73
     4
 74
     0
 42
0.0000000001
 43
0.0000000001
 40
0.0
 40
0.0
 40
0.0
 40
0.0
 40
1.0
 40
1.0
 40
1.0
 40
1.0
 10
-24.6997
 20
1.1702
 30
0.0
 10
-24.6997
 20
1.1702
 30
0.0
 10
41.4401
 20
1.1702
 30
0.0
 10
41.4401
 20
1.1702
 30
0.0
  0
SPLINE
  5
77
330
1F
100
AcDbEntity
  8
ROUND
 62
   250
100
AcDbSpline
210
0.0
220
0.0
230
1.0
 70
    24
 71
     3
 72
     8
 73
     4
 74
     0
 42
0.0000000001
 43
0.0000000001
 40
0.0
 40
0.0
 40
0.0
 40
0.0
 40
1.0
 40
1.0
 40
1.0
 40
1.0
 10
5.0193
 20
24.0019
 30
0.0
 10
5.0193
 20
24.0019
 30
0.0
 10
7.22
 20
7.4967
 30
0.0
 10
7.22
 20
7.4967
 30
0.0
  0
SPLINE
  5
78
330
1F
100
AcDbEntity
  8
ROUND
 62
   250
100
AcDbSpline
210
0.0
220
0.0
230
1.0
 70
    24
 71
     3
 72
     8
 73
     4
 74
     0
 42
0.0000000001
 43
0.0000000001
 40
0.0
 40
0.0
 40
0.0
 40
0.0
 40
1.0
 40
1.0
 40
1.0
 40
1.0
 10
13.5465
 20
1.1702
 30
0.0
 10
13.5465
 20
1.1702
 30
0.0
 10
13.5465
 20
7.5304
 30
0.0
 10
13.5465
 20
7.5304
 30
0.0
  0
SPLINE
  5
79
330
1F
100
AcDbEntity
  8
ROUND
 62
   250
100
AcDbSpline
210
0.0
220
0.0
230
1.0
 70
    24
 71
     3
 72
     8
 73
     4
 74
     0
 42
0.0000000001
 43
0.0000000001
 40
0.0
 40
0.0
 40
0.0
 40
0.0
 40
1.0
 40
1.0
 40
1.0
 40
1.0
 10
-20.3861
 20
7.4967
 30
0.0
 10
-20.3861
 20
7.4967
 30
0.0
 10
7.22
 20
7.4967
 30
0.0
 10
7.22
 20
7.4967
 30
0.0
  0
SPLINE
  5
7A
330
1F
100
AcDbEntity
  8
ROUND
 62
   250
100
AcDbSpline
210
0.0
220
0.0
230
1.0
 70
    24
 71
     3
 72
     8
 73
     4
 74
     0
 42
0.0000000001
 43
0.0000000001
 40
0.0
 40
0.0
 40
0.0
 40
0.0
 40
1.0
 40
1.0
 40
1.0
 40
1.0
 10
9.5207
 20
7.4967
 30
0.0
 10
9.5207
 20
7.4967
 30
0.0
 10
37.1266
 20
7.4967
 30
0.0
 10
37.1266
 20
7.4967
 30
0.0
  0
SPLINE
  5
7B
330
1F
100
AcDbEntity
  8
ROUND
 62
   250
100
AcDbSpline
210
0.0
220
0.0
230
1.0
 70
    24
 71
     3
 72
     8
 73
     4
 74
     0
 42
0.0000000001
 43
0.0000000001
 40
0.0
 40
0.0
 40
0.0
 40
0.0
 40
1.0
 40
1.0
 40
1.0
 40
1.0
 10
33.101
 20
1.1702
 30
0.0
 10
33.101
 20
1.1702
 30
0.0
 10
33.101
 20
7.496
 30
0.0
 10
33.101
 20
7.496
 30
0.0
  0
SPLINE
  5
7C
330
1F
100
AcDbEntity
  8
ROUND
 62
   250
100
AcDbSpline
210
0.0
220
0.0
230
1.0
 70
    24
 71
     3
 72
     8
 73
     4
 74
     0
 42
0.0000000001
 43
0.0000000001
 40
0.0
 40
0.0
 40
0.0
 40
0.0
 40
1.0
 40
1.0
 40
1.0
 40
1.0
 10
34.926
 20
24.0019
 30
0.0
 10
34.926
 20
24.0019
 30
0.0
 10
37.1266
 20
7.4967
 30
0.0
 10
37.1266
 20
7.4967
 30
0.0
  0
SPLINE
  5
7D
330
1F
100
AcDbEntity
  8
ROUND
 62
   250
100
AcDbSpline
210
0.0
220
0.0
230
1.0
 70
    24
 71
     3
 72
     8
 73
     4
 74
     0
 42
0.0000000001
 43
0.0000000001
 40
0.0
 40
0.0
 40
0.0
 40
0.0
 40
1.0
 40
1.0
 40
1.0
 40
1.0
 10
40.0024
 20
-20.397
 30
0.0
 10
40.0024
 20
-20.397
 30
0.0
 10
40.0024
 20
-0.5551
 30
0.0
 10
40.0024
 20
-0.5551
 30
0.0
  0
SPLINE
  5
7E
330
1F
100
AcDbEntity
  8
ROUND
 62
   250
100
AcDbSpline
210
0.0
220
0.0
230
1.0
 70
    24
 71
     3
 72
     8
 73
     4
 74
     0
 42
0.0000000001
 43
0.0000000001
 40
0.0
 40
0.0
 40
0.0
 40
0.0
 40
1.0
 40
1.0
 40
1.0
 40
1.0
 10
41.4401
 20
-0.5551
 30
0.0
 10
41.4401
 20
-0.5551
 30
0.0
 10
41.4401
 20
1.1702
 30
0.0
 10
41.4401
 20
1.1702
 30
0.0
  0
SPLINE
  5
7F
330
1F
100
AcDbEntity
  8
ROUND
 62
   250
100
AcDbSpline
210
0.0
220
0.0
230
1.0
 70
    24
 71
     3
 72
     8
 73
     4
 74
     0
 42
0.0000000001
 43
0.0000000001
 40
0.0
 40
0.0
 40
0.0
 40
0.0
 40
1.0
 40
1.0
 40
1.0
 40
1.0
 10
39.3859
 20
-22.6976
 30
0.0
 10
39.3859
 20
-22.6976
 30
0.0
 10
40.0024
 20
-20.397
 30
0.0
 10
40.0024
 20
-20.397
 30
0.0
  0
SPLINE
  5
80
330
1F
100
AcDbEntity
  8
ROUND
  6
NEW_LINE3
 62
   250
100
AcDbSpline
210
0.0
220
0.0
230
1.0
 70
    24
 71
     3
 72
     8
 73
     4
 74
     0
 42
0.0000000001
 43
0.0000000001
 40
0.0
 40
0.0
 40
0.0
 40
0.0
 40
1.0
 40
1.0
 40
1.0
 40
1.0
 10
23.3236
 20
-1.7054
 30
0.0
 10
23.3236
 20
-1.7054
 30
0.0
 10
23.3236
 20
23.0251
 30
0.0
 10
23.3236
 20
23.0251
 30
0.0
  0
SPLINE
  5
82
330
1F
100
AcDbEntity
  8
ROUND
 62
   250
100
AcDbSpline
210
0.0
220
0.0
230
1.0
 70
    24
 71
     3
 72
     8
 73
     4
 74
     0
 42
0.0000000001
 43
0.0000000001
 40
0.0
 40
0.0
 40
0.0
 40
0.0
 40
1.0
 40
1.0
 40
1.0
 40
1.0
 10
34.0709
 20
24.7506
 30
0.0
 10
34.0709
 20
24.7506
 30
0.0
 10
12.5764
 20
24.7506
 30
0.0
 10
12.5764
 20
24.7506
 30
0.0
  0
SPLINE
  5
83
330
1F
100
AcDbEntity
  8
ROUND
 62
   250
100
AcDbSpline
210
0.0
220
0.0
230
1.0
 70
    24
 71
     3
 72
     8
 73
     4
 74
     0
 42
0.0000000001
 43
0.0000000001
 40
0.0
 40
0.0
 40
0.0
 40
0.0
 40
1.0
 40
1.0
 40
1.0
 40
1.0
 10
4.1643
 20
24.7506
 30
0.0
 10
4.1643
 20
24.7506
 30
0.0
 10
-17.3303
 20
24.7506
 30
0.0
 10
-17.3303
 20
24.7506
 30
0.0
  0
SPLINE
  5
84
330
1F
100
AcDbEntity
  8
ROUND
 62
   250
100
AcDbSpline
210
0.0
220
0.0
230
1.0
 70
     8
 71
     3
 72
     8
 73
     4
 74
     0
 42
0.0000000001
 43
0.0000000001
 40
0.0
 40
0.0
 40
0.0
 40
0.0
 40
1.0
 40
1.0
 40
1.0
 40
1.0
 10
34.926
 20
24.0019
 30
0.0
 10
34.8688
 20
24.4305
 30
0.0
 10
34.5033
 20
24.7506
 30
0.0
 10
34.0709
 20
24.7506
 30
0.0
  0
SPLINE
  5
85
330
1F
100
AcDbEntity
  8
ROUND
 62
   250
100
AcDbSpline
210
0.0
220
0.0
230
1.0
 70
     8
 71
     3
 72
     8
 73
     4
 74
     0
 42
0.0000000001
 43
0.0000000001
 40
0.0
 40
0.0
 40
0.0
 40
0.0
 40
1.0
 40
1.0
 40
1.0
 40
1.0
 10
12.5764
 20
24.7506
 30
0.0
 10
12.1439
 20
24.7506
 30
0.0
 10
11.7783
 20
24.4305
 30
0.0
 10
11.7213
 20
24.0019
 30
0.0
  0
SPLINE
  5
86
330
1F
100
AcDbEntity
  8
ROUND
 62
   250
100
AcDbSpline
210
0.0
220
0.0
230
1.0
 70
     8
 71
     3
 72
     8
 73
     4
 74
     0
 42
0.0000000001
 43
0.0000000001
 40
0.0
 40
0.0
 40
0.0
 40
0.0
 40
1.0
 40
1.0
 40
1.0
 40
1.0
 10
5.0193
 20
24.0019
 30
0.0
 10
4.9622
 20
24.4305
 30
0.0
 10
4.5965
 20
24.7506
 30
0.0
 10
4.1643
 20
24.7506
 30
0.0
  0
SPLINE
  5
87
330
1F
100
AcDbEntity
  8
ROUND
 62
   250
100
AcDbSpline
210
0.0
220
0.0
230
1.0
 70
     8
 71
     3
 72
     8
 73
     4
 74
     0
 42
0.0000000001
 43
0.0000000001
 40
0.0
 40
0.0
 40
0.0
 40
0.0
 40
1.0
 40
1.0
 40
1.0
 40
1.0
 10
-17.3303
 20
24.7506
 30
0.0
 10
-17.7627
 20
24.7506
 30
0.0
 10
-18.1284
 20
24.4305
 30
0.0
 10
-18.1855
 20
24.0019
 30
0.0
  0
ENDSEC
  0
SECTION
  2
OBJECTS
  0
DICTIONARY
  5
C
330
0
100
AcDbDictionary
  3
ACAD_GROUP
350
D
  3
ACAD_LAYOUT
350
1A
  3
ACAD_MATERIAL
350
3B
  3
ACAD_MLEADERSTYLE
350
AA
  3
ACAD_MLINESTYLE
350
17
  3
ACAD_PLOTSETTINGS
350
19
  3
ACAD_VISUALSTYLE
350
2A
  3
ACDBHEADERROUNDTRIPXREC
350
88
  3
ACDBVARIABLEDICTIONARY
350
A8
  0
DICTIONARY
  5
D
102
{ACAD_REACTORS
330
C
102
}
330
C
100
AcDbDictionary
  0
DICTIONARY
  5
1A
102
{ACAD_REACTORS
330
C
102
}
330
C
100
AcDbDictionary
  0
DICTIONARY
  5
3B
102
{ACAD_REACTORS
330
C
102
}
330
C
100
AcDbDictionary
  3
BYBLOCK
350
3D
  3
BYLAYER
350
3C
  3
GLOBAL
350
3E
  0
DICTIONARY
  5
AA
102
{ACAD_REACTORS
330
C
102
}
330
C
100
AcDbDictionary
  0
DICTIONARY
  5
17
102
{ACAD_REACTORS
330
C
102
}
330
C
100
AcDbDictionary
  3
STANDARD
350
18
  0
DICTIONARY
  5
19
102
{ACAD_REACTORS
330
C
102
}
330
C
100
AcDbDictionary
  0
DICTIONARY
  5
2A
102
{ACAD_REACTORS
330
C
102
}
330
C
100
AcDbDictionary
  3
2DWIREFRAME
350
2F
  3
3D_HIDDEN
350
31
  3
3DWIREFRAME
350
30
  3
BASIC
350
32
  3
BRIGHTEN
350
36
  3
COLORCHANGE
350
3A
  3
CONCEPTUAL
350
34
  3
DIM
350
35
  3
FACEPATTERN
350
39
  3
FLAT
350
2B
  3
FLATWITHEDGES
350
2C
  3
GOURAUD
350
2D
  3
GOURAUDWITHEDGES
350
2E
  3
LINEPATTERN
350
38
  3
REALISTIC
350
33
  3
THICKEN
350
37
  0
DICTIONARY
  5
88
102
{ACAD_REACTORS
330
C
102
}
330
C
100
AcDbDictionary
  3
CEPSNTYPE
350
91
  3
DIMSTYLEDATA
350
A7
  3
FINGERPRINTGUID
350
92
  3
HYPERLINKBASE
350
8B
  3
INSUNITS
350
90
  3
LAYOUTDICT
350
8D
  3
LWETCUNION
350
8F
  3
PLOTSETDICT
350
8E
  3
PSVPSCALE
350
94
  3
PUCSBASE
350
97
  3
PUCSORGBACK
350
9D
  3
PUCSORGBOTTOM
350
99
  3
PUCSORGFRONT
350
9C
  3
PUCSORGLEFT
350
9A
  3
PUCSORGRIGHT
350
9B
  3
PUCSORGTOP
350
98
  3
PUCSORTHOREF
350
95
  3
PUCSORTHOVIEW
350
96
  3
STYLESHEET
350
8C
  3
TSTACKALIGN
350
89
  3
TSTACKSIZE
350
8A
  3
UCSBASE
350
A0
  3
UCSORGBACK
350
A6
  3
UCSORGBOTTOM
350
A2
  3
UCSORGFRONT
350
A5
  3
UCSORGLEFT
350
A3
  3
UCSORGRIGHT
350
A4
  3
UCSORGTOP
350
A1
  3
UCSORTHOREF
350
9E
  3
UCSORTHOVIEW
350
9F
  3
VERSIONGUID
350
93
  0
DICTIONARY
  5
A8
102
{ACAD_REACTORS
330
C
102
}
330
C
100
AcDbDictionary
  3
DIMASSOC
350
AB
  3
HIDETEXT
350
AC
  0
MATERIAL
  5
3D
102
{ACAD_REACTORS
330
3B
102
}
102
{ACAD_XDICTIONARY
360
AF
102
}
330
3B
100
AcDbMaterial
  1
ByBlock
  0
MATERIAL
  5
3C
102
{ACAD_REACTORS
330
3B
102
}
102
{ACAD_XDICTIONARY
360
AD
102
}
330
3B
100
AcDbMaterial
  1
ByLayer
  0
MATERIAL
  5
3E
102
{ACAD_REACTORS
330
3B
102
}
102
{ACAD_XDICTIONARY
360
B1
102
}
330
3B
100
AcDbMaterial
  1
Global
  0
MLINESTYLE
  5
18
102
{ACAD_REACTORS
330
17
102
}
330
17
100
AcDbMlineStyle
  2
Standard
 70
     0
  3

 62
   256
 51
90.0
 52
90.0
 71
     2
 49
0.5
 62
   256
  6
BYLAYER
 49
-0.5
 62
   256
  6
BYLAYER
  0
ACAD_PROXY_OBJECT
  5
2F
102
{ACAD_REACTORS
330
2A
102
}
330
2A
100
AcDbProxyObject
 90
      499
 91
      501
 93
      436
310
42CC9915DA5C99599C985B595049028333333333333E3BF0000000000000FB0107901411070040501600405405064090741402480A0340
1001
ACAD
1000
AcDbSavedByObjectVersion
1070
     0
  0
ACAD_PROXY_OBJECT
  5
31
102
{ACAD_REACTORS
330
2A
102
}
330
2A
100
AcDbProxyObject
 90
      499
 91
      501
 93
      500
310
424CD108121A5919195B90640502408333333333333E3BF0000000000000FB01079024090700405020000000000001110200405405064090740C02480A0340
1001
ACAD
1000
AcDbSavedByObjectVersion
1070
     0
  0
ACAD_PROXY_OBJECT
  5
30
102
{ACAD_REACTORS
330
2A
102
}
330
2A
100
AcDbProxyObject
 90
      499
 91
      501
 93
      436
310
42CCD915DA5C99599C985B595059028333333333333E3BF0000000000000FB0107901411070040501600405405064090741402480A0340
1001
ACAD
1000
AcDbSavedByObjectVersion
1070
     0
  0
ACAD_PROXY_OBJECT
  5
32
102
{ACAD_REACTORS
330
2A
102
}
330
2A
100
AcDbProxyObject
 90
      499
 91
      501
 93
      388
310
4150985CDA58D07406404333333333333E3BF0000000000000FB0107A41107004050150841D405064090741402480A0350
1001
ACAD
1000
AcDbSavedByObjectVersion
1070
     0
  0
ACAD_PROXY_OBJECT
  5
36
102
{ACAD_REACTORS
330
2A
102
}
330
2A
100
AcDbProxyObject
 90
      499
 91
      501
 93
      428
310
42109C9A59DA1D195B90C409028333333333333E3BF0000000000000FB010790141107004050150841D405064090741402480A029950
1001
ACAD
1000
AcDbSavedByObjectVersion
1070
     0
  0
ACAD_PROXY_OBJECT
  5
3A
102
{ACAD_REACTORS
330
2A
102
}
330
2A
100
AcDbProxyObject
 90
      499
 91
      501
 93
      452
310
42D0DBDB1BDC90DA185B99D95104090240C333333333333E3BF0000000000000FB0108901411070040501508421405064090741402480A0350
1001
ACAD
1000
AcDbSavedByObjectVersion
1070
     0
  0
ACAD_PROXY_OBJECT
  5
34
102
{ACAD_REACTORS
330
2A
102
}
330
2A
100
AcDbProxyObject
 90
      499
 91
      501
 93
      500
310
4290DBDB98D95C1D1D585B10940D028333333333333E3BF0000000000000FB0107902409070040501000000000000111010841D405064090740C02480A0340
1001
ACAD
1000
AcDbSavedByObjectVersion
1070
     0
  0
ACAD_PROXY_OBJECT
  5
35
102
{ACAD_REACTORS
330
2A
102
}
330
2A
100
AcDbProxyObject
 90
      499
 91
      501
 93
      412
310
40D11A5B50B409028333333333333E3BF0000000000000FB010790141107004050150841D405064090741402480A02677FFFFFD0
1001
ACAD
1000
AcDbSavedByObjectVersion
1070
     0
  0
ACAD_PROXY_OBJECT
  5
39
102
{ACAD_REACTORS
330
2A
102
}
330
2A
100
AcDbProxyObject
 90
      499
 91
      501
 93
      444
310
42D19858D95C185D1D195C9B90F409028333333333333E3BF0000000000000FB010790141107004050150841D405064090741402480A0350
1001
ACAD
1000
AcDbSavedByObjectVersion
1070
     0
  0
ACAD_PROXY_OBJECT
  5
2B
102
{ACAD_REACTORS
330
2A
102
}
330
2A
100
AcDbProxyObject
 90
      499
 91
      501
 93
      388
310
41119B185D240901404333333333333E3BF0000000000000F9010740A41107004050150841D405064090741402480A1B50
1001
ACAD
1000
AcDbSavedByObjectVersion
1070
     0
  0
ACAD_PROXY_OBJECT
  5
2C
102
{ACAD_REACTORS
330
2A
102
}
330
2A
100
AcDbProxyObject
 90
      499
 91
      501
 93
      476
310
43519B185D15DA5D1A115919D95CD0140901404333333333333E3BF0000000000000F9010740901411070040501600405405064090741402480A1B50
1001
ACAD
1000
AcDbSavedByObjectVersion
1070
     0
  0
ACAD_PROXY_OBJECT
  5
2D
102
{ACAD_REACTORS
330
2A
102
}
330
2A
100
AcDbProxyObject
 90
      499
 91
      501
 93
      412
310
41D1DBDD5C985D5910240902404333333333333E3BF0000000000000F9010740A411070040501641D405064090741402480A1B50
1001
ACAD
1000
AcDbSavedByObjectVersion
1070
     0
  0
ACAD_PROXY_OBJECT
  5
2E
102
{ACAD_REACTORS
330
2A
102
}
330
2A
100
AcDbProxyObject
 90
      499
 91
      501
 93
      500
310
4411DBDD5C985D5915DA5D1A115919D95CD0340902404333333333333E3BF0000000000000F9010740901411070040501600405405064090741402480A1B50
1001
ACAD
1000
AcDbSavedByObjectVersion
1070
     0
  0
ACAD_PROXY_OBJECT
  5
38
102
{ACAD_REACTORS
330
2A
102
}
330
2A
100
AcDbProxyObject
 90
      499
 91
      501
 93
      444
310
42D31A5B995C185D1D195C9B90E409028333333333333E3BF0000000000000FB010790141107004050750841D405064090741402483A0350
1001
ACAD
1000
AcDbSavedByObjectVersion
1070
     0
  0
ACAD_PROXY_OBJECT
  5
33
102
{ACAD_REACTORS
330
2A
102
}
330
2A
100
AcDbProxyObject
 90
      499
 91
      501
 93
      420
310
425499585B1A5CDD1A58D08409028333333333333E3BF0000000000000FB01079019070040501508421405064090741402480A1B40
1001
ACAD
1000
AcDbSavedByObjectVersion
1070
     0
  0
ACAD_PROXY_OBJECT
  5
37
102
{ACAD_REACTORS
330
2A
102
}
330
2A
100
AcDbProxyObject
 90
      499
 91
      501
 93
      412
310
41D51A1A58DAD95B90D409028333333333333E3BF0000000000000FB010790141107004050150C41D405064090741402480A0350
1001
ACAD
1000
AcDbSavedByObjectVersion
1070
     0
  0
XRECORD
  5
91
102
{ACAD_REACTORS
330
88
102
}
330
88
100
AcDbXrecord
 90
        0
  0
XRECORD
  5
A7
102
{ACAD_REACTORS
330
88
102
}
330
88
100
AcDbXrecord
1000
DSTYLE
1002
{
1070
   340
340
11
1002
}
  0
XRECORD
  5
92
102
{ACAD_REACTORS
330
88
102
}
330
88
100
AcDbXrecord
  1
{30734D88-D096-4438-9687-D60313305F08}
  0
XRECORD
  5
8B
102
{ACAD_REACTORS
330
88
102
}
330
88
100
AcDbXrecord
  1

  0
XRECORD
  5
90
102
{ACAD_REACTORS
330
88
102
}
330
88
100
AcDbXrecord
 90
        4
  0
XRECORD
  5
8D
102
{ACAD_REACTORS
330
88
102
}
330
88
100
AcDbXrecord
340
1A
  0
XRECORD
  5
8F
102
{ACAD_REACTORS
330
88
102
}
330
88
100
AcDbXrecord
 90
    10781
  0
XRECORD
  5
8E
102
{ACAD_REACTORS
330
88
102
}
330
88
100
AcDbXrecord
340
19
  0
XRECORD
  5
94
102
{ACAD_REACTORS
330
88
102
}
330
88
100
AcDbXrecord
 40
0.0
  0
XRECORD
  5
97
102
{ACAD_REACTORS
330
88
102
}
330
88
100
AcDbXrecord
340
0
  0
XRECORD
  5
9D
102
{ACAD_REACTORS
330
88
102
}
330
88
100
AcDbXrecord
 10
0.0
 20
0.0
 30
0.0
  0
XRECORD
  5
99
102
{ACAD_REACTORS
330
88
102
}
330
88
100
AcDbXrecord
 10
0.0
 20
0.0
 30
0.0
  0
XRECORD
  5
9C
102
{ACAD_REACTORS
330
88
102
}
330
88
100
AcDbXrecord
 10
0.0
 20
0.0
 30
0.0
  0
XRECORD
  5
9A
102
{ACAD_REACTORS
330
88
102
}
330
88
100
AcDbXrecord
 10
0.0
 20
0.0
 30
0.0
  0
XRECORD
  5
9B
102
{ACAD_REACTORS
330
88
102
}
330
88
100
AcDbXrecord
 10
0.0
 20
0.0
 30
0.0
  0
XRECORD
  5
98
102
{ACAD_REACTORS
330
88
102
}
330
88
100
AcDbXrecord
 10
0.0
 20
0.0
 30
0.0
  0
XRECORD
  5
95
102
{ACAD_REACTORS
330
88
102
}
330
88
100
AcDbXrecord
340
0
  0
XRECORD
  5
96
102
{ACAD_REACTORS
330
88
102
}
330
88
100
AcDbXrecord
 70
     0
  0
XRECORD
  5
8C
102
{ACAD_REACTORS
330
88
102
}
330
88
100
AcDbXrecord
  1

  0
XRECORD
  5
89
102
{ACAD_REACTORS
330
88
102
}
330
88
100
AcDbXrecord
 90
        1
  0
XRECORD
  5
8A
102
{ACAD_REACTORS
330
88
102
}
330
88
100
AcDbXrecord
 90
       70
  0
XRECORD
  5
A0
102
{ACAD_REACTORS
330
88
102
}
330
88
100
AcDbXrecord
340
0
  0
XRECORD
  5
A6
102
{ACAD_REACTORS
330
88
102
}
330
88
100
AcDbXrecord
 10
0.0
 20
0.0
 30
0.0
  0
XRECORD
  5
A2
102
{ACAD_REACTORS
330
88
102
}
330
88
100
AcDbXrecord
 10
0.0
 20
0.0
 30
0.0
  0
XRECORD
  5
A5
102
{ACAD_REACTORS
330
88
102
}
330
88
100
AcDbXrecord
 10
0.0
 20
0.0
 30
0.0
  0
XRECORD
  5
A3
102
{ACAD_REACTORS
330
88
102
}
330
88
100
AcDbXrecord
 10
0.0
 20
0.0
 30
0.0
  0
XRECORD
  5
A4
102
{ACAD_REACTORS
330
88
102
}
330
88
100
AcDbXrecord
 10
0.0
 20
0.0
 30
0.0
  0
XRECORD
  5
A1
102
{ACAD_REACTORS
330
88
102
}
330
88
100
AcDbXrecord
 10
0.0
 20
0.0
 30
0.0
  0
XRECORD
  5
9E
102
{ACAD_REACTORS
330
88
102
}
330
88
100
AcDbXrecord
340
0
  0
XRECORD
  5
9F
102
{ACAD_REACTORS
330
88
102
}
330
88
100
AcDbXrecord
 70
     0
  0
XRECORD
  5
93
102
{ACAD_REACTORS
330
88
102
}
330
88
100
AcDbXrecord
  1
{FAEB1C32-E019-11D5-929B-00C0DF256EC4}
  0
DICTIONARYVAR
  5
AB
102
{ACAD_REACTORS
330
A8
102
}
330
A8
100
DictionaryVariables
280
     0
  1
2
  0
DICTIONARYVAR
  5
AC
102
{ACAD_REACTORS
330
A8
102
}
330
A8
100
DictionaryVariables
280
     0
  1
1
  0
DICTIONARY
  5
AF
330
3D
100
AcDbDictionary
280
     1
  3
ACAD_XREC_ROUNDTRIP
360
B0
  0
DICTIONARY
  5
AD
330
3C
100
AcDbDictionary
280
     1
  3
ACAD_XREC_ROUNDTRIP
360
AE
  0
DICTIONARY
  5
B1
330
3E
100
AcDbDictionary
280
     1
  3
ACAD_XREC_ROUNDTRIP
360
B2
  0
XRECORD
  5
B0
102
{ACAD_REACTORS
330
AF
102
}
330
AF
100
AcDbXrecord
102
MATERIAL
148
0.0
149
0.0
149
0.0
 93
        0
 94
      127
282
     0
 72
     1
 77
     1
171
     1
175
     1
179
     1
273
     0
  0
XRECORD
  5
AE
102
{ACAD_REACTORS
330
AD
102
}
330
AD
100
AcDbXrecord
102
MATERIAL
148
0.0
149
0.0
149
0.0
 93
        0
 94
      127
282
     0
 72
     1
 77
     1
171
     1
175
     1
179
     1
273
     0
  0
XRECORD
  5
B2
102
{ACAD_REACTORS
330
B1
102
}
330
B1
100
AcDbXrecord
102
MATERIAL
148
0.0
149
0.0
149
0.0
 93
        0
 94
      127
282
     0
 72
     1
 77
     1
171
     1
175
     1
179
     1
273
     0
  0
ENDSEC
  0
EOF
