  0
SECTION
  2
HEADER
  9
$ACADVER
  1
AC1014
  9
$ACADMAINTVER
 70
     9
  9
$DWGCODEPAGE
  3
ANSI_1250
  9
$INSBASE
 10
0.0
 20
0.0
 30
0.0
  9
$EXTMIN
 10
-55.4865
 20
-19.6262
 30
0.0
  9
$EXTMAX
 10
55.4865
 20
19.6704
 30
0.0
  9
$LIMMIN
 10
0.0
 20
0.0
  9
$LIMMAX
 10
12.0
 20
9.0
  9
$ORTHOMODE
 70
     0
  9
$REGENMODE
 70
     1
  9
$FILLMODE
 70
     1
  9
$QTEXTMODE
 70
     0
  9
$MIRRTEXT
 70
     1
  9
$DRAGMODE
 70
     2
  9
$LTSCALE
 40
1.0
  9
$OSMODE
 70
    37
  9
$ATTMODE
 70
     1
  9
$TEXTSIZE
 40
0.2
  9
$TRACEWID
 40
0.05
  9
$TEXTSTYLE
  7
STANDARD
  9
$CLAYER
  8
0
  9
$CELTYPE
  6
BYLAYER
  9
$CECOLOR
 62
   256
  9
$CELTSCALE
 40
1.0
  9
$DELOBJ
 70
     1
  9
$DISPSILH
 70
     0
  9
$DIMSCALE
 40
1.0
  9
$DIMASZ
 40
0.18
  9
$DIMEXO
 40
0.0625
  9
$DIMDLI
 40
0.38
  9
$DIMRND
 40
0.0
  9
$DIMDLE
 40
0.0
  9
$DIMEXE
 40
0.18
  9
$DIMTP
 40
0.0
  9
$DIMTM
 40
0.0
  9
$DIMTXT
 40
0.18
  9
$DIMCEN
 40
0.09
  9
$DIMTSZ
 40
0.0
  9
$DIMTOL
 70
     0
  9
$DIMLIM
 70
     0
  9
$DIMTIH
 70
     1
  9
$DIMTOH
 70
     1
  9
$DIMSE1
 70
     0
  9
$DIMSE2
 70
     0
  9
$DIMTAD
 70
     0
  9
$DIMZIN
 70
     0
  9
$DIMBLK
  1

  9
$DIMASO
 70
     1
  9
$DIMSHO
 70
     1
  9
$DIMPOST
  1

  9
$DIMAPOST
  1

  9
$DIMALT
 70
     0
  9
$DIMALTD
 70
     2
  9
$DIMALTF
 40
25.4
  9
$DIMLFAC
 40
1.0
  9
$DIMTOFL
 70
     0
  9
$DIMTVP
 40
0.0
  9
$DIMTIX
 70
     0
  9
$DIMSOXD
 70
     0
  9
$DIMSAH
 70
     0
  9
$DIMBLK1
  1

  9
$DIMBLK2
  1

  9
$DIMSTYLE
  2
STANDARD
  9
$DIMCLRD
 70
     0
  9
$DIMCLRE
 70
     0
  9
$DIMCLRT
 70
     0
  9
$DIMTFAC
 40
1.0
  9
$DIMGAP
 40
0.09
  9
$DIMJUST
 70
     0
  9
$DIMSD1
 70
     0
  9
$DIMSD2
 70
     0
  9
$DIMTOLJ
 70
     1
  9
$DIMTZIN
 70
     0
  9
$DIMALTZ
 70
     0
  9
$DIMALTTZ
 70
     0
  9
$DIMFIT
 70
     3
  9
$DIMUPT
 70
     0
  9
$DIMUNIT
 70
     2
  9
$DIMDEC
 70
     4
  9
$DIMTDEC
 70
     4
  9
$DIMALTU
 70
     2
  9
$DIMALTTD
 70
     2
  9
$DIMTXSTY
  7
STANDARD
  9
$DIMAUNIT
 70
     0
  9
$LUNITS
 70
     2
  9
$LUPREC
 70
     4
  9
$SKETCHINC
 40
0.1
  9
$FILLETRAD
 40
0.5
  9
$AUNITS
 70
     0
  9
$AUPREC
 70
     0
  9
$MENU
  1
.
  9
$ELEVATION
 40
0.0
  9
$PELEVATION
 40
0.0
  9
$THICKNESS
 40
0.0
  9
$LIMCHECK
 70
     0
  9
$CHAMFERA
 40
0.5
  9
$CHAMFERB
 40
0.5
  9
$CHAMFERC
 40
1.0
  9
$CHAMFERD
 40
0.0
  9
$SKPOLY
 70
     0
  9
$TDCREATE
 40
2456272.397980695
  9
$TDUPDATE
 40
2456272.397980706
  9
$TDINDWG
 40
0.0000000116
  9
$TDUSRTIMER
 40
0.0000000116
  9
$USRTIMER
 70
     1
  9
$ANGBASE
 50
0.0
  9
$ANGDIR
 70
     0
  9
$PDMODE
 70
     0
  9
$PDSIZE
 40
0.0
  9
$PLINEWID
 40
0.0
  9
$COORDS
 70
     1
  9
$SPLFRAME
 70
     0
  9
$SPLINETYPE
 70
     6
  9
$SPLINESEGS
 70
     8
  9
$ATTDIA
 70
     0
  9
$ATTREQ
 70
     1
  9
$HANDLING
 70
     1
  9
$HANDSEED
  5
102
  9
$SURFTAB1
 70
     6
  9
$SURFTAB2
 70
     6
  9
$SURFTYPE
 70
     6
  9
$SURFU
 70
     6
  9
$SURFV
 70
     6
  9
$UCSNAME
  2

  9
$UCSORG
 10
0.0
 20
0.0
 30
0.0
  9
$UCSXDIR
 10
1.0
 20
0.0
 30
0.0
  9
$UCSYDIR
 10
0.0
 20
1.0
 30
0.0
  9
$PUCSNAME
  2

  9
$PUCSORG
 10
0.0
 20
0.0
 30
0.0
  9
$PUCSXDIR
 10
1.0
 20
0.0
 30
0.0
  9
$PUCSYDIR
 10
0.0
 20
1.0
 30
0.0
  9
$USERI1
 70
     0
  9
$USERI2
 70
     0
  9
$USERI3
 70
     0
  9
$USERI4
 70
     0
  9
$USERI5
 70
     0
  9
$USERR1
 40
0.0
  9
$USERR2
 40
0.0
  9
$USERR3
 40
0.0
  9
$USERR4
 40
0.0
  9
$USERR5
 40
0.0
  9
$WORLDVIEW
 70
     1
  9
$SHADEDGE
 70
     3
  9
$SHADEDIF
 70
    70
  9
$TILEMODE
 70
     1
  9
$MAXACTVP
 70
    64
  9
$PINSBASE
 10
0.0
 20
0.0
 30
0.0
  9
$PLIMCHECK
 70
     0
  9
$PEXTMIN
 10
1.000000000000000E+20
 20
1.000000000000000E+20
 30
1.000000000000000E+20
  9
$PEXTMAX
 10
-1.000000000000000E+20
 20
-1.000000000000000E+20
 30
-1.000000000000000E+20
  9
$PLIMMIN
 10
0.0
 20
0.0
  9
$PLIMMAX
 10
12.0
 20
9.0
  9
$UNITMODE
 70
     0
  9
$VISRETAIN
 70
     1
  9
$PLINEGEN
 70
     0
  9
$PSLTSCALE
 70
     1
  9
$TREEDEPTH
 70
  3020
  9
$PICKSTYLE
 70
     1
  9
$CMLSTYLE
  2
STANDARD
  9
$CMLJUST
 70
     0
  9
$CMLSCALE
 40
1.0
  9
$PROXYGRAPHICS
 70
     1
  9
$MEASUREMENT
 70
     0
  0
ENDSEC
  0
SECTION
  2
CLASSES
  0
CLASS
  1
ACDBDICTIONARYWDFLT
  2
AcDbDictionaryWithDefault
  3
ObjectDBX Classes
 90
        0
280
     0
281
     0
  0
CLASS
  1
VISUALSTYLE
  2
AcDbVisualStyle
  3
ObjectDBX Classes
 90
     4095
280
     0
281
     0
  0
CLASS
  1
MATERIAL
  2
AcDbMaterial
  3
ObjectDBX Classes
 90
     1153
280
     0
281
     0
  0
CLASS
  1
DICTIONARYVAR
  2
AcDbDictionaryVar
  3
ObjectDBX Classes
 90
        0
280
     0
281
     0
  0
CLASS
  1
XRECORD
  2
AcDbXrecord
  3
AutoCAD 2000
 90
        0
280
     0
281
     0
  0
CLASS
  1
LWPOLYLINE
  2
AcDbPolyline
  3
AutoCAD 2000
 90
        0
280
     0
281
     1
  0
CLASS
  1
HATCH
  2
AcDbHatch
  3
AutoCAD 2000
 90
        0
280
     0
281
     1
  0
CLASS
  1
ACDBPLACEHOLDER
  2
AcDbPlaceHolder
  3
ObjectDBX Classes
 90
        0
280
     0
281
     0
  0
CLASS
  1
LAYOUT
  2
AcDbLayout
  3
ObjectDBX Classes
 90
        0
280
     0
281
     0
  0
ENDSEC
  0
SECTION
  2
TABLES
  0
TABLE
  2
VPORT
  5
8
330
0
100
AcDbSymbolTable
 70
     1
  0
VPORT
  5
29
330
8
100
AcDbSymbolTableRecord
100
AcDbViewportTableRecord
  2
*ACTIVE
 70
     0
 10
0.0
 20
0.0
 11
1.0
 21
1.0
 12
10.42990654205607
 22
4.5
 13
0.0
 23
0.0
 14
0.5
 24
0.5
 15
0.5
 25
0.5
 16
0.0
 26
0.0
 36
1.0
 17
0.0
 27
0.0
 37
0.0
 40
9.0
 41
1.972972972850329
 42
50.0
 43
0.0
 44
0.0
 50
0.0
 51
0.0
 71
     0
 72
   100
 73
     1
 74
     3
 75
     0
 76
     0
 77
     0
 78
     0
  0
ENDTAB
  0
TABLE
  2
LTYPE
  5
5
330
0
100
AcDbSymbolTable
 70
     2
  0
LTYPE
  5
14
330
5
100
AcDbSymbolTableRecord
100
AcDbLinetypeTableRecord
  2
BYBLOCK
 70
     0
  3

 72
    65
 73
     0
 40
0.0
  0
LTYPE
  5
15
330
5
100
AcDbSymbolTableRecord
100
AcDbLinetypeTableRecord
  2
BYLAYER
 70
     0
  3

 72
    65
 73
     0
 40
0.0
  0
LTYPE
  5
16
330
5
100
AcDbSymbolTableRecord
100
AcDbLinetypeTableRecord
  2
CONTINUOUS
 70
     0
  3
Solid line
 72
    65
 73
     0
 40
0.0
  0
LTYPE
  5
B3
330
5
100
AcDbSymbolTableRecord
100
AcDbLinetypeTableRecord
  2
NEW_LINE1
 70
     0
  3

 72
    65
 73
     4
 40
1.2
 49
0.5
 74
     4
 75
     0
340
0
 46
1.0
 50
0.0
 44
0.0
 45
0.0
 49
-0.3
 74
     4
 75
     0
340
0
 46
1.0
 50
0.0
 44
0.0
 45
0.0
 49
0.1
 74
     4
 75
     0
340
0
 46
1.0
 50
0.0
 44
0.0
 45
0.0
 49
-0.3
 74
     4
 75
     0
340
0
 46
1.0
 50
0.0
 44
0.0
 45
0.0
  0
ENDTAB
  0
TABLE
  2
LAYER
  5
2
330
0
100
AcDbSymbolTable
 70
     2
  0
LAYER
  5
10
330
2
100
AcDbSymbolTableRecord
100
AcDbLayerTableRecord
  2
0
 70
     0
 62
     7
  6
CONTINUOUS
  0
LAYER
  5
40
330
2
100
AcDbSymbolTableRecord
100
AcDbLayerTableRecord
  2
VRSTVA_1
 70
     0
 62
     7
  6
CONTINUOUS
  0
ENDTAB
  0
TABLE
  2
STYLE
  5
3
330
0
100
AcDbSymbolTable
 70
     1
  0
STYLE
  5
11
330
3
100
AcDbSymbolTableRecord
100
AcDbTextStyleTableRecord
  2
STANDARD
 70
     0
 40
0.0
 41
1.0
 50
0.0
 71
     0
 42
0.2
  3
txt
  4

  0
ENDTAB
  0
TABLE
  2
VIEW
  5
6
330
0
100
AcDbSymbolTable
 70
     0
  0
ENDTAB
  0
TABLE
  2
UCS
  5
7
330
0
100
AcDbSymbolTable
 70
     0
  0
ENDTAB
  0
TABLE
  2
APPID
  5
9
330
0
100
AcDbSymbolTable
 70
     2
  0
APPID
  5
12
330
9
100
AcDbSymbolTableRecord
100
AcDbRegAppTableRecord
  2
ACAD
 70
     0
  0
APPID
  5
3F
330
9
100
AcDbSymbolTableRecord
100
AcDbRegAppTableRecord
  2
ODA
 70
     0
  0
ENDTAB
  0
TABLE
  2
DIMSTYLE
  5
A
330
0
100
AcDbSymbolTable
 70
     1
  0
DIMSTYLE
105
27
330
A
100
AcDbSymbolTableRecord
100
AcDbDimStyleTableRecord
  2
STANDARD
 70
     0
  3

  4

  5

  6

  7

 40
1.0
 41
0.18
 42
0.0625
 43
0.38
 44
0.18
 45
0.0
 46
0.0
 47
0.0
 48
0.0
140
0.18
141
0.09
142
0.0
143
25.4
144
1.0
145
0.0
146
1.0
147
0.09
 71
     0
 72
     0
 73
     1
 74
     1
 75
     0
 76
     0
 77
     0
 78
     0
170
     0
171
     2
172
     0
173
     0
174
     0
175
     0
176
     0
177
     0
178
     0
270
     2
271
     4
272
     4
273
     2
274
     2
340
11
275
     0
280
     0
281
     0
282
     0
283
     1
284
     0
285
     0
286
     0
287
     3
288
     0
  0
ENDTAB
  0
TABLE
  2
BLOCK_RECORD
  5
1
330
0
100
AcDbSymbolTable
 70
     1
  0
BLOCK_RECORD
  5
1F
330
1
100
AcDbSymbolTableRecord
100
AcDbBlockTableRecord
  2
*MODEL_SPACE
  0
BLOCK_RECORD
  5
1B
330
1
100
AcDbSymbolTableRecord
100
AcDbBlockTableRecord
  2
*PAPER_SPACE
  0
ENDTAB
  0
ENDSEC
  0
SECTION
  2
BLOCKS
  0
BLOCK
  5
20
330
1F
100
AcDbEntity
  8
0
100
AcDbBlockBegin
  2
*MODEL_SPACE
 70
     0
 10
0.0
 20
0.0
 30
0.0
  3
*MODEL_SPACE
  1

  0
ENDBLK
  5
21
330
1F
100
AcDbEntity
  8
0
100
AcDbBlockEnd
  0
BLOCK
  5
1C
330
1B
100
AcDbEntity
 67
     1
  8
0
100
AcDbBlockBegin
  2
*PAPER_SPACE
 70
     0
 10
0.0
 20
0.0
 30
0.0
  3
*PAPER_SPACE
  1

  0
ENDBLK
  5
1D
330
1B
100
AcDbEntity
 67
     1
  8
0
100
AcDbBlockEnd
  0
ENDSEC
  0
SECTION
  2
ENTITIES
  0
SPLINE
  5
41
330
1F
100
AcDbEntity
  8
VRSTVA_1
 62
   250
100
AcDbSpline
210
0.0
220
0.0
230
1.0
 70
    24
 71
     3
 72
     8
 73
     4
 74
     0
 42
0.0000000001
 43
0.0000000001
 40
0.0
 40
0.0
 40
0.0
 40
0.0
 40
1.0
 40
1.0
 40
1.0
 40
1.0
 10
-45.4296
 20
-10.0741
 30
0.0
 10
-45.4296
 20
-10.0741
 30
0.0
 10
-45.4296
 20
-19.4837
 30
0.0
 10
-45.4296
 20
-19.4837
 30
0.0
  0
SPLINE
  5
42
330
1F
100
AcDbEntity
  8
VRSTVA_1
 62
   250
100
AcDbSpline
210
0.0
220
0.0
230
1.0
 70
    24
 71
     3
 72
     8
 73
     4
 74
     0
 42
0.0000000001
 43
0.0000000001
 40
0.0
 40
0.0
 40
0.0
 40
0.0
 40
1.0
 40
1.0
 40
1.0
 40
1.0
 10
40.2947
 20
-4.9707
 30
0.0
 10
40.2947
 20
-4.9707
 30
0.0
 10
40.2947
 20
-19.4837
 30
0.0
 10
40.2947
 20
-19.4837
 30
0.0
  0
SPLINE
  5
43
330
1F
100
AcDbEntity
  8
VRSTVA_1
 62
   250
100
AcDbSpline
210
0.0
220
0.0
230
1.0
 70
    24
 71
     3
 72
     8
 73
     4
 74
     0
 42
0.0000000001
 43
0.0000000001
 40
0.0
 40
0.0
 40
0.0
 40
0.0
 40
1.0
 40
1.0
 40
1.0
 40
1.0
 10
-43.6168
 20
-19.0792
 30
0.0
 10
-43.6168
 20
-19.0792
 30
0.0
 10
-4.4715
 20
-19.0792
 30
0.0
 10
-4.4715
 20
-19.0792
 30
0.0
  0
SPLINE
  5
44
330
1F
100
AcDbEntity
  8
VRSTVA_1
 62
   250
100
AcDbSpline
210
0.0
220
0.0
230
1.0
 70
    24
 71
     3
 72
     8
 73
     4
 74
     0
 42
0.0000000001
 43
0.0000000001
 40
0.0
 40
0.0
 40
0.0
 40
0.0
 40
1.0
 40
1.0
 40
1.0
 40
1.0
 10
37.6641
 20
-19.0792
 30
0.0
 10
37.6641
 20
-19.0792
 30
0.0
 10
-4.4715
 20
-19.0792
 30
0.0
 10
-4.4715
 20
-19.0792
 30
0.0
  0
SPLINE
  5
45
330
1F
100
AcDbEntity
  8
VRSTVA_1
 62
   250
100
AcDbSpline
210
0.0
220
0.0
230
1.0
 70
    11
 71
     3
 72
    16
 73
    12
 74
     0
 42
0.0000000001
 43
0.0000000001
 40
0.0
 40
0.0
 40
0.0
 40
0.0
 40
0.25
 40
0.25
 40
0.25
 40
0.25
 40
0.5
 40
0.5
 40
0.5
 40
0.5
 40
1.0
 40
1.0
 40
1.0
 40
1.0
 10
-41.4186
 20
-18.5656
 30
0.0
 10
-41.4186
 20
-18.5656
 30
0.0
 10
-44.7493
 20
-19.0652
 30
0.0
 10
-44.7493
 20
-19.0652
 30
0.0
 10
-44.7493
 20
-19.0652
 30
0.0
 10
-44.7493
 20
-19.0652
 30
0.0
 10
-41.4186
 20
-19.5648
 30
0.0
 10
-41.4186
 20
-19.5648
 30
0.0
 10
-41.4186
 20
-19.5648
 30
0.0
 10
-41.4186
 20
-19.5648
 30
0.0
 10
-41.4186
 20
-18.5656
 30
0.0
 10
-41.4186
 20
-18.5656
 30
0.0
  0
SPLINE
  5
46
330
1F
100
AcDbEntity
  8
VRSTVA_1
 62
   250
100
AcDbSpline
210
0.0
220
0.0
230
1.0
 70
    11
 71
     3
 72
    16
 73
    12
 74
     0
 42
0.0000000001
 43
0.0000000001
 40
0.0
 40
0.0
 40
0.0
 40
0.0
 40
0.25
 40
0.25
 40
0.25
 40
0.25
 40
0.5
 40
0.5
 40
0.5
 40
0.5
 40
1.0
 40
1.0
 40
1.0
 40
1.0
 10
36.3876
 20
-19.5578
 30
0.0
 10
36.3876
 20
-19.5578
 30
0.0
 10
39.7183
 20
-19.0582
 30
0.0
 10
39.7183
 20
-19.0582
 30
0.0
 10
39.7183
 20
-19.0582
 30
0.0
 10
39.7183
 20
-19.0582
 30
0.0
 10
36.3876
 20
-18.5586
 30
0.0
 10
36.3876
 20
-18.5586
 30
0.0
 10
36.3876
 20
-18.5586
 30
0.0
 10
36.3876
 20
-18.5586
 30
0.0
 10
36.3876
 20
-19.5578
 30
0.0
 10
36.3876
 20
-19.5578
 30
0.0
  0
SPLINE
  5
47
330
1F
100
AcDbEntity
  8
VRSTVA_1
 62
   250
100
AcDbSpline
210
0.0
220
0.0
230
1.0
 70
    24
 71
     3
 72
     8
 73
     4
 74
     0
 42
0.0000000001
 43
0.0000000001
 40
0.0
 40
0.0
 40
0.0
 40
0.0
 40
1.0
 40
1.0
 40
1.0
 40
1.0
 10
-45.9447
 20
15.2382
 30
0.0
 10
-45.9447
 20
15.2382
 30
0.0
 10
-50.7744
 20
15.2382
 30
0.0
 10
-50.7744
 20
15.2382
 30
0.0
  0
SPLINE
  5
48
330
1F
100
AcDbEntity
  8
VRSTVA_1
 62
   250
100
AcDbSpline
210
0.0
220
0.0
230
1.0
 70
    24
 71
     3
 72
     8
 73
     4
 74
     0
 42
0.0000000001
 43
0.0000000001
 40
0.0
 40
0.0
 40
0.0
 40
0.0
 40
1.0
 40
1.0
 40
1.0
 40
1.0
 10
-46.2907
 20
-3.3712
 30
0.0
 10
-46.2907
 20
-3.3712
 30
0.0
 10
-50.8278
 20
-3.3712
 30
0.0
 10
-50.8278
 20
-3.3712
 30
0.0
  0
SPLINE
  5
49
330
1F
100
AcDbEntity
  8
VRSTVA_1
100
AcDbSpline
210
0.0
220
0.0
230
1.0
 70
    24
 71
     3
 72
     8
 73
     4
 74
     0
 42
0.0000000001
 43
0.0000000001
 40
0.0
 40
0.0
 40
0.0
 40
0.0
 40
1.0
 40
1.0
 40
1.0
 40
1.0
 10
-50.4232
 20
-8.8488
 30
0.0
 10
-50.4232
 20
-8.8488
 30
0.0
 10
-50.4232
 20
19.2702
 30
0.0
 10
-50.4232
 20
19.2702
 30
0.0
  0
SPLINE
  5
4A
330
1F
100
AcDbEntity
  8
VRSTVA_1
 62
   250
100
AcDbSpline
210
0.0
220
0.0
230
1.0
 70
    11
 71
     3
 72
    16
 73
    12
 74
     0
 42
0.0000000001
 43
0.0000000001
 40
0.0
 40
0.0
 40
0.0
 40
0.0
 40
0.25
 40
0.25
 40
0.25
 40
0.25
 40
0.5
 40
0.5
 40
0.5
 40
0.5
 40
1.0
 40
1.0
 40
1.0
 40
1.0
 10
-49.9466
 20
-6.4521
 30
0.0
 10
-49.9466
 20
-6.4521
 30
0.0
 10
-50.4461
 20
-3.1214
 30
0.0
 10
-50.4461
 20
-3.1214
 30
0.0
 10
-50.4461
 20
-3.1214
 30
0.0
 10
-50.4461
 20
-3.1214
 30
0.0
 10
-50.9457
 20
-6.4521
 30
0.0
 10
-50.9457
 20
-6.4521
 30
0.0
 10
-50.9457
 20
-6.4521
 30
0.0
 10
-50.9457
 20
-6.4521
 30
0.0
 10
-49.9466
 20
-6.4521
 30
0.0
 10
-49.9466
 20
-6.4521
 30
0.0
  0
SPLINE
  5
4B
330
1F
100
AcDbEntity
  8
VRSTVA_1
 62
   250
100
AcDbSpline
210
0.0
220
0.0
230
1.0
 70
    11
 71
     3
 72
    16
 73
    12
 74
     0
 42
0.0000000001
 43
0.0000000001
 40
0.0
 40
0.0
 40
0.0
 40
0.0
 40
0.25
 40
0.25
 40
0.25
 40
0.25
 40
0.5
 40
0.5
 40
0.5
 40
0.5
 40
1.0
 40
1.0
 40
1.0
 40
1.0
 10
-50.9114
 20
18.5381
 30
0.0
 10
-50.9114
 20
18.5381
 30
0.0
 10
-50.4118
 20
15.2074
 30
0.0
 10
-50.4118
 20
15.2074
 30
0.0
 10
-50.4118
 20
15.2074
 30
0.0
 10
-50.4118
 20
15.2074
 30
0.0
 10
-49.9123
 20
18.5381
 30
0.0
 10
-49.9123
 20
18.5381
 30
0.0
 10
-49.9123
 20
18.5381
 30
0.0
 10
-49.9123
 20
18.5381
 30
0.0
 10
-50.9114
 20
18.5381
 30
0.0
 10
-50.9114
 20
18.5381
 30
0.0
  0
SPLINE
  5
4C
330
1F
100
AcDbEntity
  8
VRSTVA_1
 62
   250
100
AcDbSpline
210
0.0
220
0.0
230
1.0
 70
    24
 71
     3
 72
     8
 73
     4
 74
     0
 42
0.0000000001
 43
0.0000000001
 40
0.0
 40
0.0
 40
0.0
 40
0.0
 40
1.0
 40
1.0
 40
1.0
 40
1.0
 10
34.7255
 20
18.3219
 30
0.0
 10
34.7255
 20
18.3219
 30
0.0
 10
54.9068
 20
18.2813
 30
0.0
 10
54.9068
 20
18.2813
 30
0.0
  0
SPLINE
  5
4D
330
1F
100
AcDbEntity
  8
VRSTVA_1
 62
   250
100
AcDbSpline
210
0.0
220
0.0
230
1.0
 70
    24
 71
     3
 72
     8
 73
     4
 74
     0
 42
0.0000000001
 43
0.0000000001
 40
0.0
 40
0.0
 40
0.0
 40
0.0
 40
1.0
 40
1.0
 40
1.0
 40
1.0
 10
34.2066
 20
-8.1533
 30
0.0
 10
34.2066
 20
-8.1533
 30
0.0
 10
55.4865
 20
-8.1533
 30
0.0
 10
55.4865
 20
-8.1533
 30
0.0
  0
SPLINE
  5
4E
330
1F
100
AcDbEntity
  8
VRSTVA_1
100
AcDbSpline
210
0.0
220
0.0
230
1.0
 70
    24
 71
     3
 72
     8
 73
     4
 74
     0
 42
0.0000000001
 43
0.0000000001
 40
0.0
 40
0.0
 40
0.0
 40
0.0
 40
1.0
 40
1.0
 40
1.0
 40
1.0
 10
54.5023
 20
16.5487
 30
0.0
 10
54.5023
 20
16.5487
 30
0.0
 10
54.5023
 20
8.5738
 30
0.0
 10
54.5023
 20
8.5738
 30
0.0
  0
SPLINE
  5
4F
330
1F
100
AcDbEntity
  8
VRSTVA_1
100
AcDbSpline
210
0.0
220
0.0
230
1.0
 70
    24
 71
     3
 72
     8
 73
     4
 74
     0
 42
0.0000000001
 43
0.0000000001
 40
0.0
 40
0.0
 40
0.0
 40
0.0
 40
1.0
 40
1.0
 40
1.0
 40
1.0
 10
54.5023
 20
-7.3799
 30
0.0
 10
54.5023
 20
-7.3799
 30
0.0
 10
54.5023
 20
8.5739
 30
0.0
 10
54.5023
 20
8.5739
 30
0.0
  0
SPLINE
  5
50
330
1F
100
AcDbEntity
  8
VRSTVA_1
 62
   250
100
AcDbSpline
210
0.0
220
0.0
230
1.0
 70
    11
 71
     3
 72
    16
 73
    12
 74
     0
 42
0.0000000001
 43
0.0000000001
 40
0.0
 40
0.0
 40
0.0
 40
0.0
 40
0.25
 40
0.25
 40
0.25
 40
0.25
 40
0.5
 40
0.5
 40
0.5
 40
0.5
 40
1.0
 40
1.0
 40
1.0
 40
1.0
 10
55.0019
 20
14.3583
 30
0.0
 10
55.0019
 20
14.3583
 30
0.0
 10
54.5024
 20
17.689
 30
0.0
 10
54.5024
 20
17.689
 30
0.0
 10
54.5024
 20
17.689
 30
0.0
 10
54.5024
 20
17.689
 30
0.0
 10
54.0028
 20
14.3583
 30
0.0
 10
54.0028
 20
14.3583
 30
0.0
 10
54.0028
 20
14.3583
 30
0.0
 10
54.0028
 20
14.3583
 30
0.0
 10
55.0019
 20
14.3583
 30
0.0
 10
55.0019
 20
14.3583
 30
0.0
  0
SPLINE
  5
51
330
1F
100
AcDbEntity
  8
VRSTVA_1
 62
   250
100
AcDbSpline
210
0.0
220
0.0
230
1.0
 70
    11
 71
     3
 72
    16
 73
    12
 74
     0
 42
0.0000000001
 43
0.0000000001
 40
0.0
 40
0.0
 40
0.0
 40
0.0
 40
0.25
 40
0.25
 40
0.25
 40
0.25
 40
0.5
 40
0.5
 40
0.5
 40
0.5
 40
1.0
 40
1.0
 40
1.0
 40
1.0
 10
54.0217
 20
-4.3414
 30
0.0
 10
54.0217
 20
-4.3414
 30
0.0
 10
54.5213
 20
-7.6722
 30
0.0
 10
54.5213
 20
-7.6722
 30
0.0
 10
54.5213
 20
-7.6722
 30
0.0
 10
54.5213
 20
-7.6722
 30
0.0
 10
55.0209
 20
-4.3414
 30
0.0
 10
55.0209
 20
-4.3414
 30
0.0
 10
55.0209
 20
-4.3414
 30
0.0
 10
55.0209
 20
-4.3414
 30
0.0
 10
54.0217
 20
-4.3414
 30
0.0
 10
54.0217
 20
-4.3414
 30
0.0
  0
SPLINE
  5
52
330
1F
100
AcDbEntity
  8
VRSTVA_1
 62
   250
100
AcDbSpline
210
0.0
220
0.0
230
1.0
 70
    24
 71
     3
 72
     8
 73
     4
 74
     0
 42
0.0000000001
 43
0.0000000001
 40
0.0
 40
0.0
 40
0.0
 40
0.0
 40
1.0
 40
1.0
 40
1.0
 40
1.0
 10
-45.424
 20
19.5645
 30
0.0
 10
-45.424
 20
19.5645
 30
0.0
 10
-45.424
 20
-9.4065
 30
0.0
 10
-45.424
 20
-9.4065
 30
0.0
  0
SPLINE
  5
53
330
1F
100
AcDbEntity
  8
VRSTVA_1
 62
   250
100
AcDbSpline
210
0.0
220
0.0
230
1.0
 70
    24
 71
     3
 72
     8
 73
     4
 74
     0
 42
0.0000000001
 43
0.0000000001
 40
0.0
 40
0.0
 40
0.0
 40
0.0
 40
1.0
 40
1.0
 40
1.0
 40
1.0
 10
-42.1318
 20
19.5645
 30
0.0
 10
-42.1318
 20
19.5645
 30
0.0
 10
-42.1318
 20
-9.4065
 30
0.0
 10
-42.1318
 20
-9.4065
 30
0.0
  0
SPLINE
  5
54
330
1F
100
AcDbEntity
  8
VRSTVA_1
 62
   250
100
AcDbSpline
210
0.0
220
0.0
230
1.0
 70
    24
 71
     3
 72
     8
 73
     4
 74
     0
 42
0.0000000001
 43
0.0000000001
 40
0.0
 40
0.0
 40
0.0
 40
0.0
 40
1.0
 40
1.0
 40
1.0
 40
1.0
 10
-38.1812
 20
19.0821
 30
0.0
 10
-38.1812
 20
19.0821
 30
0.0
 10
-38.1812
 20
-8.9241
 30
0.0
 10
-38.1812
 20
-8.9241
 30
0.0
  0
SPLINE
  5
55
330
1F
100
AcDbEntity
  8
VRSTVA_1
 62
   250
100
AcDbSpline
210
0.0
220
0.0
230
1.0
 70
    24
 71
     3
 72
     8
 73
     4
 74
     0
 42
0.0000000001
 43
0.0000000001
 40
0.0
 40
0.0
 40
0.0
 40
0.0
 40
1.0
 40
1.0
 40
1.0
 40
1.0
 10
-36.6883
 20
17.5893
 30
0.0
 10
-36.6883
 20
17.5893
 30
0.0
 10
-36.6883
 20
-7.4312
 30
0.0
 10
-36.6883
 20
-7.4312
 30
0.0
  0
SPLINE
  5
56
330
1F
100
AcDbEntity
  8
VRSTVA_1
 62
   250
100
AcDbSpline
210
0.0
220
0.0
230
1.0
 70
    24
 71
     3
 72
     8
 73
     4
 74
     0
 42
0.0000000001
 43
0.0000000001
 40
0.0
 40
0.0
 40
0.0
 40
0.0
 40
1.0
 40
1.0
 40
1.0
 40
1.0
 10
-31.4208
 20
17.5893
 30
0.0
 10
-31.4208
 20
17.5893
 30
0.0
 10
-31.4208
 20
-7.4312
 30
0.0
 10
-31.4208
 20
-7.4312
 30
0.0
  0
SPLINE
  5
57
330
1F
100
AcDbEntity
  8
VRSTVA_1
 62
   250
100
AcDbSpline
210
0.0
220
0.0
230
1.0
 70
    24
 71
     3
 72
     8
 73
     4
 74
     0
 42
0.0000000001
 43
0.0000000001
 40
0.0
 40
0.0
 40
0.0
 40
0.0
 40
1.0
 40
1.0
 40
1.0
 40
1.0
 10
-38.1812
 20
-8.9241
 30
0.0
 10
-38.1812
 20
-8.9241
 30
0.0
 10
-36.6883
 20
-7.4312
 30
0.0
 10
-36.6883
 20
-7.4312
 30
0.0
  0
SPLINE
  5
58
330
1F
100
AcDbEntity
  8
VRSTVA_1
 62
   250
100
AcDbSpline
210
0.0
220
0.0
230
1.0
 70
    24
 71
     3
 72
     8
 73
     4
 74
     0
 42
0.0000000001
 43
0.0000000001
 40
0.0
 40
0.0
 40
0.0
 40
0.0
 40
1.0
 40
1.0
 40
1.0
 40
1.0
 10
-38.1812
 20
19.0821
 30
0.0
 10
-38.1812
 20
19.0821
 30
0.0
 10
-36.6883
 20
17.5893
 30
0.0
 10
-36.6883
 20
17.5893
 30
0.0
  0
SPLINE
  5
59
330
1F
100
AcDbEntity
  8
VRSTVA_1
 62
   250
100
AcDbSpline
210
0.0
220
0.0
230
1.0
 70
    24
 71
     3
 72
     8
 73
     4
 74
     0
 42
0.0000000001
 43
0.0000000001
 40
0.0
 40
0.0
 40
0.0
 40
0.0
 40
1.0
 40
1.0
 40
1.0
 40
1.0
 10
-45.424
 20
-9.4065
 30
0.0
 10
-45.424
 20
-9.4065
 30
0.0
 10
-42.1318
 20
-9.4065
 30
0.0
 10
-42.1318
 20
-9.4065
 30
0.0
  0
SPLINE
  5
5A
330
1F
100
AcDbEntity
  8
VRSTVA_1
 62
   250
100
AcDbSpline
210
0.0
220
0.0
230
1.0
 70
    24
 71
     3
 72
     8
 73
     4
 74
     0
 42
0.0000000001
 43
0.0000000001
 40
0.0
 40
0.0
 40
0.0
 40
0.0
 40
1.0
 40
1.0
 40
1.0
 40
1.0
 10
-42.1318
 20
-8.9241
 30
0.0
 10
-42.1318
 20
-8.9241
 30
0.0
 10
-38.1812
 20
-8.9241
 30
0.0
 10
-38.1812
 20
-8.9241
 30
0.0
  0
SPLINE
  5
5B
330
1F
100
AcDbEntity
  8
VRSTVA_1
 62
   250
100
AcDbSpline
210
0.0
220
0.0
230
1.0
 70
    24
 71
     3
 72
     8
 73
     4
 74
     0
 42
0.0000000001
 43
0.0000000001
 40
0.0
 40
0.0
 40
0.0
 40
0.0
 40
1.0
 40
1.0
 40
1.0
 40
1.0
 10
-36.6883
 20
-7.4312
 30
0.0
 10
-36.6883
 20
-7.4312
 30
0.0
 10
-31.4208
 20
-7.4312
 30
0.0
 10
-31.4208
 20
-7.4312
 30
0.0
  0
SPLINE
  5
5C
330
1F
100
AcDbEntity
  8
VRSTVA_1
 62
   250
100
AcDbSpline
210
0.0
220
0.0
230
1.0
 70
    24
 71
     3
 72
     8
 73
     4
 74
     0
 42
0.0000000001
 43
0.0000000001
 40
0.0
 40
0.0
 40
0.0
 40
0.0
 40
1.0
 40
1.0
 40
1.0
 40
1.0
 10
-36.6883
 20
17.5893
 30
0.0
 10
-36.6883
 20
17.5893
 30
0.0
 10
-31.4208
 20
17.5893
 30
0.0
 10
-31.4208
 20
17.5893
 30
0.0
  0
SPLINE
  5
5D
330
1F
100
AcDbEntity
  8
VRSTVA_1
 62
   250
100
AcDbSpline
210
0.0
220
0.0
230
1.0
 70
    24
 71
     3
 72
     8
 73
     4
 74
     0
 42
0.0000000001
 43
0.0000000001
 40
0.0
 40
0.0
 40
0.0
 40
0.0
 40
1.0
 40
1.0
 40
1.0
 40
1.0
 10
-42.1318
 20
19.0821
 30
0.0
 10
-42.1318
 20
19.0821
 30
0.0
 10
-38.1812
 20
19.0821
 30
0.0
 10
-38.1812
 20
19.0821
 30
0.0
  0
SPLINE
  5
5E
330
1F
100
AcDbEntity
  8
VRSTVA_1
 62
   250
100
AcDbSpline
210
0.0
220
0.0
230
1.0
 70
    24
 71
     3
 72
     8
 73
     4
 74
     0
 42
0.0000000001
 43
0.0000000001
 40
0.0
 40
0.0
 40
0.0
 40
0.0
 40
1.0
 40
1.0
 40
1.0
 40
1.0
 10
-45.424
 20
19.5645
 30
0.0
 10
-45.424
 20
19.5645
 30
0.0
 10
-42.1318
 20
19.5645
 30
0.0
 10
-42.1318
 20
19.5645
 30
0.0
  0
SPLINE
  5
5F
330
1F
100
AcDbEntity
  8
VRSTVA_1
100
AcDbSpline
210
0.0
220
0.0
230
1.0
 70
    24
 71
     3
 72
     8
 73
     4
 74
     0
 42
0.0000000001
 43
0.0000000001
 40
0.0
 40
0.0
 40
0.0
 40
0.0
 40
1.0
 40
1.0
 40
1.0
 40
1.0
 10
20.8273
 20
-7.5411
 30
0.0
 10
20.8273
 20
-7.5411
 30
0.0
 10
23.9847
 20
-7.5411
 30
0.0
 10
23.9847
 20
-7.5411
 30
0.0
  0
SPLINE
  5
60
330
1F
100
AcDbEntity
  8
VRSTVA_1
100
AcDbSpline
210
0.0
220
0.0
230
1.0
 70
    24
 71
     3
 72
     8
 73
     4
 74
     0
 42
0.0000000001
 43
0.0000000001
 40
0.0
 40
0.0
 40
0.0
 40
0.0
 40
1.0
 40
1.0
 40
1.0
 40
1.0
 10
23.9847
 20
-6.8879
 30
0.0
 10
23.9847
 20
-6.8879
 30
0.0
 10
25.9445
 20
-6.8879
 30
0.0
 10
25.9445
 20
-6.8879
 30
0.0
  0
SPLINE
  5
61
330
1F
100
AcDbEntity
  8
VRSTVA_1
100
AcDbSpline
210
0.0
220
0.0
230
1.0
 70
    24
 71
     3
 72
     8
 73
     4
 74
     0
 42
0.0000000001
 43
0.0000000001
 40
0.0
 40
0.0
 40
0.0
 40
0.0
 40
1.0
 40
1.0
 40
1.0
 40
1.0
 10
28.3397
 20
-4.4926
 30
0.0
 10
28.3397
 20
-4.4926
 30
0.0
 10
29.0936
 20
-4.4926
 30
0.0
 10
29.0936
 20
-4.4926
 30
0.0
  0
SPLINE
  5
62
330
1F
100
AcDbEntity
  8
VRSTVA_1
100
AcDbSpline
210
0.0
220
0.0
230
1.0
 70
    24
 71
     3
 72
     8
 73
     4
 74
     0
 42
0.0000000001
 43
0.0000000001
 40
0.0
 40
0.0
 40
0.0
 40
0.0
 40
1.0
 40
1.0
 40
1.0
 40
1.0
 10
28.3397
 20
14.6695
 30
0.0
 10
28.3397
 20
14.6695
 30
0.0
 10
29.0936
 20
14.6695
 30
0.0
 10
29.0936
 20
14.6695
 30
0.0
  0
SPLINE
  5
63
330
1F
100
AcDbEntity
  8
VRSTVA_1
100
AcDbSpline
210
0.0
220
0.0
230
1.0
 70
    24
 71
     3
 72
     8
 73
     4
 74
     0
 42
0.0000000001
 43
0.0000000001
 40
0.0
 40
0.0
 40
0.0
 40
0.0
 40
1.0
 40
1.0
 40
1.0
 40
1.0
 10
23.9847
 20
17.0648
 30
0.0
 10
23.9847
 20
17.0648
 30
0.0
 10
25.9445
 20
17.0648
 30
0.0
 10
25.9445
 20
17.0648
 30
0.0
  0
SPLINE
  5
64
330
1F
100
AcDbEntity
  8
VRSTVA_1
100
AcDbSpline
210
0.0
220
0.0
230
1.0
 70
    24
 71
     3
 72
     8
 73
     4
 74
     0
 42
0.0000000001
 43
0.0000000001
 40
0.0
 40
0.0
 40
0.0
 40
0.0
 40
1.0
 40
1.0
 40
1.0
 40
1.0
 10
20.8273
 20
17.718
 30
0.0
 10
20.8273
 20
17.718
 30
0.0
 10
23.9847
 20
17.718
 30
0.0
 10
23.9847
 20
17.718
 30
0.0
  0
SPLINE
  5
65
330
1F
100
AcDbEntity
  8
VRSTVA_1
100
AcDbSpline
210
0.0
220
0.0
230
1.0
 70
    24
 71
     3
 72
     8
 73
     4
 74
     0
 42
0.0000000001
 43
0.0000000001
 40
0.0
 40
0.0
 40
0.0
 40
0.0
 40
1.0
 40
1.0
 40
1.0
 40
1.0
 10
20.8273
 20
17.718
 30
0.0
 10
20.8273
 20
17.718
 30
0.0
 10
20.8273
 20
-7.5411
 30
0.0
 10
20.8273
 20
-7.5411
 30
0.0
  0
SPLINE
  5
66
330
1F
100
AcDbEntity
  8
VRSTVA_1
100
AcDbSpline
210
0.0
220
0.0
230
1.0
 70
    24
 71
     3
 72
     8
 73
     4
 74
     0
 42
0.0000000001
 43
0.0000000001
 40
0.0
 40
0.0
 40
0.0
 40
0.0
 40
1.0
 40
1.0
 40
1.0
 40
1.0
 10
23.9847
 20
17.718
 30
0.0
 10
23.9847
 20
17.718
 30
0.0
 10
23.9847
 20
-7.5411
 30
0.0
 10
23.9847
 20
-7.5411
 30
0.0
  0
SPLINE
  5
67
330
1F
100
AcDbEntity
  8
VRSTVA_1
100
AcDbSpline
210
0.0
220
0.0
230
1.0
 70
    24
 71
     3
 72
     8
 73
     4
 74
     0
 42
0.0000000001
 43
0.0000000001
 40
0.0
 40
0.0
 40
0.0
 40
0.0
 40
1.0
 40
1.0
 40
1.0
 40
1.0
 10
25.9445
 20
-6.8879
 30
0.0
 10
25.9445
 20
-6.8879
 30
0.0
 10
28.3397
 20
-4.4926
 30
0.0
 10
28.3397
 20
-4.4926
 30
0.0
  0
SPLINE
  5
68
330
1F
100
AcDbEntity
  8
VRSTVA_1
100
AcDbSpline
210
0.0
220
0.0
230
1.0
 70
    24
 71
     3
 72
     8
 73
     4
 74
     0
 42
0.0000000001
 43
0.0000000001
 40
0.0
 40
0.0
 40
0.0
 40
0.0
 40
1.0
 40
1.0
 40
1.0
 40
1.0
 10
25.9445
 20
17.0648
 30
0.0
 10
25.9445
 20
17.0648
 30
0.0
 10
28.3397
 20
14.6695
 30
0.0
 10
28.3397
 20
14.6695
 30
0.0
  0
SPLINE
  5
69
330
1F
100
AcDbEntity
  8
VRSTVA_1
100
AcDbSpline
210
0.0
220
0.0
230
1.0
 70
    24
 71
     3
 72
     8
 73
     4
 74
     0
 42
0.0000000001
 43
0.0000000001
 40
0.0
 40
0.0
 40
0.0
 40
0.0
 40
1.0
 40
1.0
 40
1.0
 40
1.0
 10
25.9445
 20
17.0648
 30
0.0
 10
25.9445
 20
17.0648
 30
0.0
 10
25.9445
 20
-6.8879
 30
0.0
 10
25.9445
 20
-6.8879
 30
0.0
  0
SPLINE
  5
6A
330
1F
100
AcDbEntity
  8
VRSTVA_1
100
AcDbSpline
210
0.0
220
0.0
230
1.0
 70
    24
 71
     3
 72
     8
 73
     4
 74
     0
 42
0.0000000001
 43
0.0000000001
 40
0.0
 40
0.0
 40
0.0
 40
0.0
 40
1.0
 40
1.0
 40
1.0
 40
1.0
 10
28.3397
 20
14.6695
 30
0.0
 10
28.3397
 20
14.6695
 30
0.0
 10
28.3397
 20
-4.4926
 30
0.0
 10
28.3397
 20
-4.4926
 30
0.0
  0
SPLINE
  5
6B
330
1F
100
AcDbEntity
  8
VRSTVA_1
 62
   250
100
AcDbSpline
210
0.0
220
0.0
230
1.0
 70
    11
 71
     3
 72
    84
 73
    80
 74
     0
 42
0.0000000001
 43
0.0000000001
 40
0.0
 40
0.0
 40
0.0
 40
0.0
 40
0.0476190476190476
 40
0.0476190476190476
 40
0.0476190476190476
 40
0.0476190476190476
 40
0.0952380952380952
 40
0.0952380952380952
 40
0.0952380952380952
 40
0.0952380952380952
 40
0.1428571428571428
 40
0.1428571428571428
 40
0.1428571428571428
 40
0.1428571428571428
 40
0.1904761904761905
 40
0.1904761904761905
 40
0.1904761904761905
 40
0.1904761904761905
 40
0.2380952380952381
 40
0.2380952380952381
 40
0.2380952380952381
 40
0.2380952380952381
 40
0.2857142857142857
 40
0.2857142857142857
 40
0.2857142857142857
 40
0.2857142857142857
 40
0.3333333333333333
 40
0.3333333333333333
 40
0.3333333333333333
 40
0.3333333333333333
 40
0.3809523809523809
 40
0.3809523809523809
 40
0.3809523809523809
 40
0.3809523809523809
 40
0.4285714285714285
 40
0.4285714285714285
 40
0.4285714285714285
 40
0.4285714285714285
 40
0.4761904761904762
 40
0.4761904761904762
 40
0.4761904761904762
 40
0.4761904761904762
 40
0.5238095238095238
 40
0.5238095238095238
 40
0.5238095238095238
 40
0.5238095238095238
 40
0.5714285714285714
 40
0.5714285714285714
 40
0.5714285714285714
 40
0.5714285714285714
 40
0.6190476190476191
 40
0.6190476190476191
 40
0.6190476190476191
 40
0.6190476190476191
 40
0.6666666666666666
 40
0.6666666666666666
 40
0.6666666666666666
 40
0.6666666666666666
 40
0.7142857142857143
 40
0.7142857142857143
 40
0.7142857142857143
 40
0.7142857142857143
 40
0.7619047619047619
 40
0.7619047619047619
 40
0.7619047619047619
 40
0.7619047619047619
 40
0.8095238095238095
 40
0.8095238095238095
 40
0.8095238095238095
 40
0.8095238095238095
 40
0.8571428571428571
 40
0.8571428571428571
 40
0.8571428571428571
 40
0.8571428571428571
 40
0.9047619047619048
 40
0.9047619047619048
 40
0.9047619047619048
 40
0.9047619047619048
 40
1.0
 40
1.0
 40
1.0
 40
1.0
 10
50.0377
 20
-3.3577
 30
0.0
 10
50.0377
 20
-3.3577
 30
0.0
 10
49.6061
 20
-2.9723
 30
0.0
 10
49.6061
 20
-2.9723
 30
0.0
 10
49.6061
 20
-2.9723
 30
0.0
 10
49.6061
 20
-2.9723
 30
0.0
 10
49.7988
 20
-2.7451
 30
0.0
 10
49.7988
 20
-2.7451
 30
0.0
 10
49.7988
 20
-2.7451
 30
0.0
 10
49.7988
 20
-2.7451
 30
0.0
 10
50.2531
 20
-3.1485
 30
0.0
 10
50.2531
 20
-3.1485
 30
0.0
 10
50.2531
 20
-3.1485
 30
0.0
 10
50.4489
 20
-3.017
 30
0.0
 10
50.6205
 20
-2.9284
 30
0.0
 10
50.767
 20
-2.8822
 30
0.0
 10
50.767
 20
-2.8822
 30
0.0
 10
50.9597
 20
-2.8211
 30
0.0
 10
51.1759
 20
-2.7906
 30
0.0
 10
51.414
 20
-2.7906
 30
0.0
 10
51.414
 20
-2.7906
 30
0.0
 10
51.7586
 20
-2.7906
 30
0.0
 10
52.0657
 20
-2.8603
 30
0.0
 10
52.3344
 20
-2.9997
 30
0.0
 10
52.3344
 20
-2.9997
 30
0.0
 10
52.6038
 20
-3.1391
 30
0.0
 10
52.8075
 20
-3.3342
 30
0.0
 10
52.9454
 20
-3.5856
 30
0.0
 10
52.9454
 20
-3.5856
 30
0.0
 10
53.0825
 20
-3.8379
 30
0.0
 10
53.1514
 20
-4.105
 30
0.0
 10
53.1514
 20
-4.3878
 30
0.0
 10
53.1514
 20
-4.3878
 30
0.0
 10
53.1514
 20
-4.5993
 30
0.0
 10
53.1216
 20
-4.7904
 30
0.0
 10
53.0621
 20
-4.9619
 30
0.0
 10
53.0621
 20
-4.9619
 30
0.0
 10
53.0159
 20
-5.0935
 30
0.0
 10
52.9281
 20
-5.2471
 30
0.0
 10
52.7981
 20
-5.4233
 30
0.0
 10
52.7981
 20
-5.4233
 30
0.0
 10
52.7981
 20
-5.4233
 30
0.0
 10
53.2297
 20
-5.8087
 30
0.0
 10
53.2297
 20
-5.8087
 30
0.0
 10
53.2297
 20
-5.8087
 30
0.0
 10
53.2297
 20
-5.8087
 30
0.0
 10
53.037
 20
-6.0359
 30
0.0
 10
53.037
 20
-6.0359
 30
0.0
 10
53.037
 20
-6.0359
 30
0.0
 10
53.037
 20
-6.0359
 30
0.0
 10
52.585
 20
-5.6317
 30
0.0
 10
52.585
 20
-5.6317
 30
0.0
 10
52.585
 20
-5.6317
 30
0.0
 10
52.3571
 20
-5.7821
 30
0.0
 10
52.1621
 20
-5.8823
 30
0.0
 10
52.0007
 20
-5.9325
 30
0.0
 10
52.0007
 20
-5.9325
 30
0.0
 10
51.8393
 20
-5.9826
 30
0.0
 10
51.6451
 20
-6.0084
 30
0.0
 10
51.4187
 20
-6.0084
 30
0.0
 10
51.4187
 20
-6.0084
 30
0.0
 10
51.0732
 20
-6.0084
 30
0.0
 10
50.7654
 20
-5.9395
 30
0.0
 10
50.4952
 20
-5.8016
 30
0.0
 10
50.4952
 20
-5.8016
 30
0.0
 10
50.2249
 20
-5.6638
 30
0.0
 10
50.0205
 20
-5.4711
 30
0.0
 10
49.881
 20
-5.222
 30
0.0
 10
49.881
 20
-5.222
 30
0.0
 10
49.7424
 20
-4.9737
 30
0.0
 10
49.6727
 20
-4.6972
 30
0.0
 10
49.6727
 20
-4.3925
 30
0.0
 10
49.6727
 20
-4.3925
 30
0.0
 10
49.6727
 20
-4.1872
 30
0.0
 10
49.6993
 20
-4.0078
 30
0.0
 10
49.7541
 20
-3.8543
 30
0.0
 10
49.7541
 20
-3.8543
 30
0.0
 10
49.8082
 20
-3.7008
 30
0.0
 10
49.903
 20
-3.5347
 30
0.0
 10
50.0377
 20
-3.3577
 30
0.0
  0
SPLINE
  5
6C
330
1F
100
AcDbEntity
  8
VRSTVA_1
 62
   250
100
AcDbSpline
210
0.0
220
0.0
230
1.0
 70
    11
 71
     3
 72
    32
 73
    28
 74
     0
 42
0.0000000001
 43
0.0000000001
 40
0.0
 40
0.0
 40
0.0
 40
0.0
 40
0.125
 40
0.125
 40
0.125
 40
0.125
 40
0.25
 40
0.25
 40
0.25
 40
0.25
 40
0.375
 40
0.375
 40
0.375
 40
0.375
 40
0.5
 40
0.5
 40
0.5
 40
0.5
 40
0.625
 40
0.625
 40
0.625
 40
0.625
 40
0.75
 40
0.75
 40
0.75
 40
0.75
 40
1.0
 40
1.0
 40
1.0
 40
1.0
 10
50.3471
 20
-3.6326
 30
0.0
 10
50.2343
 20
-3.7768
 30
0.0
 10
50.1568
 20
-3.9029
 30
0.0
 10
50.1152
 20
-4.0102
 30
0.0
 10
50.1152
 20
-4.0102
 30
0.0
 10
50.0745
 20
-4.1183
 30
0.0
 10
50.0534
 20
-4.2452
 30
0.0
 10
50.0534
 20
-4.3901
 30
0.0
 10
50.0534
 20
-4.3901
 30
0.0
 10
50.0534
 20
-4.7254
 30
0.0
 10
50.1669
 20
-5.0019
 30
0.0
 10
50.3941
 20
-5.2212
 30
0.0
 10
50.3941
 20
-5.2212
 30
0.0
 10
50.6213
 20
-5.4398
 30
0.0
 10
50.9604
 20
-5.5494
 30
0.0
 10
51.4124
 20
-5.5494
 30
0.0
 10
51.4124
 20
-5.5494
 30
0.0
 10
51.5894
 20
-5.5494
 30
0.0
 10
51.7469
 20
-5.5322
 30
0.0
 10
51.8848
 20
-5.4985
 30
0.0
 10
51.8848
 20
-5.4985
 30
0.0
 10
51.9874
 20
-5.4742
 30
0.0
 10
52.1135
 20
-5.4233
 30
0.0
 10
52.2631
 20
-5.345
 30
0.0
 10
52.2631
 20
-5.345
 30
0.0
 10
52.2631
 20
-5.345
 30
0.0
 10
50.3471
 20
-3.6326
 30
0.0
 10
50.3471
 20
-3.6326
 30
0.0
  0
SPLINE
  5
6D
330
1F
100
AcDbEntity
  8
VRSTVA_1
 62
   250
100
AcDbSpline
210
0.0
220
0.0
230
1.0
 70
    11
 71
     3
 72
    28
 73
    24
 74
     0
 42
0.0000000001
 43
0.0000000001
 40
0.0
 40
0.0
 40
0.0
 40
0.0
 40
0.1428571428571428
 40
0.1428571428571428
 40
0.1428571428571428
 40
0.1428571428571428
 40
0.2857142857142857
 40
0.2857142857142857
 40
0.2857142857142857
 40
0.2857142857142857
 40
0.4285714285714285
 40
0.4285714285714285
 40
0.4285714285714285
 40
0.4285714285714285
 40
0.5714285714285714
 40
0.5714285714285714
 40
0.5714285714285714
 40
0.5714285714285714
 40
0.7142857142857143
 40
0.7142857142857143
 40
0.7142857142857143
 40
0.7142857142857143
 40
1.0
 40
1.0
 40
1.0
 40
1.0
 10
50.5837
 20
-3.4446
 30
0.0
 10
50.5837
 20
-3.4446
 30
0.0
 10
52.4926
 20
-5.1499
 30
0.0
 10
52.4926
 20
-5.1499
 30
0.0
 10
52.4926
 20
-5.1499
 30
0.0
 10
52.589
 20
-5.0324
 30
0.0
 10
52.6563
 20
-4.9235
 30
0.0
 10
52.6947
 20
-4.8241
 30
0.0
 10
52.6947
 20
-4.8241
 30
0.0
 10
52.7456
 20
-4.694
 30
0.0
 10
52.7707
 20
-4.553
 30
0.0
 10
52.7707
 20
-4.4019
 30
0.0
 10
52.7707
 20
-4.4019
 30
0.0
 10
52.7707
 20
-4.0682
 30
0.0
 10
52.6532
 20
-3.7932
 30
0.0
 10
52.4174
 20
-3.5755
 30
0.0
 10
52.4174
 20
-3.5755
 30
0.0
 10
52.1816
 20
-3.3585
 30
0.0
 10
51.8511
 20
-3.2496
 30
0.0
 10
51.4257
 20
-3.2496
 30
0.0
 10
51.4257
 20
-3.2496
 30
0.0
 10
51.1077
 20
-3.2496
 30
0.0
 10
50.8265
 20
-3.3146
 30
0.0
 10
50.5837
 20
-3.4446
 30
0.0
  0
SPLINE
  5
6E
330
1F
100
AcDbEntity
  8
VRSTVA_1
 62
   250
100
AcDbSpline
210
0.0
220
0.0
230
1.0
 70
    11
 71
     3
 72
    40
 73
    36
 74
     0
 42
0.0000000001
 43
0.0000000001
 40
0.0
 40
0.0
 40
0.0
 40
0.0
 40
0.1
 40
0.1
 40
0.1
 40
0.1
 40
0.2
 40
0.2
 40
0.2
 40
0.2
 40
0.3
 40
0.3
 40
0.3
 40
0.3
 40
0.4
 40
0.4
 40
0.4
 40
0.4
 40
0.5
 40
0.5
 40
0.5
 40
0.5
 40
0.6
 40
0.6
 40
0.6
 40
0.6
 40
0.7
 40
0.7
 40
0.7
 40
0.7
 40
0.8
 40
0.8
 40
0.8
 40
0.8
 40
1.0
 40
1.0
 40
1.0
 40
1.0
 10
53.0942
 20
-0.8198
 30
0.0
 10
53.0942
 20
-0.8198
 30
0.0
 10
53.0942
 20
-1.2326
 30
0.0
 10
53.0942
 20
-1.2326
 30
0.0
 10
53.0942
 20
-1.2326
 30
0.0
 10
53.0942
 20
-1.2326
 30
0.0
 10
50.4623
 20
-1.2326
 30
0.0
 10
50.4623
 20
-1.2326
 30
0.0
 10
50.4623
 20
-1.2326
 30
0.0
 10
50.557
 20
-1.3321
 30
0.0
 10
50.6518
 20
-1.4621
 30
0.0
 10
50.7466
 20
-1.6235
 30
0.0
 10
50.7466
 20
-1.6235
 30
0.0
 10
50.8414
 20
-1.7856
 30
0.0
 10
50.9127
 20
-1.9305
 30
0.0
 10
50.9597
 20
-2.059
 30
0.0
 10
50.9597
 20
-2.059
 30
0.0
 10
50.9597
 20
-2.059
 30
0.0
 10
50.561
 20
-2.059
 30
0.0
 10
50.561
 20
-2.059
 30
0.0
 10
50.561
 20
-2.059
 30
0.0
 10
50.4521
 20
-1.8279
 30
0.0
 10
50.3205
 20
-1.6258
 30
0.0
 10
50.1662
 20
-1.4527
 30
0.0
 10
50.1662
 20
-1.4527
 30
0.0
 10
50.0111
 20
-1.2804
 30
0.0
 10
49.8615
 20
-1.1574
 30
0.0
 10
49.7158
 20
-1.0853
 30
0.0
 10
49.7158
 20
-1.0853
 30
0.0
 10
49.7158
 20
-1.0853
 30
0.0
 10
49.7158
 20
-0.8198
 30
0.0
 10
49.7158
 20
-0.8198
 30
0.0
 10
49.7158
 20
-0.8198
 30
0.0
 10
49.7158
 20
-0.8198
 30
0.0
 10
53.0942
 20
-0.8198
 30
0.0
 10
53.0942
 20
-0.8198
 30
0.0
  0
SPLINE
  5
6F
330
1F
100
AcDbEntity
  8
VRSTVA_1
 62
   250
100
AcDbSpline
210
0.0
220
0.0
230
1.0
 70
    11
 71
     3
 72
    52
 73
    48
 74
     0
 42
0.0000000001
 43
0.0000000001
 40
0.0
 40
0.0
 40
0.0
 40
0.0
 40
0.0769230769230769
 40
0.0769230769230769
 40
0.0769230769230769
 40
0.0769230769230769
 40
0.1538461538461539
 40
0.1538461538461539
 40
0.1538461538461539
 40
0.1538461538461539
 40
0.2307692307692308
 40
0.2307692307692308
 40
0.2307692307692308
 40
0.2307692307692308
 40
0.3076923076923077
 40
0.3076923076923077
 40
0.3076923076923077
 40
0.3076923076923077
 40
0.3846153846153846
 40
0.3846153846153846
 40
0.3846153846153846
 40
0.3846153846153846
 40
0.4615384615384616
 40
0.4615384615384616
 40
0.4615384615384616
 40
0.4615384615384616
 40
0.5384615384615384
 40
0.5384615384615384
 40
0.5384615384615384
 40
0.5384615384615384
 40
0.6153846153846154
 40
0.6153846153846154
 40
0.6153846153846154
 40
0.6153846153846154
 40
0.6923076923076923
 40
0.6923076923076923
 40
0.6923076923076923
 40
0.6923076923076923
 40
0.7692307692307693
 40
0.7692307692307693
 40
0.7692307692307693
 40
0.7692307692307693
 40
0.8461538461538461
 40
0.8461538461538461
 40
0.8461538461538461
 40
0.8461538461538461
 40
1.0
 40
1.0
 40
1.0
 40
1.0
 10
51.4351
 20
0.2383
 30
0.0
 10
51.0372
 20
0.2383
 30
0.0
 10
50.7168
 20
0.2791
 30
0.0
 10
50.4748
 20
0.3613
 30
0.0
 10
50.4748
 20
0.3613
 30
0.0
 10
50.232
 20
0.4428
 30
0.0
 10
50.0447
 20
0.565
 30
0.0
 10
49.9132
 20
0.7264
 30
0.0
 10
49.9132
 20
0.7264
 30
0.0
 10
49.7816
 20
0.8877
 30
0.0
 10
49.7158
 20
1.0906
 30
0.0
 10
49.7158
 20
1.335
 30
0.0
 10
49.7158
 20
1.335
 30
0.0
 10
49.7158
 20
1.5159
 30
0.0
 10
49.7526
 20
1.6742
 30
0.0
 10
49.8254
 20
1.8105
 30
0.0
 10
49.8254
 20
1.8105
 30
0.0
 10
49.8975
 20
1.9468
 30
0.0
 10
50.0024
 20
2.0588
 30
0.0
 10
50.1395
 20
2.1481
 30
0.0
 10
50.1395
 20
2.1481
 30
0.0
 10
50.2766
 20
2.2366
 30
0.0
 10
50.4435
 20
2.3063
 30
0.0
 10
50.6401
 20
2.3564
 30
0.0
 10
50.6401
 20
2.3564
 30
0.0
 10
50.8367
 20
2.4073
 30
0.0
 10
51.1014
 20
2.4324
 30
0.0
 10
51.4351
 20
2.4324
 30
0.0
 10
51.4351
 20
2.4324
 30
0.0
 10
51.8299
 20
2.4324
 30
0.0
 10
52.148
 20
2.3917
 30
0.0
 10
52.3908
 20
2.311
 30
0.0
 10
52.3908
 20
2.311
 30
0.0
 10
52.6336
 20
2.2295
 30
0.0
 10
52.8208
 20
2.1081
 30
0.0
 10
52.9532
 20
1.9468
 30
0.0
 10
52.9532
 20
1.9468
 30
0.0
 10
53.0856
 20
1.7854
 30
0.0
 10
53.1514
 20
1.5817
 30
0.0
 10
53.1514
 20
1.335
 30
0.0
 10
53.1514
 20
1.335
 30
0.0
 10
53.1514
 20
1.0107
 30
0.0
 10
53.0355
 20
0.7561
 30
0.0
 10
52.8028
 20
0.5713
 30
0.0
 10
52.8028
 20
0.5713
 30
0.0
 10
52.5232
 20
0.3496
 30
0.0
 10
52.0665
 20
0.2383
 30
0.0
 10
51.4351
 20
0.2383
 30
0.0
  0
SPLINE
  5
70
330
1F
100
AcDbEntity
  8
VRSTVA_1
 62
   250
100
AcDbSpline
210
0.0
220
0.0
230
1.0
 70
    11
 71
     3
 72
    36
 73
    32
 74
     0
 42
0.0000000001
 43
0.0000000001
 40
0.0
 40
0.0
 40
0.0
 40
0.0
 40
0.1111111111111111
 40
0.1111111111111111
 40
0.1111111111111111
 40
0.1111111111111111
 40
0.2222222222222222
 40
0.2222222222222222
 40
0.2222222222222222
 40
0.2222222222222222
 40
0.3333333333333333
 40
0.3333333333333333
 40
0.3333333333333333
 40
0.3333333333333333
 40
0.4444444444444444
 40
0.4444444444444444
 40
0.4444444444444444
 40
0.4444444444444444
 40
0.5555555555555556
 40
0.5555555555555556
 40
0.5555555555555556
 40
0.5555555555555556
 40
0.6666666666666666
 40
0.6666666666666666
 40
0.6666666666666666
 40
0.6666666666666666
 40
0.7777777777777778
 40
0.7777777777777778
 40
0.7777777777777778
 40
0.7777777777777778
 40
1.0
 40
1.0
 40
1.0
 40
1.0
 10
51.4351
 20
0.6629
 30
0.0
 10
51.9874
 20
0.6629
 30
0.0
 10
52.3547
 20
0.7279
 30
0.0
 10
52.538
 20
0.8572
 30
0.0
 10
52.538
 20
0.8572
 30
0.0
 10
52.7206
 20
0.9864
 30
0.0
 10
52.8122
 20
1.1454
 30
0.0
 10
52.8122
 20
1.335
 30
0.0
 10
52.8122
 20
1.335
 30
0.0
 10
52.8122
 20
1.5253
 30
0.0
 10
52.7198
 20
1.6843
 30
0.0
 10
52.5365
 20
1.8136
 30
0.0
 10
52.5365
 20
1.8136
 30
0.0
 10
52.3532
 20
1.9428
 30
0.0
 10
51.9858
 20
2.0079
 30
0.0
 10
51.4351
 20
2.0079
 30
0.0
 10
51.4351
 20
2.0079
 30
0.0
 10
50.8813
 20
2.0079
 30
0.0
 10
50.5132
 20
1.9428
 30
0.0
 10
50.3314
 20
1.8136
 30
0.0
 10
50.3314
 20
1.8136
 30
0.0
 10
50.1489
 20
1.6843
 30
0.0
 10
50.0581
 20
1.5238
 30
0.0
 10
50.0581
 20
1.3311
 30
0.0
 10
50.0581
 20
1.3311
 30
0.0
 10
50.0581
 20
1.1407
 30
0.0
 10
50.1387
 20
0.9895
 30
0.0
 10
50.2993
 20
0.876
 30
0.0
 10
50.2993
 20
0.876
 30
0.0
 10
50.5038
 20
0.7342
 30
0.0
 10
50.8829
 20
0.6629
 30
0.0
 10
51.4351
 20
0.6629
 30
0.0
  0
SPLINE
  5
71
330
1F
100
AcDbEntity
  8
VRSTVA_1
 62
   250
100
AcDbSpline
210
0.0
220
0.0
230
1.0
 70
    11
 71
     3
 72
    52
 73
    48
 74
     0
 42
0.0000000001
 43
0.0000000001
 40
0.0
 40
0.0
 40
0.0
 40
0.0
 40
0.0769230769230769
 40
0.0769230769230769
 40
0.0769230769230769
 40
0.0769230769230769
 40
0.1538461538461539
 40
0.1538461538461539
 40
0.1538461538461539
 40
0.1538461538461539
 40
0.2307692307692308
 40
0.2307692307692308
 40
0.2307692307692308
 40
0.2307692307692308
 40
0.3076923076923077
 40
0.3076923076923077
 40
0.3076923076923077
 40
0.3076923076923077
 40
0.3846153846153846
 40
0.3846153846153846
 40
0.3846153846153846
 40
0.3846153846153846
 40
0.4615384615384616
 40
0.4615384615384616
 40
0.4615384615384616
 40
0.4615384615384616
 40
0.5384615384615384
 40
0.5384615384615384
 40
0.5384615384615384
 40
0.5384615384615384
 40
0.6153846153846154
 40
0.6153846153846154
 40
0.6153846153846154
 40
0.6153846153846154
 40
0.6923076923076923
 40
0.6923076923076923
 40
0.6923076923076923
 40
0.6923076923076923
 40
0.7692307692307693
 40
0.7692307692307693
 40
0.7692307692307693
 40
0.7692307692307693
 40
0.8461538461538461
 40
0.8461538461538461
 40
0.8461538461538461
 40
0.8461538461538461
 40
1.0
 40
1.0
 40
1.0
 40
1.0
 10
51.4351
 20
2.8522
 30
0.0
 10
51.0372
 20
2.8522
 30
0.0
 10
50.7168
 20
2.893
 30
0.0
 10
50.4748
 20
2.9752
 30
0.0
 10
50.4748
 20
2.9752
 30
0.0
 10
50.232
 20
3.0567
 30
0.0
 10
50.0447
 20
3.1789
 30
0.0
 10
49.9132
 20
3.3403
 30
0.0
 10
49.9132
 20
3.3403
 30
0.0
 10
49.7816
 20
3.5016
 30
0.0
 10
49.7158
 20
3.7045
 30
0.0
 10
49.7158
 20
3.9489
 30
0.0
 10
49.7158
 20
3.9489
 30
0.0
 10
49.7158
 20
4.1298
 30
0.0
 10
49.7526
 20
4.2881
 30
0.0
 10
49.8254
 20
4.4244
 30
0.0
 10
49.8254
 20
4.4244
 30
0.0
 10
49.8975
 20
4.5607
 30
0.0
 10
50.0024
 20
4.6727
 30
0.0
 10
50.1395
 20
4.762
 30
0.0
 10
50.1395
 20
4.762
 30
0.0
 10
50.2766
 20
4.8505
 30
0.0
 10
50.4435
 20
4.9202
 30
0.0
 10
50.6401
 20
4.9703
 30
0.0
 10
50.6401
 20
4.9703
 30
0.0
 10
50.8367
 20
5.0212
 30
0.0
 10
51.1014
 20
5.0463
 30
0.0
 10
51.4351
 20
5.0463
 30
0.0
 10
51.4351
 20
5.0463
 30
0.0
 10
51.8299
 20
5.0463
 30
0.0
 10
52.148
 20
5.0056
 30
0.0
 10
52.3908
 20
4.9249
 30
0.0
 10
52.3908
 20
4.9249
 30
0.0
 10
52.6336
 20
4.8434
 30
0.0
 10
52.8208
 20
4.722
 30
0.0
 10
52.9532
 20
4.5607
 30
0.0
 10
52.9532
 20
4.5607
 30
0.0
 10
53.0856
 20
4.3993
 30
0.0
 10
53.1514
 20
4.1956
 30
0.0
 10
53.1514
 20
3.9489
 30
0.0
 10
53.1514
 20
3.9489
 30
0.0
 10
53.1514
 20
3.6246
 30
0.0
 10
53.0355
 20
3.37
 30
0.0
 10
52.8028
 20
3.1852
 30
0.0
 10
52.8028
 20
3.1852
 30
0.0
 10
52.5232
 20
2.9635
 30
0.0
 10
52.0665
 20
2.8522
 30
0.0
 10
51.4351
 20
2.8522
 30
0.0
  0
SPLINE
  5
72
330
1F
100
AcDbEntity
  8
VRSTVA_1
 62
   250
100
AcDbSpline
210
0.0
220
0.0
230
1.0
 70
    11
 71
     3
 72
    36
 73
    32
 74
     0
 42
0.0000000001
 43
0.0000000001
 40
0.0
 40
0.0
 40
0.0
 40
0.0
 40
0.1111111111111111
 40
0.1111111111111111
 40
0.1111111111111111
 40
0.1111111111111111
 40
0.2222222222222222
 40
0.2222222222222222
 40
0.2222222222222222
 40
0.2222222222222222
 40
0.3333333333333333
 40
0.3333333333333333
 40
0.3333333333333333
 40
0.3333333333333333
 40
0.4444444444444444
 40
0.4444444444444444
 40
0.4444444444444444
 40
0.4444444444444444
 40
0.5555555555555556
 40
0.5555555555555556
 40
0.5555555555555556
 40
0.5555555555555556
 40
0.6666666666666666
 40
0.6666666666666666
 40
0.6666666666666666
 40
0.6666666666666666
 40
0.7777777777777778
 40
0.7777777777777778
 40
0.7777777777777778
 40
0.7777777777777778
 40
1.0
 40
1.0
 40
1.0
 40
1.0
 10
51.4351
 20
3.2768
 30
0.0
 10
51.9874
 20
3.2768
 30
0.0
 10
52.3547
 20
3.3418
 30
0.0
 10
52.538
 20
3.4711
 30
0.0
 10
52.538
 20
3.4711
 30
0.0
 10
52.7206
 20
3.6003
 30
0.0
 10
52.8122
 20
3.7593
 30
0.0
 10
52.8122
 20
3.9489
 30
0.0
 10
52.8122
 20
3.9489
 30
0.0
 10
52.8122
 20
4.1392
 30
0.0
 10
52.7198
 20
4.2982
 30
0.0
 10
52.5365
 20
4.4275
 30
0.0
 10
52.5365
 20
4.4275
 30
0.0
 10
52.3532
 20
4.5567
 30
0.0
 10
51.9858
 20
4.6218
 30
0.0
 10
51.4351
 20
4.6218
 30
0.0
 10
51.4351
 20
4.6218
 30
0.0
 10
50.8813
 20
4.6218
 30
0.0
 10
50.5132
 20
4.5567
 30
0.0
 10
50.3314
 20
4.4275
 30
0.0
 10
50.3314
 20
4.4275
 30
0.0
 10
50.1489
 20
4.2982
 30
0.0
 10
50.0581
 20
4.1377
 30
0.0
 10
50.0581
 20
3.945
 30
0.0
 10
50.0581
 20
3.945
 30
0.0
 10
50.0581
 20
3.7546
 30
0.0
 10
50.1387
 20
3.6034
 30
0.0
 10
50.2993
 20
3.4899
 30
0.0
 10
50.2993
 20
3.4899
 30
0.0
 10
50.5038
 20
3.3481
 30
0.0
 10
50.8829
 20
3.2768
 30
0.0
 10
51.4351
 20
3.2768
 30
0.0
  0
SPLINE
  5
73
330
1F
100
AcDbEntity
  8
VRSTVA_1
 62
   250
100
AcDbSpline
210
0.0
220
0.0
230
1.0
 70
    11
 71
     3
 72
    20
 73
    16
 74
     0
 42
0.0000000001
 43
0.0000000001
 40
0.0
 40
0.0
 40
0.0
 40
0.0
 40
0.2
 40
0.2
 40
0.2
 40
0.2
 40
0.4
 40
0.4
 40
0.4
 40
0.4
 40
0.6
 40
0.6
 40
0.6
 40
0.6
 40
1.0
 40
1.0
 40
1.0
 40
1.0
 10
52.0845
 20
6.7257
 30
0.0
 10
52.0845
 20
6.7257
 30
0.0
 10
51.6693
 20
6.7257
 30
0.0
 10
51.6693
 20
6.7257
 30
0.0
 10
51.6693
 20
6.7257
 30
0.0
 10
51.6693
 20
6.7257
 30
0.0
 10
51.6693
 20
7.9955
 30
0.0
 10
51.6693
 20
7.9955
 30
0.0
 10
51.6693
 20
7.9955
 30
0.0
 10
51.6693
 20
7.9955
 30
0.0
 10
52.0845
 20
7.9955
 30
0.0
 10
52.0845
 20
7.9955
 30
0.0
 10
52.0845
 20
7.9955
 30
0.0
 10
52.0845
 20
7.9955
 30
0.0
 10
52.0845
 20
6.7257
 30
0.0
 10
52.0845
 20
6.7257
 30
0.0
  0
SPLINE
  5
74
330
1F
100
AcDbEntity
  8
VRSTVA_1
 62
   250
100
AcDbSpline
210
0.0
220
0.0
230
1.0
 70
    11
 71
     3
 72
    40
 73
    36
 74
     0
 42
0.0000000001
 43
0.0000000001
 40
0.0
 40
0.0
 40
0.0
 40
0.0
 40
0.1
 40
0.1
 40
0.1
 40
0.1
 40
0.2
 40
0.2
 40
0.2
 40
0.2
 40
0.3
 40
0.3
 40
0.3
 40
0.3
 40
0.4
 40
0.4
 40
0.4
 40
0.4
 40
0.5
 40
0.5
 40
0.5
 40
0.5
 40
0.6
 40
0.6
 40
0.6
 40
0.6
 40
0.7
 40
0.7
 40
0.7
 40
0.7
 40
0.8
 40
0.8
 40
0.8
 40
0.8
 40
1.0
 40
1.0
 40
1.0
 40
1.0
 10
53.0942
 20
11.1985
 30
0.0
 10
53.0942
 20
11.1985
 30
0.0
 10
53.0942
 20
10.7857
 30
0.0
 10
53.0942
 20
10.7857
 30
0.0
 10
53.0942
 20
10.7857
 30
0.0
 10
53.0942
 20
10.7857
 30
0.0
 10
50.4623
 20
10.7857
 30
0.0
 10
50.4623
 20
10.7857
 30
0.0
 10
50.4623
 20
10.7857
 30
0.0
 10
50.557
 20
10.6862
 30
0.0
 10
50.6518
 20
10.5562
 30
0.0
 10
50.7466
 20
10.3948
 30
0.0
 10
50.7466
 20
10.3948
 30
0.0
 10
50.8414
 20
10.2327
 30
0.0
 10
50.9127
 20
10.0878
 30
0.0
 10
50.9597
 20
9.9593
 30
0.0
 10
50.9597
 20
9.9593
 30
0.0
 10
50.9597
 20
9.9593
 30
0.0
 10
50.561
 20
9.9593
 30
0.0
 10
50.561
 20
9.9593
 30
0.0
 10
50.561
 20
9.9593
 30
0.0
 10
50.4521
 20
10.1904
 30
0.0
 10
50.3205
 20
10.3925
 30
0.0
 10
50.1662
 20
10.5656
 30
0.0
 10
50.1662
 20
10.5656
 30
0.0
 10
50.0111
 20
10.7379
 30
0.0
 10
49.8615
 20
10.8609
 30
0.0
 10
49.7158
 20
10.933
 30
0.0
 10
49.7158
 20
10.933
 30
0.0
 10
49.7158
 20
10.933
 30
0.0
 10
49.7158
 20
11.1985
 30
0.0
 10
49.7158
 20
11.1985
 30
0.0
 10
49.7158
 20
11.1985
 30
0.0
 10
49.7158
 20
11.1985
 30
0.0
 10
53.0942
 20
11.1985
 30
0.0
 10
53.0942
 20
11.1985
 30
0.0
  0
SPLINE
  5
75
330
1F
100
AcDbEntity
  8
VRSTVA_1
 62
   250
100
AcDbSpline
210
0.0
220
0.0
230
1.0
 70
    11
 71
     3
 72
    92
 73
    88
 74
     0
 42
0.0000000001
 43
0.0000000001
 40
0.0
 40
0.0
 40
0.0
 40
0.0
 40
0.0434782608695652
 40
0.0434782608695652
 40
0.0434782608695652
 40
0.0434782608695652
 40
0.0869565217391304
 40
0.0869565217391304
 40
0.0869565217391304
 40
0.0869565217391304
 40
0.1304347826086956
 40
0.1304347826086956
 40
0.1304347826086956
 40
0.1304347826086956
 40
0.1739130434782609
 40
0.1739130434782609
 40
0.1739130434782609
 40
0.1739130434782609
 40
0.2173913043478261
 40
0.2173913043478261
 40
0.2173913043478261
 40
0.2173913043478261
 40
0.2608695652173913
 40
0.2608695652173913
 40
0.2608695652173913
 40
0.2608695652173913
 40
0.3043478260869565
 40
0.3043478260869565
 40
0.3043478260869565
 40
0.3043478260869565
 40
0.3478260869565217
 40
0.3478260869565217
 40
0.3478260869565217
 40
0.3478260869565217
 40
0.391304347826087
 40
0.391304347826087
 40
0.391304347826087
 40
0.391304347826087
 40
0.4347826086956522
 40
0.4347826086956522
 40
0.4347826086956522
 40
0.4347826086956522
 40
0.4782608695652174
 40
0.4782608695652174
 40
0.4782608695652174
 40
0.4782608695652174
 40
0.5217391304347826
 40
0.5217391304347826
 40
0.5217391304347826
 40
0.5217391304347826
 40
0.5652173913043478
 40
0.5652173913043478
 40
0.5652173913043478
 40
0.5652173913043478
 40
0.6086956521739131
 40
0.6086956521739131
 40
0.6086956521739131
 40
0.6086956521739131
 40
0.6521739130434783
 40
0.6521739130434783
 40
0.6521739130434783
 40
0.6521739130434783
 40
0.6956521739130435
 40
0.6956521739130435
 40
0.6956521739130435
 40
0.6956521739130435
 40
0.7391304347826086
 40
0.7391304347826086
 40
0.7391304347826086
 40
0.7391304347826086
 40
0.782608695652174
 40
0.782608695652174
 40
0.782608695652174
 40
0.782608695652174
 40
0.8260869565217391
 40
0.8260869565217391
 40
0.8260869565217391
 40
0.8260869565217391
 40
0.8695652173913043
 40
0.8695652173913043
 40
0.8695652173913043
 40
0.8695652173913043
 40
0.9130434782608695
 40
0.9130434782608695
 40
0.9130434782608695
 40
0.9130434782608695
 40
1.0
 40
1.0
 40
1.0
 40
1.0
 10
52.6971
 20
14.4281
 30
0.0
 10
52.6971
 20
14.4281
 30
0.0
 10
53.0942
 20
14.4281
 30
0.0
 10
53.0942
 20
14.4281
 30
0.0
 10
53.0942
 20
14.4281
 30
0.0
 10
53.0942
 20
14.4281
 30
0.0
 10
53.0942
 20
12.2043
 30
0.0
 10
53.0942
 20
12.2043
 30
0.0
 10
53.0942
 20
12.2043
 30
0.0
 10
52.9947
 20
12.2011
 30
0.0
 10
52.8992
 20
12.2168
 30
0.0
 10
52.8075
 20
12.252
 30
0.0
 10
52.8075
 20
12.252
 30
0.0
 10
52.6555
 20
12.3084
 30
0.0
 10
52.5067
 20
12.3993
 30
0.0
 10
52.3594
 20
12.5239
 30
0.0
 10
52.3594
 20
12.5239
 30
0.0
 10
52.213
 20
12.6492
 30
0.0
 10
52.043
 20
12.8294
 30
0.0
 10
51.8503
 20
13.0643
 30
0.0
 10
51.8503
 20
13.0643
 30
0.0
 10
51.5503
 20
13.4302
 30
0.0
 10
51.3129
 20
13.6777
 30
0.0
 10
51.1375
 20
13.8061
 30
0.0
 10
51.1375
 20
13.8061
 30
0.0
 10
50.9628
 20
13.9346
 30
0.0
 10
50.7967
 20
13.9988
 30
0.0
 10
50.6409
 20
13.9988
 30
0.0
 10
50.6409
 20
13.9988
 30
0.0
 10
50.4771
 20
13.9988
 30
0.0
 10
50.3393
 20
13.9401
 30
0.0
 10
50.2265
 20
13.8234
 30
0.0
 10
50.2265
 20
13.8234
 30
0.0
 10
50.1145
 20
13.7059
 30
0.0
 10
50.0581
 20
13.5531
 30
0.0
 10
50.0581
 20
13.3651
 30
0.0
 10
50.0581
 20
13.3651
 30
0.0
 10
50.0581
 20
13.1662
 30
0.0
 10
50.1176
 20
13.0072
 30
0.0
 10
50.2374
 20
12.8881
 30
0.0
 10
50.2374
 20
12.8881
 30
0.0
 10
50.3565
 20
12.7683
 30
0.0
 10
50.5218
 20
12.7079
 30
0.0
 10
50.7325
 20
12.7064
 30
0.0
 10
50.7325
 20
12.7064
 30
0.0
 10
50.7325
 20
12.7064
 30
0.0
 10
50.6894
 20
12.2818
 30
0.0
 10
50.6894
 20
12.2818
 30
0.0
 10
50.6894
 20
12.2818
 30
0.0
 10
50.3722
 20
12.3108
 30
0.0
 10
50.1309
 20
12.4205
 30
0.0
 10
49.9648
 20
12.61
 30
0.0
 10
49.9648
 20
12.61
 30
0.0
 10
49.7988
 20
12.7996
 30
0.0
 10
49.7158
 20
13.0549
 30
0.0
 10
49.7158
 20
13.3745
 30
0.0
 10
49.7158
 20
13.3745
 30
0.0
 10
49.7158
 20
13.6973
 30
0.0
 10
49.8058
 20
13.9526
 30
0.0
 10
49.9844
 20
14.1406
 30
0.0
 10
49.9844
 20
14.1406
 30
0.0
 10
50.1638
 20
14.3294
 30
0.0
 10
50.3855
 20
14.4234
 30
0.0
 10
50.6503
 20
14.4234
 30
0.0
 10
50.6503
 20
14.4234
 30
0.0
 10
50.785
 20
14.4234
 30
0.0
 10
50.9174
 20
14.396
 30
0.0
 10
51.0474
 20
14.3404
 30
0.0
 10
51.0474
 20
14.3404
 30
0.0
 10
51.1774
 20
14.2855
 30
0.0
 10
51.3145
 20
14.1939
 30
0.0
 10
51.4579
 20
14.0662
 30
0.0
 10
51.4579
 20
14.0662
 30
0.0
 10
51.602
 20
13.9385
 30
0.0
 10
51.7994
 20
13.7262
 30
0.0
 10
52.05
 20
13.4294
 30
0.0
 10
52.05
 20
13.4294
 30
0.0
 10
52.2584
 20
13.1818
 30
0.0
 10
52.3994
 20
13.0228
 30
0.0
 10
52.4738
 20
12.9523
 30
0.0
 10
52.4738
 20
12.9523
 30
0.0
 10
52.5474
 20
12.8818
 30
0.0
 10
52.6219
 20
12.8239
 30
0.0
 10
52.6971
 20
12.7777
 30
0.0
 10
52.6971
 20
12.7777
 30
0.0
 10
52.6971
 20
12.7777
 30
0.0
 10
52.6971
 20
14.4281
 30
0.0
 10
52.6971
 20
14.4281
 30
0.0
  0
SPLINE
  5
76
330
1F
100
AcDbEntity
  8
VRSTVA_1
 62
   250
100
AcDbSpline
210
0.0
220
0.0
230
1.0
 70
    11
 71
     3
 72
    52
 73
    48
 74
     0
 42
0.0000000001
 43
0.0000000001
 40
0.0
 40
0.0
 40
0.0
 40
0.0
 40
0.0769230769230769
 40
0.0769230769230769
 40
0.0769230769230769
 40
0.0769230769230769
 40
0.1538461538461539
 40
0.1538461538461539
 40
0.1538461538461539
 40
0.1538461538461539
 40
0.2307692307692308
 40
0.2307692307692308
 40
0.2307692307692308
 40
0.2307692307692308
 40
0.3076923076923077
 40
0.3076923076923077
 40
0.3076923076923077
 40
0.3076923076923077
 40
0.3846153846153846
 40
0.3846153846153846
 40
0.3846153846153846
 40
0.3846153846153846
 40
0.4615384615384616
 40
0.4615384615384616
 40
0.4615384615384616
 40
0.4615384615384616
 40
0.5384615384615384
 40
0.5384615384615384
 40
0.5384615384615384
 40
0.5384615384615384
 40
0.6153846153846154
 40
0.6153846153846154
 40
0.6153846153846154
 40
0.6153846153846154
 40
0.6923076923076923
 40
0.6923076923076923
 40
0.6923076923076923
 40
0.6923076923076923
 40
0.7692307692307693
 40
0.7692307692307693
 40
0.7692307692307693
 40
0.7692307692307693
 40
0.8461538461538461
 40
0.8461538461538461
 40
0.8461538461538461
 40
0.8461538461538461
 40
1.0
 40
1.0
 40
1.0
 40
1.0
 10
51.4351
 20
14.8706
 30
0.0
 10
51.0372
 20
14.8706
 30
0.0
 10
50.7168
 20
14.9114
 30
0.0
 10
50.4748
 20
14.9936
 30
0.0
 10
50.4748
 20
14.9936
 30
0.0
 10
50.232
 20
15.0751
 30
0.0
 10
50.0447
 20
15.1973
 30
0.0
 10
49.9132
 20
15.3587
 30
0.0
 10
49.9132
 20
15.3587
 30
0.0
 10
49.7816
 20
15.52
 30
0.0
 10
49.7158
 20
15.7229
 30
0.0
 10
49.7158
 20
15.9673
 30
0.0
 10
49.7158
 20
15.9673
 30
0.0
 10
49.7158
 20
16.1482
 30
0.0
 10
49.7526
 20
16.3065
 30
0.0
 10
49.8254
 20
16.4428
 30
0.0
 10
49.8254
 20
16.4428
 30
0.0
 10
49.8975
 20
16.5791
 30
0.0
 10
50.0024
 20
16.6911
 30
0.0
 10
50.1395
 20
16.7804
 30
0.0
 10
50.1395
 20
16.7804
 30
0.0
 10
50.2766
 20
16.8689
 30
0.0
 10
50.4435
 20
16.9386
 30
0.0
 10
50.6401
 20
16.9887
 30
0.0
 10
50.6401
 20
16.9887
 30
0.0
 10
50.8367
 20
17.0396
 30
0.0
 10
51.1014
 20
17.0647
 30
0.0
 10
51.4351
 20
17.0647
 30
0.0
 10
51.4351
 20
17.0647
 30
0.0
 10
51.8299
 20
17.0647
 30
0.0
 10
52.148
 20
17.024
 30
0.0
 10
52.3908
 20
16.9433
 30
0.0
 10
52.3908
 20
16.9433
 30
0.0
 10
52.6336
 20
16.8618
 30
0.0
 10
52.8208
 20
16.7404
 30
0.0
 10
52.9532
 20
16.5791
 30
0.0
 10
52.9532
 20
16.5791
 30
0.0
 10
53.0856
 20
16.4177
 30
0.0
 10
53.1514
 20
16.214
 30
0.0
 10
53.1514
 20
15.9673
 30
0.0
 10
53.1514
 20
15.9673
 30
0.0
 10
53.1514
 20
15.643
 30
0.0
 10
53.0355
 20
15.3884
 30
0.0
 10
52.8028
 20
15.2036
 30
0.0
 10
52.8028
 20
15.2036
 30
0.0
 10
52.5232
 20
14.9819
 30
0.0
 10
52.0665
 20
14.8706
 30
0.0
 10
51.4351
 20
14.8706
 30
0.0
  0
SPLINE
  5
77
330
1F
100
AcDbEntity
  8
VRSTVA_1
 62
   250
100
AcDbSpline
210
0.0
220
0.0
230
1.0
 70
    11
 71
     3
 72
    36
 73
    32
 74
     0
 42
0.0000000001
 43
0.0000000001
 40
0.0
 40
0.0
 40
0.0
 40
0.0
 40
0.1111111111111111
 40
0.1111111111111111
 40
0.1111111111111111
 40
0.1111111111111111
 40
0.2222222222222222
 40
0.2222222222222222
 40
0.2222222222222222
 40
0.2222222222222222
 40
0.3333333333333333
 40
0.3333333333333333
 40
0.3333333333333333
 40
0.3333333333333333
 40
0.4444444444444444
 40
0.4444444444444444
 40
0.4444444444444444
 40
0.4444444444444444
 40
0.5555555555555556
 40
0.5555555555555556
 40
0.5555555555555556
 40
0.5555555555555556
 40
0.6666666666666666
 40
0.6666666666666666
 40
0.6666666666666666
 40
0.6666666666666666
 40
0.7777777777777778
 40
0.7777777777777778
 40
0.7777777777777778
 40
0.7777777777777778
 40
1.0
 40
1.0
 40
1.0
 40
1.0
 10
51.4351
 20
15.2952
 30
0.0
 10
51.9874
 20
15.2952
 30
0.0
 10
52.3547
 20
15.3602
 30
0.0
 10
52.538
 20
15.4895
 30
0.0
 10
52.538
 20
15.4895
 30
0.0
 10
52.7206
 20
15.6187
 30
0.0
 10
52.8122
 20
15.7777
 30
0.0
 10
52.8122
 20
15.9673
 30
0.0
 10
52.8122
 20
15.9673
 30
0.0
 10
52.8122
 20
16.1576
 30
0.0
 10
52.7198
 20
16.3166
 30
0.0
 10
52.5365
 20
16.4459
 30
0.0
 10
52.5365
 20
16.4459
 30
0.0
 10
52.3532
 20
16.5751
 30
0.0
 10
51.9858
 20
16.6402
 30
0.0
 10
51.4351
 20
16.6402
 30
0.0
 10
51.4351
 20
16.6402
 30
0.0
 10
50.8813
 20
16.6402
 30
0.0
 10
50.5132
 20
16.5751
 30
0.0
 10
50.3314
 20
16.4459
 30
0.0
 10
50.3314
 20
16.4459
 30
0.0
 10
50.1489
 20
16.3166
 30
0.0
 10
50.0581
 20
16.1561
 30
0.0
 10
50.0581
 20
15.9634
 30
0.0
 10
50.0581
 20
15.9634
 30
0.0
 10
50.0581
 20
15.773
 30
0.0
 10
50.1387
 20
15.6218
 30
0.0
 10
50.2993
 20
15.5083
 30
0.0
 10
50.2993
 20
15.5083
 30
0.0
 10
50.5038
 20
15.3665
 30
0.0
 10
50.8829
 20
15.2952
 30
0.0
 10
51.4351
 20
15.2952
 30
0.0
  0
SPLINE
  5
78
330
1F
100
AcDbEntity
  8
VRSTVA_1
 62
   250
100
AcDbSpline
210
0.0
220
0.0
230
1.0
 70
    11
 71
     3
 72
    92
 73
    88
 74
     0
 42
0.0000000001
 43
0.0000000001
 40
0.0
 40
0.0
 40
0.0
 40
0.0
 40
0.0434782608695652
 40
0.0434782608695652
 40
0.0434782608695652
 40
0.0434782608695652
 40
0.0869565217391304
 40
0.0869565217391304
 40
0.0869565217391304
 40
0.0869565217391304
 40
0.1304347826086956
 40
0.1304347826086956
 40
0.1304347826086956
 40
0.1304347826086956
 40
0.1739130434782609
 40
0.1739130434782609
 40
0.1739130434782609
 40
0.1739130434782609
 40
0.2173913043478261
 40
0.2173913043478261
 40
0.2173913043478261
 40
0.2173913043478261
 40
0.2608695652173913
 40
0.2608695652173913
 40
0.2608695652173913
 40
0.2608695652173913
 40
0.3043478260869565
 40
0.3043478260869565
 40
0.3043478260869565
 40
0.3043478260869565
 40
0.3478260869565217
 40
0.3478260869565217
 40
0.3478260869565217
 40
0.3478260869565217
 40
0.391304347826087
 40
0.391304347826087
 40
0.391304347826087
 40
0.391304347826087
 40
0.4347826086956522
 40
0.4347826086956522
 40
0.4347826086956522
 40
0.4347826086956522
 40
0.4782608695652174
 40
0.4782608695652174
 40
0.4782608695652174
 40
0.4782608695652174
 40
0.5217391304347826
 40
0.5217391304347826
 40
0.5217391304347826
 40
0.5217391304347826
 40
0.5652173913043478
 40
0.5652173913043478
 40
0.5652173913043478
 40
0.5652173913043478
 40
0.6086956521739131
 40
0.6086956521739131
 40
0.6086956521739131
 40
0.6086956521739131
 40
0.6521739130434783
 40
0.6521739130434783
 40
0.6521739130434783
 40
0.6521739130434783
 40
0.6956521739130435
 40
0.6956521739130435
 40
0.6956521739130435
 40
0.6956521739130435
 40
0.7391304347826086
 40
0.7391304347826086
 40
0.7391304347826086
 40
0.7391304347826086
 40
0.782608695652174
 40
0.782608695652174
 40
0.782608695652174
 40
0.782608695652174
 40
0.8260869565217391
 40
0.8260869565217391
 40
0.8260869565217391
 40
0.8260869565217391
 40
0.8695652173913043
 40
0.8695652173913043
 40
0.8695652173913043
 40
0.8695652173913043
 40
0.9130434782608695
 40
0.9130434782608695
 40
0.9130434782608695
 40
0.9130434782608695
 40
1.0
 40
1.0
 40
1.0
 40
1.0
 10
-9.3912
 20
-17.8676
 30
0.0
 10
-9.3912
 20
-17.8676
 30
0.0
 10
-9.3912
 20
-18.2647
 30
0.0
 10
-9.3912
 20
-18.2647
 30
0.0
 10
-9.3912
 20
-18.2647
 30
0.0
 10
-9.3912
 20
-18.2647
 30
0.0
 10
-11.615
 20
-18.2647
 30
0.0
 10
-11.615
 20
-18.2647
 30
0.0
 10
-11.615
 20
-18.2647
 30
0.0
 10
-11.6182
 20
-18.1652
 30
0.0
 10
-11.6025
 20
-18.0697
 30
0.0
 10
-11.5673
 20
-17.978
 30
0.0
 10
-11.5673
 20
-17.978
 30
0.0
 10
-11.5109
 20
-17.826
 30
0.0
 10
-11.42
 20
-17.6772
 30
0.0
 10
-11.2954
 20
-17.5299
 30
0.0
 10
-11.2954
 20
-17.5299
 30
0.0
 10
-11.1701
 20
-17.3835
 30
0.0
 10
-10.9899
 20
-17.2135
 30
0.0
 10
-10.755
 20
-17.0208
 30
0.0
 10
-10.755
 20
-17.0208
 30
0.0
 10
-10.3891
 20
-16.7208
 30
0.0
 10
-10.1416
 20
-16.4834
 30
0.0
 10
-10.0132
 20
-16.308
 30
0.0
 10
-10.0132
 20
-16.308
 30
0.0
 10
-9.8847
 20
-16.1333
 30
0.0
 10
-9.8205
 20
-15.9672
 30
0.0
 10
-9.8205
 20
-15.8114
 30
0.0
 10
-9.8205
 20
-15.8114
 30
0.0
 10
-9.8205
 20
-15.6476
 30
0.0
 10
-9.8792
 20
-15.5098
 30
0.0
 10
-9.9959
 20
-15.397
 30
0.0
 10
-9.9959
 20
-15.397
 30
0.0
 10
-10.1134
 20
-15.285
 30
0.0
 10
-10.2662
 20
-15.2286
 30
0.0
 10
-10.4542
 20
-15.2286
 30
0.0
 10
-10.4542
 20
-15.2286
 30
0.0
 10
-10.6531
 20
-15.2286
 30
0.0
 10
-10.8121
 20
-15.2881
 30
0.0
 10
-10.9312
 20
-15.4079
 30
0.0
 10
-10.9312
 20
-15.4079
 30
0.0
 10
-11.051
 20
-15.527
 30
0.0
 10
-11.1114
 20
-15.6923
 30
0.0
 10
-11.1129
 20
-15.903
 30
0.0
 10
-11.1129
 20
-15.903
 30
0.0
 10
-11.1129
 20
-15.903
 30
0.0
 10
-11.5375
 20
-15.8599
 30
0.0
 10
-11.5375
 20
-15.8599
 30
0.0
 10
-11.5375
 20
-15.8599
 30
0.0
 10
-11.5085
 20
-15.5427
 30
0.0
 10
-11.3988
 20
-15.3014
 30
0.0
 10
-11.2093
 20
-15.1353
 30
0.0
 10
-11.2093
 20
-15.1353
 30
0.0
 10
-11.0197
 20
-14.9693
 30
0.0
 10
-10.7644
 20
-14.8863
 30
0.0
 10
-10.4448
 20
-14.8863
 30
0.0
 10
-10.4448
 20
-14.8863
 30
0.0
 10
-10.122
 20
-14.8863
 30
0.0
 10
-9.8667
 20
-14.9763
 30
0.0
 10
-9.6787
 20
-15.1549
 30
0.0
 10
-9.6787
 20
-15.1549
 30
0.0
 10
-9.4899
 20
-15.3343
 30
0.0
 10
-9.3959
 20
-15.556
 30
0.0
 10
-9.3959
 20
-15.8208
 30
0.0
 10
-9.3959
 20
-15.8208
 30
0.0
 10
-9.3959
 20
-15.9555
 30
0.0
 10
-9.4233
 20
-16.0879
 30
0.0
 10
-9.4789
 20
-16.2179
 30
0.0
 10
-9.4789
 20
-16.2179
 30
0.0
 10
-9.5338
 20
-16.3479
 30
0.0
 10
-9.6254
 20
-16.485
 30
0.0
 10
-9.7531
 20
-16.6284
 30
0.0
 10
-9.7531
 20
-16.6284
 30
0.0
 10
-9.8808
 20
-16.7725
 30
0.0
 10
-10.0931
 20
-16.9699
 30
0.0
 10
-10.3899
 20
-17.2205
 30
0.0
 10
-10.3899
 20
-17.2205
 30
0.0
 10
-10.6375
 20
-17.4289
 30
0.0
 10
-10.7965
 20
-17.5699
 30
0.0
 10
-10.867
 20
-17.6443
 30
0.0
 10
-10.867
 20
-17.6443
 30
0.0
 10
-10.9375
 20
-17.7179
 30
0.0
 10
-10.9954
 20
-17.7924
 30
0.0
 10
-11.0416
 20
-17.8676
 30
0.0
 10
-11.0416
 20
-17.8676
 30
0.0
 10
-11.0416
 20
-17.8676
 30
0.0
 10
-9.3912
 20
-17.8676
 30
0.0
 10
-9.3912
 20
-17.8676
 30
0.0
  0
SPLINE
  5
79
330
1F
100
AcDbEntity
  8
VRSTVA_1
 62
   250
100
AcDbSpline
210
0.0
220
0.0
230
1.0
 70
    11
 71
     3
 72
    68
 73
    64
 74
     0
 42
0.0000000001
 43
0.0000000001
 40
0.0
 40
0.0
 40
0.0
 40
0.0
 40
0.0588235294117647
 40
0.0588235294117647
 40
0.0588235294117647
 40
0.0588235294117647
 40
0.1176470588235294
 40
0.1176470588235294
 40
0.1176470588235294
 40
0.1176470588235294
 40
0.1764705882352941
 40
0.1764705882352941
 40
0.1764705882352941
 40
0.1764705882352941
 40
0.2352941176470588
 40
0.2352941176470588
 40
0.2352941176470588
 40
0.2352941176470588
 40
0.2941176470588235
 40
0.2941176470588235
 40
0.2941176470588235
 40
0.2941176470588235
 40
0.3529411764705883
 40
0.3529411764705883
 40
0.3529411764705883
 40
0.3529411764705883
 40
0.4117647058823529
 40
0.4117647058823529
 40
0.4117647058823529
 40
0.4117647058823529
 40
0.4705882352941176
 40
0.4705882352941176
 40
0.4705882352941176
 40
0.4705882352941176
 40
0.5294117647058824
 40
0.5294117647058824
 40
0.5294117647058824
 40
0.5294117647058824
 40
0.5882352941176471
 40
0.5882352941176471
 40
0.5882352941176471
 40
0.5882352941176471
 40
0.6470588235294118
 40
0.6470588235294118
 40
0.6470588235294118
 40
0.6470588235294118
 40
0.7058823529411765
 40
0.7058823529411765
 40
0.7058823529411765
 40
0.7058823529411765
 40
0.7647058823529411
 40
0.7647058823529411
 40
0.7647058823529411
 40
0.7647058823529411
 40
0.8235294117647058
 40
0.8235294117647058
 40
0.8235294117647058
 40
0.8235294117647058
 40
0.8823529411764706
 40
0.8823529411764706
 40
0.8823529411764706
 40
0.8823529411764706
 40
1.0
 40
1.0
 40
1.0
 40
1.0
 10
-8.3126
 20
-16.4404
 30
0.0
 10
-8.4841
 20
-16.3777
 30
0.0
 10
-8.611
 20
-16.2884
 30
0.0
 10
-8.6941
 20
-16.1717
 30
0.0
 10
-8.6941
 20
-16.1717
 30
0.0
 10
-8.7763
 20
-16.0557
 30
0.0
 10
-8.8178
 20
-15.9163
 30
0.0
 10
-8.8178
 20
-15.7542
 30
0.0
 10
-8.8178
 20
-15.7542
 30
0.0
 10
-8.8178
 20
-15.509
 30
0.0
 10
-8.7301
 20
-15.3038
 30
0.0
 10
-8.5539
 20
-15.1369
 30
0.0
 10
-8.5539
 20
-15.1369
 30
0.0
 10
-8.3776
 20
-14.9701
 30
0.0
 10
-8.1442
 20
-14.8863
 30
0.0
 10
-7.852
 20
-14.8863
 30
0.0
 10
-7.852
 20
-14.8863
 30
0.0
 10
-7.5583
 20
-14.8863
 30
0.0
 10
-7.3217
 20
-14.9716
 30
0.0
 10
-7.1423
 20
-15.1424
 30
0.0
 10
-7.1423
 20
-15.1424
 30
0.0
 10
-6.9637
 20
-15.3132
 30
0.0
 10
-6.8744
 20
-15.5207
 30
0.0
 10
-6.8744
 20
-15.7659
 30
0.0
 10
-6.8744
 20
-15.7659
 30
0.0
 10
-6.8744
 20
-15.9218
 30
0.0
 10
-6.9152
 20
-16.0573
 30
0.0
 10
-6.9966
 20
-16.1732
 30
0.0
 10
-6.9966
 20
-16.1732
 30
0.0
 10
-7.0789
 20
-16.2884
 30
0.0
 10
-7.2026
 20
-16.3777
 30
0.0
 10
-7.3695
 20
-16.4404
 30
0.0
 10
-7.3695
 20
-16.4404
 30
0.0
 10
-7.1635
 20
-16.5077
 30
0.0
 10
-7.006
 20
-16.6158
 30
0.0
 10
-6.8979
 20
-16.7662
 30
0.0
 10
-6.8979
 20
-16.7662
 30
0.0
 10
-6.7906
 20
-16.9158
 30
0.0
 10
-6.7366
 20
-17.0952
 30
0.0
 10
-6.7366
 20
-17.3028
 30
0.0
 10
-6.7366
 20
-17.3028
 30
0.0
 10
-6.7366
 20
-17.591
 30
0.0
 10
-6.8384
 20
-17.8323
 30
0.0
 10
-7.0413
 20
-18.0281
 30
0.0
 10
-7.0413
 20
-18.0281
 30
0.0
 10
-7.2449
 20
-18.224
 30
0.0
 10
-7.5128
 20
-18.3219
 30
0.0
 10
-7.845
 20
-18.3219
 30
0.0
 10
-7.845
 20
-18.3219
 30
0.0
 10
-8.1771
 20
-18.3219
 30
0.0
 10
-8.4442
 20
-18.224
 30
0.0
 10
-8.6479
 20
-18.0274
 30
0.0
 10
-8.6479
 20
-18.0274
 30
0.0
 10
-8.8515
 20
-17.8307
 30
0.0
 10
-8.9534
 20
-17.5856
 30
0.0
 10
-8.9534
 20
-17.2918
 30
0.0
 10
-8.9534
 20
-17.2918
 30
0.0
 10
-8.9534
 20
-17.0733
 30
0.0
 10
-8.8977
 20
-16.89
 30
0.0
 10
-8.7865
 20
-16.7419
 30
0.0
 10
-8.7865
 20
-16.7419
 30
0.0
 10
-8.6761
 20
-16.5947
 30
0.0
 10
-8.5178
 20
-16.4936
 30
0.0
 10
-8.3126
 20
-16.4404
 30
0.0
  0
SPLINE
  5
7A
330
1F
100
AcDbEntity
  8
VRSTVA_1
 62
   250
100
AcDbSpline
210
0.0
220
0.0
230
1.0
 70
    11
 71
     3
 72
    36
 73
    32
 74
     0
 42
0.0000000001
 43
0.0000000001
 40
0.0
 40
0.0
 40
0.0
 40
0.0
 40
0.1111111111111111
 40
0.1111111111111111
 40
0.1111111111111111
 40
0.1111111111111111
 40
0.2222222222222222
 40
0.2222222222222222
 40
0.2222222222222222
 40
0.2222222222222222
 40
0.3333333333333333
 40
0.3333333333333333
 40
0.3333333333333333
 40
0.3333333333333333
 40
0.4444444444444444
 40
0.4444444444444444
 40
0.4444444444444444
 40
0.4444444444444444
 40
0.5555555555555556
 40
0.5555555555555556
 40
0.5555555555555556
 40
0.5555555555555556
 40
0.6666666666666666
 40
0.6666666666666666
 40
0.6666666666666666
 40
0.6666666666666666
 40
0.7777777777777778
 40
0.7777777777777778
 40
0.7777777777777778
 40
0.7777777777777778
 40
1.0
 40
1.0
 40
1.0
 40
1.0
 10
-8.3956
 20
-15.7401
 30
0.0
 10
-8.3956
 20
-15.8991
 30
0.0
 10
-8.3439
 20
-16.0291
 30
0.0
 10
-8.2421
 20
-16.1302
 30
0.0
 10
-8.2421
 20
-16.1302
 30
0.0
 10
-8.1395
 20
-16.2312
 30
0.0
 10
-8.0063
 20
-16.2821
 30
0.0
 10
-7.8426
 20
-16.2821
 30
0.0
 10
-7.8426
 20
-16.2821
 30
0.0
 10
-7.6836
 20
-16.2821
 30
0.0
 10
-7.5528
 20
-16.232
 30
0.0
 10
-7.451
 20
-16.1317
 30
0.0
 10
-7.451
 20
-16.1317
 30
0.0
 10
-7.3491
 20
-16.0315
 30
0.0
 10
-7.299
 20
-15.9085
 30
0.0
 10
-7.299
 20
-15.7636
 30
0.0
 10
-7.299
 20
-15.7636
 30
0.0
 10
-7.299
 20
-15.6116
 30
0.0
 10
-7.3507
 20
-15.4847
 30
0.0
 10
-7.4557
 20
-15.3813
 30
0.0
 10
-7.4557
 20
-15.3813
 30
0.0
 10
-7.5606
 20
-15.2779
 30
0.0
 10
-7.6906
 20
-15.2262
 30
0.0
 10
-7.8473
 20
-15.2262
 30
0.0
 10
-7.8473
 20
-15.2262
 30
0.0
 10
-8.0048
 20
-15.2262
 30
0.0
 10
-8.1356
 20
-15.2771
 30
0.0
 10
-8.2398
 20
-15.3774
 30
0.0
 10
-8.2398
 20
-15.3774
 30
0.0
 10
-8.3439
 20
-15.4784
 30
0.0
 10
-8.3956
 20
-15.5999
 30
0.0
 10
-8.3956
 20
-15.7401
 30
0.0
  0
SPLINE
  5
7B
330
1F
100
AcDbEntity
  8
VRSTVA_1
 62
   250
100
AcDbSpline
210
0.0
220
0.0
230
1.0
 70
    11
 71
     3
 72
    40
 73
    36
 74
     0
 42
0.0000000001
 43
0.0000000001
 40
0.0
 40
0.0
 40
0.0
 40
0.0
 40
0.1
 40
0.1
 40
0.1
 40
0.1
 40
0.2
 40
0.2
 40
0.2
 40
0.2
 40
0.3
 40
0.3
 40
0.3
 40
0.3
 40
0.4
 40
0.4
 40
0.4
 40
0.4
 40
0.5
 40
0.5
 40
0.5
 40
0.5
 40
0.6
 40
0.6
 40
0.6
 40
0.6
 40
0.7
 40
0.7
 40
0.7
 40
0.7
 40
0.8
 40
0.8
 40
0.8
 40
0.8
 40
1.0
 40
1.0
 40
1.0
 40
1.0
 10
-8.5288
 20
-17.2942
 30
0.0
 10
-8.5288
 20
-17.4117
 30
0.0
 10
-8.5006
 20
-17.526
 30
0.0
 10
-8.445
 20
-17.6357
 30
0.0
 10
-8.445
 20
-17.6357
 30
0.0
 10
-8.3894
 20
-17.7461
 30
0.0
 10
-8.3063
 20
-17.8315
 30
0.0
 10
-8.1959
 20
-17.8918
 30
0.0
 10
-8.1959
 20
-17.8918
 30
0.0
 10
-8.0854
 20
-17.9522
 30
0.0
 10
-7.9672
 20
-17.9827
 30
0.0
 10
-7.8403
 20
-17.9827
 30
0.0
 10
-7.8403
 20
-17.9827
 30
0.0
 10
-7.6429
 20
-17.9827
 30
0.0
 10
-7.4799
 20
-17.9193
 30
0.0
 10
-7.3515
 20
-17.7916
 30
0.0
 10
-7.3515
 20
-17.7916
 30
0.0
 10
-7.223
 20
-17.6647
 30
0.0
 10
-7.1588
 20
-17.5033
 30
0.0
 10
-7.1588
 20
-17.3075
 30
0.0
 10
-7.1588
 20
-17.3075
 30
0.0
 10
-7.1588
 20
-17.1085
 30
0.0
 10
-7.2246
 20
-16.944
 30
0.0
 10
-7.357
 20
-16.814
 30
0.0
 10
-7.357
 20
-16.814
 30
0.0
 10
-7.4893
 20
-16.684
 30
0.0
 10
-7.6554
 20
-16.619
 30
0.0
 10
-7.8544
 20
-16.619
 30
0.0
 10
-7.8544
 20
-16.619
 30
0.0
 10
-8.0486
 20
-16.619
 30
0.0
 10
-8.2092
 20
-16.6832
 30
0.0
 10
-8.3369
 20
-16.8116
 30
0.0
 10
-8.3369
 20
-16.8116
 30
0.0
 10
-8.4646
 20
-16.9409
 30
0.0
 10
-8.5288
 20
-17.1015
 30
0.0
 10
-8.5288
 20
-17.2942
 30
0.0
  0
SPLINE
  5
7C
330
1F
100
AcDbEntity
  8
VRSTVA_1
 62
   250
100
AcDbSpline
210
0.0
220
0.0
230
1.0
 70
    11
 71
     3
 72
    52
 73
    48
 74
     0
 42
0.0000000001
 43
0.0000000001
 40
0.0
 40
0.0
 40
0.0
 40
0.0
 40
0.0769230769230769
 40
0.0769230769230769
 40
0.0769230769230769
 40
0.0769230769230769
 40
0.1538461538461539
 40
0.1538461538461539
 40
0.1538461538461539
 40
0.1538461538461539
 40
0.2307692307692308
 40
0.2307692307692308
 40
0.2307692307692308
 40
0.2307692307692308
 40
0.3076923076923077
 40
0.3076923076923077
 40
0.3076923076923077
 40
0.3076923076923077
 40
0.3846153846153846
 40
0.3846153846153846
 40
0.3846153846153846
 40
0.3846153846153846
 40
0.4615384615384616
 40
0.4615384615384616
 40
0.4615384615384616
 40
0.4615384615384616
 40
0.5384615384615384
 40
0.5384615384615384
 40
0.5384615384615384
 40
0.5384615384615384
 40
0.6153846153846154
 40
0.6153846153846154
 40
0.6153846153846154
 40
0.6153846153846154
 40
0.6923076923076923
 40
0.6923076923076923
 40
0.6923076923076923
 40
0.6923076923076923
 40
0.7692307692307693
 40
0.7692307692307693
 40
0.7692307692307693
 40
0.7692307692307693
 40
0.8461538461538461
 40
0.8461538461538461
 40
0.8461538461538461
 40
0.8461538461538461
 40
1.0
 40
1.0
 40
1.0
 40
1.0
 10
-6.3348
 20
-16.6056
 30
0.0
 10
-6.3348
 20
-16.2077
 30
0.0
 10
-6.294
 20
-15.8873
 30
0.0
 10
-6.2118
 20
-15.6453
 30
0.0
 10
-6.2118
 20
-15.6453
 30
0.0
 10
-6.1303
 20
-15.4025
 30
0.0
 10
-6.0081
 20
-15.2152
 30
0.0
 10
-5.8467
 20
-15.0837
 30
0.0
 10
-5.8467
 20
-15.0837
 30
0.0
 10
-5.6854
 20
-14.9521
 30
0.0
 10
-5.4825
 20
-14.8863
 30
0.0
 10
-5.2381
 20
-14.8863
 30
0.0
 10
-5.2381
 20
-14.8863
 30
0.0
 10
-5.0572
 20
-14.8863
 30
0.0
 10
-4.8989
 20
-14.9231
 30
0.0
 10
-4.7626
 20
-14.9959
 30
0.0
 10
-4.7626
 20
-14.9959
 30
0.0
 10
-4.6263
 20
-15.068
 30
0.0
 10
-4.5143
 20
-15.1729
 30
0.0
 10
-4.425
 20
-15.31
 30
0.0
 10
-4.425
 20
-15.31
 30
0.0
 10
-4.3365
 20
-15.4471
 30
0.0
 10
-4.2668
 20
-15.614
 30
0.0
 10
-4.2167
 20
-15.8106
 30
0.0
 10
-4.2167
 20
-15.8106
 30
0.0
 10
-4.1658
 20
-16.0072
 30
0.0
 10
-4.1407
 20
-16.2719
 30
0.0
 10
-4.1407
 20
-16.6056
 30
0.0
 10
-4.1407
 20
-16.6056
 30
0.0
 10
-4.1407
 20
-17.0004
 30
0.0
 10
-4.1814
 20
-17.3185
 30
0.0
 10
-4.2621
 20
-17.5613
 30
0.0
 10
-4.2621
 20
-17.5613
 30
0.0
 10
-4.3436
 20
-17.8041
 30
0.0
 10
-4.465
 20
-17.9913
 30
0.0
 10
-4.6263
 20
-18.1237
 30
0.0
 10
-4.6263
 20
-18.1237
 30
0.0
 10
-4.7877
 20
-18.2561
 30
0.0
 10
-4.9914
 20
-18.3219
 30
0.0
 10
-5.2381
 20
-18.3219
 30
0.0
 10
-5.2381
 20
-18.3219
 30
0.0
 10
-5.5624
 20
-18.3219
 30
0.0
 10
-5.817
 20
-18.206
 30
0.0
 10
-6.0018
 20
-17.9733
 30
0.0
 10
-6.0018
 20
-17.9733
 30
0.0
 10
-6.2235
 20
-17.6937
 30
0.0
 10
-6.3348
 20
-17.237
 30
0.0
 10
-6.3348
 20
-16.6056
 30
0.0
  0
SPLINE
  5
7D
330
1F
100
AcDbEntity
  8
VRSTVA_1
 62
   250
100
AcDbSpline
210
0.0
220
0.0
230
1.0
 70
    11
 71
     3
 72
    36
 73
    32
 74
     0
 42
0.0000000001
 43
0.0000000001
 40
0.0
 40
0.0
 40
0.0
 40
0.0
 40
0.1111111111111111
 40
0.1111111111111111
 40
0.1111111111111111
 40
0.1111111111111111
 40
0.2222222222222222
 40
0.2222222222222222
 40
0.2222222222222222
 40
0.2222222222222222
 40
0.3333333333333333
 40
0.3333333333333333
 40
0.3333333333333333
 40
0.3333333333333333
 40
0.4444444444444444
 40
0.4444444444444444
 40
0.4444444444444444
 40
0.4444444444444444
 40
0.5555555555555556
 40
0.5555555555555556
 40
0.5555555555555556
 40
0.5555555555555556
 40
0.6666666666666666
 40
0.6666666666666666
 40
0.6666666666666666
 40
0.6666666666666666
 40
0.7777777777777778
 40
0.7777777777777778
 40
0.7777777777777778
 40
0.7777777777777778
 40
1.0
 40
1.0
 40
1.0
 40
1.0
 10
-5.9102
 20
-16.6056
 30
0.0
 10
-5.9102
 20
-17.1579
 30
0.0
 10
-5.8452
 20
-17.5252
 30
0.0
 10
-5.7159
 20
-17.7085
 30
0.0
 10
-5.7159
 20
-17.7085
 30
0.0
 10
-5.5867
 20
-17.8911
 30
0.0
 10
-5.4277
 20
-17.9827
 30
0.0
 10
-5.2381
 20
-17.9827
 30
0.0
 10
-5.2381
 20
-17.9827
 30
0.0
 10
-5.0478
 20
-17.9827
 30
0.0
 10
-4.8888
 20
-17.8903
 30
0.0
 10
-4.7595
 20
-17.707
 30
0.0
 10
-4.7595
 20
-17.707
 30
0.0
 10
-4.6303
 20
-17.5237
 30
0.0
 10
-4.5652
 20
-17.1563
 30
0.0
 10
-4.5652
 20
-16.6056
 30
0.0
 10
-4.5652
 20
-16.6056
 30
0.0
 10
-4.5652
 20
-16.0518
 30
0.0
 10
-4.6303
 20
-15.6837
 30
0.0
 10
-4.7595
 20
-15.5019
 30
0.0
 10
-4.7595
 20
-15.5019
 30
0.0
 10
-4.8888
 20
-15.3194
 30
0.0
 10
-5.0493
 20
-15.2286
 30
0.0
 10
-5.242
 20
-15.2286
 30
0.0
 10
-5.242
 20
-15.2286
 30
0.0
 10
-5.4324
 20
-15.2286
 30
0.0
 10
-5.5836
 20
-15.3092
 30
0.0
 10
-5.6971
 20
-15.4698
 30
0.0
 10
-5.6971
 20
-15.4698
 30
0.0
 10
-5.8389
 20
-15.6743
 30
0.0
 10
-5.9102
 20
-16.0534
 30
0.0
 10
-5.9102
 20
-16.6056
 30
0.0
  0
SPLINE
  5
7E
330
1F
100
AcDbEntity
  8
VRSTVA_1
 62
   250
100
AcDbSpline
210
0.0
220
0.0
230
1.0
 70
    11
 71
     3
 72
    20
 73
    16
 74
     0
 42
0.0000000001
 43
0.0000000001
 40
0.0
 40
0.0
 40
0.0
 40
0.0
 40
0.2
 40
0.2
 40
0.2
 40
0.2
 40
0.4
 40
0.4
 40
0.4
 40
0.4
 40
0.6
 40
0.6
 40
0.6
 40
0.6
 40
1.0
 40
1.0
 40
1.0
 40
1.0
 10
-2.4613
 20
-17.255
 30
0.0
 10
-2.4613
 20
-17.255
 30
0.0
 10
-2.4613
 20
-16.8398
 30
0.0
 10
-2.4613
 20
-16.8398
 30
0.0
 10
-2.4613
 20
-16.8398
 30
0.0
 10
-2.4613
 20
-16.8398
 30
0.0
 10
-1.1915
 20
-16.8398
 30
0.0
 10
-1.1915
 20
-16.8398
 30
0.0
 10
-1.1915
 20
-16.8398
 30
0.0
 10
-1.1915
 20
-16.8398
 30
0.0
 10
-1.1915
 20
-17.255
 30
0.0
 10
-1.1915
 20
-17.255
 30
0.0
 10
-1.1915
 20
-17.255
 30
0.0
 10
-1.1915
 20
-17.255
 30
0.0
 10
-2.4613
 20
-17.255
 30
0.0
 10
-2.4613
 20
-17.255
 30
0.0
  0
SPLINE
  5
7F
330
1F
100
AcDbEntity
  8
VRSTVA_1
 62
   250
100
AcDbSpline
210
0.0
220
0.0
230
1.0
 70
    11
 71
     3
 72
    92
 73
    88
 74
     0
 42
0.0000000001
 43
0.0000000001
 40
0.0
 40
0.0
 40
0.0
 40
0.0
 40
0.0434782608695652
 40
0.0434782608695652
 40
0.0434782608695652
 40
0.0434782608695652
 40
0.0869565217391304
 40
0.0869565217391304
 40
0.0869565217391304
 40
0.0869565217391304
 40
0.1304347826086956
 40
0.1304347826086956
 40
0.1304347826086956
 40
0.1304347826086956
 40
0.1739130434782609
 40
0.1739130434782609
 40
0.1739130434782609
 40
0.1739130434782609
 40
0.2173913043478261
 40
0.2173913043478261
 40
0.2173913043478261
 40
0.2173913043478261
 40
0.2608695652173913
 40
0.2608695652173913
 40
0.2608695652173913
 40
0.2608695652173913
 40
0.3043478260869565
 40
0.3043478260869565
 40
0.3043478260869565
 40
0.3043478260869565
 40
0.3478260869565217
 40
0.3478260869565217
 40
0.3478260869565217
 40
0.3478260869565217
 40
0.391304347826087
 40
0.391304347826087
 40
0.391304347826087
 40
0.391304347826087
 40
0.4347826086956522
 40
0.4347826086956522
 40
0.4347826086956522
 40
0.4347826086956522
 40
0.4782608695652174
 40
0.4782608695652174
 40
0.4782608695652174
 40
0.4782608695652174
 40
0.5217391304347826
 40
0.5217391304347826
 40
0.5217391304347826
 40
0.5217391304347826
 40
0.5652173913043478
 40
0.5652173913043478
 40
0.5652173913043478
 40
0.5652173913043478
 40
0.6086956521739131
 40
0.6086956521739131
 40
0.6086956521739131
 40
0.6086956521739131
 40
0.6521739130434783
 40
0.6521739130434783
 40
0.6521739130434783
 40
0.6521739130434783
 40
0.6956521739130435
 40
0.6956521739130435
 40
0.6956521739130435
 40
0.6956521739130435
 40
0.7391304347826086
 40
0.7391304347826086
 40
0.7391304347826086
 40
0.7391304347826086
 40
0.782608695652174
 40
0.782608695652174
 40
0.782608695652174
 40
0.782608695652174
 40
0.8260869565217391
 40
0.8260869565217391
 40
0.8260869565217391
 40
0.8260869565217391
 40
0.8695652173913043
 40
0.8695652173913043
 40
0.8695652173913043
 40
0.8695652173913043
 40
0.9130434782608695
 40
0.9130434782608695
 40
0.9130434782608695
 40
0.9130434782608695
 40
1.0
 40
1.0
 40
1.0
 40
1.0
 10
0.4558
 20
-17.3835
 30
0.0
 10
0.4558
 20
-17.3835
 30
0.0
 10
0.8898
 20
-17.3467
 30
0.0
 10
0.8898
 20
-17.3467
 30
0.0
 10
0.8898
 20
-17.3467
 30
0.0
 10
0.9219
 20
-17.5581
 30
0.0
 10
0.9963
 20
-17.7164
 30
0.0
 10
1.113
 20
-17.8229
 30
0.0
 10
1.113
 20
-17.8229
 30
0.0
 10
1.2305
 20
-17.9294
 30
0.0
 10
1.3715
 20
-17.9827
 30
0.0
 10
1.5368
 20
-17.9827
 30
0.0
 10
1.5368
 20
-17.9827
 30
0.0
 10
1.7358
 20
-17.9827
 30
0.0
 10
1.9042
 20
-17.9075
 30
0.0
 10
2.0413
 20
-17.7579
 30
0.0
 10
2.0413
 20
-17.7579
 30
0.0
 10
2.1791
 20
-17.6075
 30
0.0
 10
2.2481
 20
-17.4085
 30
0.0
 10
2.2481
 20
-17.161
 30
0.0
 10
2.2481
 20
-17.161
 30
0.0
 10
2.2481
 20
-16.9252
 30
0.0
 10
2.1823
 20
-16.7396
 30
0.0
 10
2.0499
 20
-16.6033
 30
0.0
 10
2.0499
 20
-16.6033
 30
0.0
 10
1.9175
 20
-16.467
 30
0.0
 10
1.7444
 20
-16.3988
 30
0.0
 10
1.5298
 20
-16.3988
 30
0.0
 10
1.5298
 20
-16.3988
 30
0.0
 10
1.3966
 20
-16.3988
 30
0.0
 10
1.2768
 20
-16.4294
 30
0.0
 10
1.1694
 20
-16.4897
 30
0.0
 10
1.1694
 20
-16.4897
 30
0.0
 10
1.0621
 20
-16.55
 30
0.0
 10
0.9783
 20
-16.6284
 30
0.0
 10
0.9172
 20
-16.7247
 30
0.0
 10
0.9172
 20
-16.7247
 30
0.0
 10
0.9172
 20
-16.7247
 30
0.0
 10
0.5295
 20
-16.6746
 30
0.0
 10
0.5295
 20
-16.6746
 30
0.0
 10
0.5295
 20
-16.6746
 30
0.0
 10
0.5295
 20
-16.6746
 30
0.0
 10
0.8553
 20
-14.9466
 30
0.0
 10
0.8553
 20
-14.9466
 30
0.0
 10
0.8553
 20
-14.9466
 30
0.0
 10
0.8553
 20
-14.9466
 30
0.0
 10
2.5285
 20
-14.9466
 30
0.0
 10
2.5285
 20
-14.9466
 30
0.0
 10
2.5285
 20
-14.9466
 30
0.0
 10
2.5285
 20
-14.9466
 30
0.0
 10
2.5285
 20
-15.3414
 30
0.0
 10
2.5285
 20
-15.3414
 30
0.0
 10
2.5285
 20
-15.3414
 30
0.0
 10
2.5285
 20
-15.3414
 30
0.0
 10
1.1859
 20
-15.3414
 30
0.0
 10
1.1859
 20
-15.3414
 30
0.0
 10
1.1859
 20
-15.3414
 30
0.0
 10
1.1859
 20
-15.3414
 30
0.0
 10
1.0042
 20
-16.2453
 30
0.0
 10
1.0042
 20
-16.2453
 30
0.0
 10
1.0042
 20
-16.2453
 30
0.0
 10
1.2063
 20
-16.1043
 30
0.0
 10
1.4185
 20
-16.0338
 30
0.0
 10
1.6402
 20
-16.0338
 30
0.0
 10
1.6402
 20
-16.0338
 30
0.0
 10
1.934
 20
-16.0338
 30
0.0
 10
2.1815
 20
-16.1356
 30
0.0
 10
2.3836
 20
-16.3393
 30
0.0
 10
2.3836
 20
-16.3393
 30
0.0
 10
2.5857
 20
-16.543
 30
0.0
 10
2.6867
 20
-16.8046
 30
0.0
 10
2.6867
 20
-17.1242
 30
0.0
 10
2.6867
 20
-17.1242
 30
0.0
 10
2.6867
 20
-17.4289
 30
0.0
 10
2.5974
 20
-17.6921
 30
0.0
 10
2.4204
 20
-17.9138
 30
0.0
 10
2.4204
 20
-17.9138
 30
0.0
 10
2.2042
 20
-18.1856
 30
0.0
 10
1.9097
 20
-18.3219
 30
0.0
 10
1.5368
 20
-18.3219
 30
0.0
 10
1.5368
 20
-18.3219
 30
0.0
 10
1.2305
 20
-18.3219
 30
0.0
 10
0.9807
 20
-18.2365
 30
0.0
 10
0.7872
 20
-18.065
 30
0.0
 10
0.7872
 20
-18.065
 30
0.0
 10
0.5937
 20
-17.8934
 30
0.0
 10
0.4833
 20
-17.6662
 30
0.0
 10
0.4558
 20
-17.3835
 30
0.0
  0
SPLINE
  5
80
330
1F
100
AcDbEntity
  8
VRSTVA_1
 62
   250
100
AcDbSpline
210
0.0
220
0.0
230
1.0
 70
    11
 71
     3
 72
    92
 73
    88
 74
     0
 42
0.0000000001
 43
0.0000000001
 40
0.0
 40
0.0
 40
0.0
 40
0.0
 40
0.0434782608695652
 40
0.0434782608695652
 40
0.0434782608695652
 40
0.0434782608695652
 40
0.0869565217391304
 40
0.0869565217391304
 40
0.0869565217391304
 40
0.0869565217391304
 40
0.1304347826086956
 40
0.1304347826086956
 40
0.1304347826086956
 40
0.1304347826086956
 40
0.1739130434782609
 40
0.1739130434782609
 40
0.1739130434782609
 40
0.1739130434782609
 40
0.2173913043478261
 40
0.2173913043478261
 40
0.2173913043478261
 40
0.2173913043478261
 40
0.2608695652173913
 40
0.2608695652173913
 40
0.2608695652173913
 40
0.2608695652173913
 40
0.3043478260869565
 40
0.3043478260869565
 40
0.3043478260869565
 40
0.3043478260869565
 40
0.3478260869565217
 40
0.3478260869565217
 40
0.3478260869565217
 40
0.3478260869565217
 40
0.391304347826087
 40
0.391304347826087
 40
0.391304347826087
 40
0.391304347826087
 40
0.4347826086956522
 40
0.4347826086956522
 40
0.4347826086956522
 40
0.4347826086956522
 40
0.4782608695652174
 40
0.4782608695652174
 40
0.4782608695652174
 40
0.4782608695652174
 40
0.5217391304347826
 40
0.5217391304347826
 40
0.5217391304347826
 40
0.5217391304347826
 40
0.5652173913043478
 40
0.5652173913043478
 40
0.5652173913043478
 40
0.5652173913043478
 40
0.6086956521739131
 40
0.6086956521739131
 40
0.6086956521739131
 40
0.6086956521739131
 40
0.6521739130434783
 40
0.6521739130434783
 40
0.6521739130434783
 40
0.6521739130434783
 40
0.6956521739130435
 40
0.6956521739130435
 40
0.6956521739130435
 40
0.6956521739130435
 40
0.7391304347826086
 40
0.7391304347826086
 40
0.7391304347826086
 40
0.7391304347826086
 40
0.782608695652174
 40
0.782608695652174
 40
0.782608695652174
 40
0.782608695652174
 40
0.8260869565217391
 40
0.8260869565217391
 40
0.8260869565217391
 40
0.8260869565217391
 40
0.8695652173913043
 40
0.8695652173913043
 40
0.8695652173913043
 40
0.8695652173913043
 40
0.9130434782608695
 40
0.9130434782608695
 40
0.9130434782608695
 40
0.9130434782608695
 40
1.0
 40
1.0
 40
1.0
 40
1.0
 10
3.0697
 20
-17.3835
 30
0.0
 10
3.0697
 20
-17.3835
 30
0.0
 10
3.5037
 20
-17.3467
 30
0.0
 10
3.5037
 20
-17.3467
 30
0.0
 10
3.5037
 20
-17.3467
 30
0.0
 10
3.5358
 20
-17.5581
 30
0.0
 10
3.6102
 20
-17.7164
 30
0.0
 10
3.7269
 20
-17.8229
 30
0.0
 10
3.7269
 20
-17.8229
 30
0.0
 10
3.8444
 20
-17.9294
 30
0.0
 10
3.9854
 20
-17.9827
 30
0.0
 10
4.1507
 20
-17.9827
 30
0.0
 10
4.1507
 20
-17.9827
 30
0.0
 10
4.3497
 20
-17.9827
 30
0.0
 10
4.5181
 20
-17.9075
 30
0.0
 10
4.6552
 20
-17.7579
 30
0.0
 10
4.6552
 20
-17.7579
 30
0.0
 10
4.793
 20
-17.6075
 30
0.0
 10
4.862
 20
-17.4085
 30
0.0
 10
4.862
 20
-17.161
 30
0.0
 10
4.862
 20
-17.161
 30
0.0
 10
4.862
 20
-16.9252
 30
0.0
 10
4.7962
 20
-16.7396
 30
0.0
 10
4.6638
 20
-16.6033
 30
0.0
 10
4.6638
 20
-16.6033
 30
0.0
 10
4.5314
 20
-16.467
 30
0.0
 10
4.3583
 20
-16.3988
 30
0.0
 10
4.1437
 20
-16.3988
 30
0.0
 10
4.1437
 20
-16.3988
 30
0.0
 10
4.0105
 20
-16.3988
 30
0.0
 10
3.8907
 20
-16.4294
 30
0.0
 10
3.7833
 20
-16.4897
 30
0.0
 10
3.7833
 20
-16.4897
 30
0.0
 10
3.676
 20
-16.55
 30
0.0
 10
3.5922
 20
-16.6284
 30
0.0
 10
3.5311
 20
-16.7247
 30
0.0
 10
3.5311
 20
-16.7247
 30
0.0
 10
3.5311
 20
-16.7247
 30
0.0
 10
3.1434
 20
-16.6746
 30
0.0
 10
3.1434
 20
-16.6746
 30
0.0
 10
3.1434
 20
-16.6746
 30
0.0
 10
3.1434
 20
-16.6746
 30
0.0
 10
3.4692
 20
-14.9466
 30
0.0
 10
3.4692
 20
-14.9466
 30
0.0
 10
3.4692
 20
-14.9466
 30
0.0
 10
3.4692
 20
-14.9466
 30
0.0
 10
5.1424
 20
-14.9466
 30
0.0
 10
5.1424
 20
-14.9466
 30
0.0
 10
5.1424
 20
-14.9466
 30
0.0
 10
5.1424
 20
-14.9466
 30
0.0
 10
5.1424
 20
-15.3414
 30
0.0
 10
5.1424
 20
-15.3414
 30
0.0
 10
5.1424
 20
-15.3414
 30
0.0
 10
5.1424
 20
-15.3414
 30
0.0
 10
3.7998
 20
-15.3414
 30
0.0
 10
3.7998
 20
-15.3414
 30
0.0
 10
3.7998
 20
-15.3414
 30
0.0
 10
3.7998
 20
-15.3414
 30
0.0
 10
3.6181
 20
-16.2453
 30
0.0
 10
3.6181
 20
-16.2453
 30
0.0
 10
3.6181
 20
-16.2453
 30
0.0
 10
3.8202
 20
-16.1043
 30
0.0
 10
4.0324
 20
-16.0338
 30
0.0
 10
4.2541
 20
-16.0338
 30
0.0
 10
4.2541
 20
-16.0338
 30
0.0
 10
4.5479
 20
-16.0338
 30
0.0
 10
4.7954
 20
-16.1356
 30
0.0
 10
4.9975
 20
-16.3393
 30
0.0
 10
4.9975
 20
-16.3393
 30
0.0
 10
5.1996
 20
-16.543
 30
0.0
 10
5.3006
 20
-16.8046
 30
0.0
 10
5.3006
 20
-17.1242
 30
0.0
 10
5.3006
 20
-17.1242
 30
0.0
 10
5.3006
 20
-17.4289
 30
0.0
 10
5.2113
 20
-17.6921
 30
0.0
 10
5.0343
 20
-17.9138
 30
0.0
 10
5.0343
 20
-17.9138
 30
0.0
 10
4.8181
 20
-18.1856
 30
0.0
 10
4.5236
 20
-18.3219
 30
0.0
 10
4.1507
 20
-18.3219
 30
0.0
 10
4.1507
 20
-18.3219
 30
0.0
 10
3.8444
 20
-18.3219
 30
0.0
 10
3.5946
 20
-18.2365
 30
0.0
 10
3.4011
 20
-18.065
 30
0.0
 10
3.4011
 20
-18.065
 30
0.0
 10
3.2076
 20
-17.8934
 30
0.0
 10
3.0972
 20
-17.6662
 30
0.0
 10
3.0697
 20
-17.3835
 30
0.0
  0
SPLINE
  5
81
330
1F
100
AcDbEntity
  8
VRSTVA_1
 62
   250
100
AcDbSpline
210
0.0
220
0.0
230
1.0
 70
    11
 71
     3
 72
    52
 73
    48
 74
     0
 42
0.0000000001
 43
0.0000000001
 40
0.0
 40
0.0
 40
0.0
 40
0.0
 40
0.0769230769230769
 40
0.0769230769230769
 40
0.0769230769230769
 40
0.0769230769230769
 40
0.1538461538461539
 40
0.1538461538461539
 40
0.1538461538461539
 40
0.1538461538461539
 40
0.2307692307692308
 40
0.2307692307692308
 40
0.2307692307692308
 40
0.2307692307692308
 40
0.3076923076923077
 40
0.3076923076923077
 40
0.3076923076923077
 40
0.3076923076923077
 40
0.3846153846153846
 40
0.3846153846153846
 40
0.3846153846153846
 40
0.3846153846153846
 40
0.4615384615384616
 40
0.4615384615384616
 40
0.4615384615384616
 40
0.4615384615384616
 40
0.5384615384615384
 40
0.5384615384615384
 40
0.5384615384615384
 40
0.5384615384615384
 40
0.6153846153846154
 40
0.6153846153846154
 40
0.6153846153846154
 40
0.6153846153846154
 40
0.6923076923076923
 40
0.6923076923076923
 40
0.6923076923076923
 40
0.6923076923076923
 40
0.7692307692307693
 40
0.7692307692307693
 40
0.7692307692307693
 40
0.7692307692307693
 40
0.8461538461538461
 40
0.8461538461538461
 40
0.8461538461538461
 40
0.8461538461538461
 40
1.0
 40
1.0
 40
1.0
 40
1.0
 10
5.6836
 20
-16.6056
 30
0.0
 10
5.6836
 20
-16.2077
 30
0.0
 10
5.7244
 20
-15.8873
 30
0.0
 10
5.8066
 20
-15.6453
 30
0.0
 10
5.8066
 20
-15.6453
 30
0.0
 10
5.8881
 20
-15.4025
 30
0.0
 10
6.0103
 20
-15.2152
 30
0.0
 10
6.1717
 20
-15.0837
 30
0.0
 10
6.1717
 20
-15.0837
 30
0.0
 10
6.333
 20
-14.9521
 30
0.0
 10
6.5359
 20
-14.8863
 30
0.0
 10
6.7803
 20
-14.8863
 30
0.0
 10
6.7803
 20
-14.8863
 30
0.0
 10
6.9612
 20
-14.8863
 30
0.0
 10
7.1195
 20
-14.9231
 30
0.0
 10
7.2558
 20
-14.9959
 30
0.0
 10
7.2558
 20
-14.9959
 30
0.0
 10
7.3921
 20
-15.068
 30
0.0
 10
7.5041
 20
-15.1729
 30
0.0
 10
7.5934
 20
-15.31
 30
0.0
 10
7.5934
 20
-15.31
 30
0.0
 10
7.6819
 20
-15.4471
 30
0.0
 10
7.7516
 20
-15.614
 30
0.0
 10
7.8017
 20
-15.8106
 30
0.0
 10
7.8017
 20
-15.8106
 30
0.0
 10
7.8526
 20
-16.0072
 30
0.0
 10
7.8777
 20
-16.2719
 30
0.0
 10
7.8777
 20
-16.6056
 30
0.0
 10
7.8777
 20
-16.6056
 30
0.0
 10
7.8777
 20
-17.0004
 30
0.0
 10
7.837
 20
-17.3185
 30
0.0
 10
7.7563
 20
-17.5613
 30
0.0
 10
7.7563
 20
-17.5613
 30
0.0
 10
7.6748
 20
-17.8041
 30
0.0
 10
7.5534
 20
-17.9913
 30
0.0
 10
7.3921
 20
-18.1237
 30
0.0
 10
7.3921
 20
-18.1237
 30
0.0
 10
7.2307
 20
-18.2561
 30
0.0
 10
7.027
 20
-18.3219
 30
0.0
 10
6.7803
 20
-18.3219
 30
0.0
 10
6.7803
 20
-18.3219
 30
0.0
 10
6.456
 20
-18.3219
 30
0.0
 10
6.2014
 20
-18.206
 30
0.0
 10
6.0166
 20
-17.9733
 30
0.0
 10
6.0166
 20
-17.9733
 30
0.0
 10
5.7949
 20
-17.6937
 30
0.0
 10
5.6836
 20
-17.237
 30
0.0
 10
5.6836
 20
-16.6056
 30
0.0
  0
SPLINE
  5
82
330
1F
100
AcDbEntity
  8
VRSTVA_1
 62
   250
100
AcDbSpline
210
0.0
220
0.0
230
1.0
 70
    11
 71
     3
 72
    36
 73
    32
 74
     0
 42
0.0000000001
 43
0.0000000001
 40
0.0
 40
0.0
 40
0.0
 40
0.0
 40
0.1111111111111111
 40
0.1111111111111111
 40
0.1111111111111111
 40
0.1111111111111111
 40
0.2222222222222222
 40
0.2222222222222222
 40
0.2222222222222222
 40
0.2222222222222222
 40
0.3333333333333333
 40
0.3333333333333333
 40
0.3333333333333333
 40
0.3333333333333333
 40
0.4444444444444444
 40
0.4444444444444444
 40
0.4444444444444444
 40
0.4444444444444444
 40
0.5555555555555556
 40
0.5555555555555556
 40
0.5555555555555556
 40
0.5555555555555556
 40
0.6666666666666666
 40
0.6666666666666666
 40
0.6666666666666666
 40
0.6666666666666666
 40
0.7777777777777778
 40
0.7777777777777778
 40
0.7777777777777778
 40
0.7777777777777778
 40
1.0
 40
1.0
 40
1.0
 40
1.0
 10
6.1082
 20
-16.6056
 30
0.0
 10
6.1082
 20
-17.1579
 30
0.0
 10
6.1732
 20
-17.5252
 30
0.0
 10
6.3025
 20
-17.7085
 30
0.0
 10
6.3025
 20
-17.7085
 30
0.0
 10
6.4317
 20
-17.8911
 30
0.0
 10
6.5907
 20
-17.9827
 30
0.0
 10
6.7803
 20
-17.9827
 30
0.0
 10
6.7803
 20
-17.9827
 30
0.0
 10
6.9706
 20
-17.9827
 30
0.0
 10
7.1296
 20
-17.8903
 30
0.0
 10
7.2589
 20
-17.707
 30
0.0
 10
7.2589
 20
-17.707
 30
0.0
 10
7.3881
 20
-17.5237
 30
0.0
 10
7.4532
 20
-17.1563
 30
0.0
 10
7.4532
 20
-16.6056
 30
0.0
 10
7.4532
 20
-16.6056
 30
0.0
 10
7.4532
 20
-16.0518
 30
0.0
 10
7.3881
 20
-15.6837
 30
0.0
 10
7.2589
 20
-15.5019
 30
0.0
 10
7.2589
 20
-15.5019
 30
0.0
 10
7.1296
 20
-15.3194
 30
0.0
 10
6.9691
 20
-15.2286
 30
0.0
 10
6.7764
 20
-15.2286
 30
0.0
 10
6.7764
 20
-15.2286
 30
0.0
 10
6.586
 20
-15.2286
 30
0.0
 10
6.4348
 20
-15.3092
 30
0.0
 10
6.3213
 20
-15.4698
 30
0.0
 10
6.3213
 20
-15.4698
 30
0.0
 10
6.1795
 20
-15.6743
 30
0.0
 10
6.1082
 20
-16.0534
 30
0.0
 10
6.1082
 20
-16.6056
 30
0.0
  0
SPLINE
  5
83
330
1F
100
AcDbEntity
  8
VRSTVA_1
 62
   250
100
AcDbSpline
210
0.0
220
0.0
230
1.0
 70
    11
 71
     3
 72
    84
 73
    80
 74
     0
 42
0.0000000001
 43
0.0000000001
 40
0.0
 40
0.0
 40
0.0
 40
0.0
 40
0.0476190476190476
 40
0.0476190476190476
 40
0.0476190476190476
 40
0.0476190476190476
 40
0.0952380952380952
 40
0.0952380952380952
 40
0.0952380952380952
 40
0.0952380952380952
 40
0.1428571428571428
 40
0.1428571428571428
 40
0.1428571428571428
 40
0.1428571428571428
 40
0.1904761904761905
 40
0.1904761904761905
 40
0.1904761904761905
 40
0.1904761904761905
 40
0.2380952380952381
 40
0.2380952380952381
 40
0.2380952380952381
 40
0.2380952380952381
 40
0.2857142857142857
 40
0.2857142857142857
 40
0.2857142857142857
 40
0.2857142857142857
 40
0.3333333333333333
 40
0.3333333333333333
 40
0.3333333333333333
 40
0.3333333333333333
 40
0.3809523809523809
 40
0.3809523809523809
 40
0.3809523809523809
 40
0.3809523809523809
 40
0.4285714285714285
 40
0.4285714285714285
 40
0.4285714285714285
 40
0.4285714285714285
 40
0.4761904761904762
 40
0.4761904761904762
 40
0.4761904761904762
 40
0.4761904761904762
 40
0.5238095238095238
 40
0.5238095238095238
 40
0.5238095238095238
 40
0.5238095238095238
 40
0.5714285714285714
 40
0.5714285714285714
 40
0.5714285714285714
 40
0.5714285714285714
 40
0.6190476190476191
 40
0.6190476190476191
 40
0.6190476190476191
 40
0.6190476190476191
 40
0.6666666666666666
 40
0.6666666666666666
 40
0.6666666666666666
 40
0.6666666666666666
 40
0.7142857142857143
 40
0.7142857142857143
 40
0.7142857142857143
 40
0.7142857142857143
 40
0.7619047619047619
 40
0.7619047619047619
 40
0.7619047619047619
 40
0.7619047619047619
 40
0.8095238095238095
 40
0.8095238095238095
 40
0.8095238095238095
 40
0.8095238095238095
 40
0.8571428571428571
 40
0.8571428571428571
 40
0.8571428571428571
 40
0.8571428571428571
 40
0.9047619047619048
 40
0.9047619047619048
 40
0.9047619047619048
 40
0.9047619047619048
 40
1.0
 40
1.0
 40
1.0
 40
1.0
 10
-55.0549
 20
-1.1337
 30
0.0
 10
-55.0549
 20
-1.1337
 30
0.0
 10
-55.4865
 20
-0.7483
 30
0.0
 10
-55.4865
 20
-0.7483
 30
0.0
 10
-55.4865
 20
-0.7483
 30
0.0
 10
-55.4865
 20
-0.7483
 30
0.0
 10
-55.2938
 20
-0.5211
 30
0.0
 10
-55.2938
 20
-0.5211
 30
0.0
 10
-55.2938
 20
-0.5211
 30
0.0
 10
-55.2938
 20
-0.5211
 30
0.0
 10
-54.8395
 20
-0.9245
 30
0.0
 10
-54.8395
 20
-0.9245
 30
0.0
 10
-54.8395
 20
-0.9245
 30
0.0
 10
-54.6437
 20
-0.793
 30
0.0
 10
-54.4721
 20
-0.7044
 30
0.0
 10
-54.3256
 20
-0.6582
 30
0.0
 10
-54.3256
 20
-0.6582
 30
0.0
 10
-54.1329
 20
-0.5971
 30
0.0
 10
-53.9167
 20
-0.5666
 30
0.0
 10
-53.6786
 20
-0.5666
 30
0.0
 10
-53.6786
 20
-0.5666
 30
0.0
 10
-53.334
 20
-0.5666
 30
0.0
 10
-53.0269
 20
-0.6363
 30
0.0
 10
-52.7582
 20
-0.7757
 30
0.0
 10
-52.7582
 20
-0.7757
 30
0.0
 10
-52.4888
 20
-0.9151
 30
0.0
 10
-52.2851
 20
-1.1102
 30
0.0
 10
-52.1472
 20
-1.3616
 30
0.0
 10
-52.1472
 20
-1.3616
 30
0.0
 10
-52.0101
 20
-1.6139
 30
0.0
 10
-51.9412
 20
-1.881
 30
0.0
 10
-51.9412
 20
-2.1638
 30
0.0
 10
-51.9412
 20
-2.1638
 30
0.0
 10
-51.9412
 20
-2.3753
 30
0.0
 10
-51.971
 20
-2.5664
 30
0.0
 10
-52.0305
 20
-2.7379
 30
0.0
 10
-52.0305
 20
-2.7379
 30
0.0
 10
-52.0767
 20
-2.8695
 30
0.0
 10
-52.1645
 20
-3.0231
 30
0.0
 10
-52.2945
 20
-3.1993
 30
0.0
 10
-52.2945
 20
-3.1993
 30
0.0
 10
-52.2945
 20
-3.1993
 30
0.0
 10
-51.8629
 20
-3.5847
 30
0.0
 10
-51.8629
 20
-3.5847
 30
0.0
 10
-51.8629
 20
-3.5847
 30
0.0
 10
-51.8629
 20
-3.5847
 30
0.0
 10
-52.0556
 20
-3.8118
 30
0.0
 10
-52.0556
 20
-3.8118
 30
0.0
 10
-52.0556
 20
-3.8118
 30
0.0
 10
-52.0556
 20
-3.8118
 30
0.0
 10
-52.5076
 20
-3.4077
 30
0.0
 10
-52.5076
 20
-3.4077
 30
0.0
 10
-52.5076
 20
-3.4077
 30
0.0
 10
-52.7355
 20
-3.5581
 30
0.0
 10
-52.9305
 20
-3.6583
 30
0.0
 10
-53.0919
 20
-3.7085
 30
0.0
 10
-53.0919
 20
-3.7085
 30
0.0
 10
-53.2533
 20
-3.7586
 30
0.0
 10
-53.4475
 20
-3.7844
 30
0.0
 10
-53.6739
 20
-3.7844
 30
0.0
 10
-53.6739
 20
-3.7844
 30
0.0
 10
-54.0194
 20
-3.7844
 30
0.0
 10
-54.3272
 20
-3.7155
 30
0.0
 10
-54.5974
 20
-3.5776
 30
0.0
 10
-54.5974
 20
-3.5776
 30
0.0
 10
-54.8677
 20
-3.4398
 30
0.0
 10
-55.0721
 20
-3.2471
 30
0.0
 10
-55.2116
 20
-2.998
 30
0.0
 10
-55.2116
 20
-2.998
 30
0.0
 10
-55.3502
 20
-2.7497
 30
0.0
 10
-55.4199
 20
-2.4732
 30
0.0
 10
-55.4199
 20
-2.1685
 30
0.0
 10
-55.4199
 20
-2.1685
 30
0.0
 10
-55.4199
 20
-1.9632
 30
0.0
 10
-55.3933
 20
-1.7838
 30
0.0
 10
-55.3385
 20
-1.6303
 30
0.0
 10
-55.3385
 20
-1.6303
 30
0.0
 10
-55.2844
 20
-1.4768
 30
0.0
 10
-55.1896
 20
-1.3107
 30
0.0
 10
-55.0549
 20
-1.1337
 30
0.0
  0
SPLINE
  5
84
330
1F
100
AcDbEntity
  8
VRSTVA_1
 62
   250
100
AcDbSpline
210
0.0
220
0.0
230
1.0
 70
    11
 71
     3
 72
    32
 73
    28
 74
     0
 42
0.0000000001
 43
0.0000000001
 40
0.0
 40
0.0
 40
0.0
 40
0.0
 40
0.125
 40
0.125
 40
0.125
 40
0.125
 40
0.25
 40
0.25
 40
0.25
 40
0.25
 40
0.375
 40
0.375
 40
0.375
 40
0.375
 40
0.5
 40
0.5
 40
0.5
 40
0.5
 40
0.625
 40
0.625
 40
0.625
 40
0.625
 40
0.75
 40
0.75
 40
0.75
 40
0.75
 40
1.0
 40
1.0
 40
1.0
 40
1.0
 10
-54.7455
 20
-1.4086
 30
0.0
 10
-54.8583
 20
-1.5528
 30
0.0
 10
-54.9358
 20
-1.6789
 30
0.0
 10
-54.9774
 20
-1.7862
 30
0.0
 10
-54.9774
 20
-1.7862
 30
0.0
 10
-55.0181
 20
-1.8943
 30
0.0
 10
-55.0392
 20
-2.0212
 30
0.0
 10
-55.0392
 20
-2.1661
 30
0.0
 10
-55.0392
 20
-2.1661
 30
0.0
 10
-55.0392
 20
-2.5014
 30
0.0
 10
-54.9257
 20
-2.7779
 30
0.0
 10
-54.6985
 20
-2.9972
 30
0.0
 10
-54.6985
 20
-2.9972
 30
0.0
 10
-54.4713
 20
-3.2158
 30
0.0
 10
-54.1322
 20
-3.3254
 30
0.0
 10
-53.6802
 20
-3.3254
 30
0.0
 10
-53.6802
 20
-3.3254
 30
0.0
 10
-53.5032
 20
-3.3254
 30
0.0
 10
-53.3457
 20
-3.3082
 30
0.0
 10
-53.2078
 20
-3.2745
 30
0.0
 10
-53.2078
 20
-3.2745
 30
0.0
 10
-53.1052
 20
-3.2502
 30
0.0
 10
-52.9791
 20
-3.1993
 30
0.0
 10
-52.8295
 20
-3.121
 30
0.0
 10
-52.8295
 20
-3.121
 30
0.0
 10
-52.8295
 20
-3.121
 30
0.0
 10
-54.7455
 20
-1.4086
 30
0.0
 10
-54.7455
 20
-1.4086
 30
0.0
  0
SPLINE
  5
85
330
1F
100
AcDbEntity
  8
VRSTVA_1
 62
   250
100
AcDbSpline
210
0.0
220
0.0
230
1.0
 70
    11
 71
     3
 72
    28
 73
    24
 74
     0
 42
0.0000000001
 43
0.0000000001
 40
0.0
 40
0.0
 40
0.0
 40
0.0
 40
0.1428571428571428
 40
0.1428571428571428
 40
0.1428571428571428
 40
0.1428571428571428
 40
0.2857142857142857
 40
0.2857142857142857
 40
0.2857142857142857
 40
0.2857142857142857
 40
0.4285714285714285
 40
0.4285714285714285
 40
0.4285714285714285
 40
0.4285714285714285
 40
0.5714285714285714
 40
0.5714285714285714
 40
0.5714285714285714
 40
0.5714285714285714
 40
0.7142857142857143
 40
0.7142857142857143
 40
0.7142857142857143
 40
0.7142857142857143
 40
1.0
 40
1.0
 40
1.0
 40
1.0
 10
-54.5089
 20
-1.2206
 30
0.0
 10
-54.5089
 20
-1.2206
 30
0.0
 10
-52.6
 20
-2.9259
 30
0.0
 10
-52.6
 20
-2.9259
 30
0.0
 10
-52.6
 20
-2.9259
 30
0.0
 10
-52.5036
 20
-2.8084
 30
0.0
 10
-52.4363
 20
-2.6995
 30
0.0
 10
-52.3979
 20
-2.6001
 30
0.0
 10
-52.3979
 20
-2.6001
 30
0.0
 10
-52.347
 20
-2.47
 30
0.0
 10
-52.3219
 20
-2.329
 30
0.0
 10
-52.3219
 20
-2.1779
 30
0.0
 10
-52.3219
 20
-2.1779
 30
0.0
 10
-52.3219
 20
-1.8442
 30
0.0
 10
-52.4394
 20
-1.5692
 30
0.0
 10
-52.6752
 20
-1.3515
 30
0.0
 10
-52.6752
 20
-1.3515
 30
0.0
 10
-52.911
 20
-1.1345
 30
0.0
 10
-53.2415
 20
-1.0256
 30
0.0
 10
-53.6669
 20
-1.0256
 30
0.0
 10
-53.6669
 20
-1.0256
 30
0.0
 10
-53.9849
 20
-1.0256
 30
0.0
 10
-54.2661
 20
-1.0906
 30
0.0
 10
-54.5089
 20
-1.2206
 30
0.0
  0
SPLINE
  5
86
330
1F
100
AcDbEntity
  8
VRSTVA_1
 62
   250
100
AcDbSpline
210
0.0
220
0.0
230
1.0
 70
    11
 71
     3
 72
    68
 73
    64
 74
     0
 42
0.0000000001
 43
0.0000000001
 40
0.0
 40
0.0
 40
0.0
 40
0.0
 40
0.0588235294117647
 40
0.0588235294117647
 40
0.0588235294117647
 40
0.0588235294117647
 40
0.1176470588235294
 40
0.1176470588235294
 40
0.1176470588235294
 40
0.1176470588235294
 40
0.1764705882352941
 40
0.1764705882352941
 40
0.1764705882352941
 40
0.1764705882352941
 40
0.2352941176470588
 40
0.2352941176470588
 40
0.2352941176470588
 40
0.2352941176470588
 40
0.2941176470588235
 40
0.2941176470588235
 40
0.2941176470588235
 40
0.2941176470588235
 40
0.3529411764705883
 40
0.3529411764705883
 40
0.3529411764705883
 40
0.3529411764705883
 40
0.4117647058823529
 40
0.4117647058823529
 40
0.4117647058823529
 40
0.4117647058823529
 40
0.4705882352941176
 40
0.4705882352941176
 40
0.4705882352941176
 40
0.4705882352941176
 40
0.5294117647058824
 40
0.5294117647058824
 40
0.5294117647058824
 40
0.5294117647058824
 40
0.5882352941176471
 40
0.5882352941176471
 40
0.5882352941176471
 40
0.5882352941176471
 40
0.6470588235294118
 40
0.6470588235294118
 40
0.6470588235294118
 40
0.6470588235294118
 40
0.7058823529411765
 40
0.7058823529411765
 40
0.7058823529411765
 40
0.7058823529411765
 40
0.7647058823529411
 40
0.7647058823529411
 40
0.7647058823529411
 40
0.7647058823529411
 40
0.8235294117647058
 40
0.8235294117647058
 40
0.8235294117647058
 40
0.8235294117647058
 40
0.8823529411764706
 40
0.8823529411764706
 40
0.8823529411764706
 40
0.8823529411764706
 40
1.0
 40
1.0
 40
1.0
 40
1.0
 10
-53.8227
 20
0.4846
 30
0.0
 10
-53.8854
 20
0.3131
 30
0.0
 10
-53.9747
 20
0.1862
 30
0.0
 10
-54.0914
 20
0.1031
 30
0.0
 10
-54.0914
 20
0.1031
 30
0.0
 10
-54.2074
 20
0.0209
 30
0.0
 10
-54.3468
 20
-0.0206
 30
0.0
 10
-54.5089
 20
-0.0206
 30
0.0
 10
-54.5089
 20
-0.0206
 30
0.0
 10
-54.7541
 20
-0.0206
 30
0.0
 10
-54.9593
 20
0.0671
 30
0.0
 10
-55.1262
 20
0.2433
 30
0.0
 10
-55.1262
 20
0.2433
 30
0.0
 10
-55.293
 20
0.4196
 30
0.0
 10
-55.3768
 20
0.653
 30
0.0
 10
-55.3768
 20
0.9452
 30
0.0
 10
-55.3768
 20
0.9452
 30
0.0
 10
-55.3768
 20
1.2389
 30
0.0
 10
-55.2915
 20
1.4755
 30
0.0
 10
-55.1207
 20
1.6549
 30
0.0
 10
-55.1207
 20
1.6549
 30
0.0
 10
-54.9499
 20
1.8335
 30
0.0
 10
-54.7424
 20
1.9228
 30
0.0
 10
-54.4972
 20
1.9228
 30
0.0
 10
-54.4972
 20
1.9228
 30
0.0
 10
-54.3413
 20
1.9228
 30
0.0
 10
-54.2058
 20
1.882
 30
0.0
 10
-54.0899
 20
1.8006
 30
0.0
 10
-54.0899
 20
1.8006
 30
0.0
 10
-53.9747
 20
1.7183
 30
0.0
 10
-53.8854
 20
1.5946
 30
0.0
 10
-53.8227
 20
1.4277
 30
0.0
 10
-53.8227
 20
1.4277
 30
0.0
 10
-53.7554
 20
1.6337
 30
0.0
 10
-53.6473
 20
1.7912
 30
0.0
 10
-53.4969
 20
1.8993
 30
0.0
 10
-53.4969
 20
1.8993
 30
0.0
 10
-53.3473
 20
2.0066
 30
0.0
 10
-53.1679
 20
2.0606
 30
0.0
 10
-52.9603
 20
2.0606
 30
0.0
 10
-52.9603
 20
2.0606
 30
0.0
 10
-52.6721
 20
2.0606
 30
0.0
 10
-52.4308
 20
1.9588
 30
0.0
 10
-52.235
 20
1.7559
 30
0.0
 10
-52.235
 20
1.7559
 30
0.0
 10
-52.0391
 20
1.5523
 30
0.0
 10
-51.9412
 20
1.2844
 30
0.0
 10
-51.9412
 20
0.9522
 30
0.0
 10
-51.9412
 20
0.9522
 30
0.0
 10
-51.9412
 20
0.6201
 30
0.0
 10
-52.0391
 20
0.353
 30
0.0
 10
-52.2357
 20
0.1493
 30
0.0
 10
-52.2357
 20
0.1493
 30
0.0
 10
-52.4324
 20
-0.0543
 30
0.0
 10
-52.6775
 20
-0.1562
 30
0.0
 10
-52.9713
 20
-0.1562
 30
0.0
 10
-52.9713
 20
-0.1562
 30
0.0
 10
-53.1898
 20
-0.1562
 30
0.0
 10
-53.3731
 20
-0.1005
 30
0.0
 10
-53.5212
 20
0.0107
 30
0.0
 10
-53.5212
 20
0.0107
 30
0.0
 10
-53.6684
 20
0.1211
 30
0.0
 10
-53.7695
 20
0.2794
 30
0.0
 10
-53.8227
 20
0.4846
 30
0.0
  0
SPLINE
  5
87
330
1F
100
AcDbEntity
  8
VRSTVA_1
 62
   250
100
AcDbSpline
210
0.0
220
0.0
230
1.0
 70
    11
 71
     3
 72
    36
 73
    32
 74
     0
 42
0.0000000001
 43
0.0000000001
 40
0.0
 40
0.0
 40
0.0
 40
0.0
 40
0.1111111111111111
 40
0.1111111111111111
 40
0.1111111111111111
 40
0.1111111111111111
 40
0.2222222222222222
 40
0.2222222222222222
 40
0.2222222222222222
 40
0.2222222222222222
 40
0.3333333333333333
 40
0.3333333333333333
 40
0.3333333333333333
 40
0.3333333333333333
 40
0.4444444444444444
 40
0.4444444444444444
 40
0.4444444444444444
 40
0.4444444444444444
 40
0.5555555555555556
 40
0.5555555555555556
 40
0.5555555555555556
 40
0.5555555555555556
 40
0.6666666666666666
 40
0.6666666666666666
 40
0.6666666666666666
 40
0.6666666666666666
 40
0.7777777777777778
 40
0.7777777777777778
 40
0.7777777777777778
 40
0.7777777777777778
 40
1.0
 40
1.0
 40
1.0
 40
1.0
 10
-54.523
 20
0.4016
 30
0.0
 10
-54.364
 20
0.4016
 30
0.0
 10
-54.234
 20
0.4533
 30
0.0
 10
-54.1329
 20
0.5551
 30
0.0
 10
-54.1329
 20
0.5551
 30
0.0
 10
-54.0319
 20
0.6577
 30
0.0
 10
-53.981
 20
0.7909
 30
0.0
 10
-53.981
 20
0.9546
 30
0.0
 10
-53.981
 20
0.9546
 30
0.0
 10
-53.981
 20
1.1136
 30
0.0
 10
-54.0311
 20
1.2444
 30
0.0
 10
-54.1314
 20
1.3462
 30
0.0
 10
-54.1314
 20
1.3462
 30
0.0
 10
-54.2316
 20
1.4481
 30
0.0
 10
-54.3546
 20
1.4982
 30
0.0
 10
-54.4995
 20
1.4982
 30
0.0
 10
-54.4995
 20
1.4982
 30
0.0
 10
-54.6515
 20
1.4982
 30
0.0
 10
-54.7784
 20
1.4465
 30
0.0
 10
-54.8818
 20
1.3415
 30
0.0
 10
-54.8818
 20
1.3415
 30
0.0
 10
-54.9852
 20
1.2366
 30
0.0
 10
-55.0369
 20
1.1066
 30
0.0
 10
-55.0369
 20
0.9499
 30
0.0
 10
-55.0369
 20
0.9499
 30
0.0
 10
-55.0369
 20
0.7924
 30
0.0
 10
-54.986
 20
0.6616
 30
0.0
 10
-54.8857
 20
0.5574
 30
0.0
 10
-54.8857
 20
0.5574
 30
0.0
 10
-54.7847
 20
0.4533
 30
0.0
 10
-54.6632
 20
0.4016
 30
0.0
 10
-54.523
 20
0.4016
 30
0.0
  0
SPLINE
  5
88
330
1F
100
AcDbEntity
  8
VRSTVA_1
 62
   250
100
AcDbSpline
210
0.0
220
0.0
230
1.0
 70
    11
 71
     3
 72
    40
 73
    36
 74
     0
 42
0.0000000001
 43
0.0000000001
 40
0.0
 40
0.0
 40
0.0
 40
0.0
 40
0.1
 40
0.1
 40
0.1
 40
0.1
 40
0.2
 40
0.2
 40
0.2
 40
0.2
 40
0.3
 40
0.3
 40
0.3
 40
0.3
 40
0.4
 40
0.4
 40
0.4
 40
0.4
 40
0.5
 40
0.5
 40
0.5
 40
0.5
 40
0.6
 40
0.6
 40
0.6
 40
0.6
 40
0.7
 40
0.7
 40
0.7
 40
0.7
 40
0.8
 40
0.8
 40
0.8
 40
0.8
 40
1.0
 40
1.0
 40
1.0
 40
1.0
 10
-52.9689
 20
0.2684
 30
0.0
 10
-52.8514
 20
0.2684
 30
0.0
 10
-52.7371
 20
0.2966
 30
0.0
 10
-52.6274
 20
0.3522
 30
0.0
 10
-52.6274
 20
0.3522
 30
0.0
 10
-52.517
 20
0.4078
 30
0.0
 10
-52.4316
 20
0.4909
 30
0.0
 10
-52.3713
 20
0.6013
 30
0.0
 10
-52.3713
 20
0.6013
 30
0.0
 10
-52.3109
 20
0.7118
 30
0.0
 10
-52.2804
 20
0.83
 30
0.0
 10
-52.2804
 20
0.9569
 30
0.0
 10
-52.2804
 20
0.9569
 30
0.0
 10
-52.2804
 20
1.1543
 30
0.0
 10
-52.3438
 20
1.3173
 30
0.0
 10
-52.4715
 20
1.4457
 30
0.0
 10
-52.4715
 20
1.4457
 30
0.0
 10
-52.5984
 20
1.5742
 30
0.0
 10
-52.7598
 20
1.6384
 30
0.0
 10
-52.9556
 20
1.6384
 30
0.0
 10
-52.9556
 20
1.6384
 30
0.0
 10
-53.1546
 20
1.6384
 30
0.0
 10
-53.3191
 20
1.5726
 30
0.0
 10
-53.4491
 20
1.4402
 30
0.0
 10
-53.4491
 20
1.4402
 30
0.0
 10
-53.5791
 20
1.3079
 30
0.0
 10
-53.6441
 20
1.1418
 30
0.0
 10
-53.6441
 20
0.9428
 30
0.0
 10
-53.6441
 20
0.9428
 30
0.0
 10
-53.6441
 20
0.7486
 30
0.0
 10
-53.5799
 20
0.588
 30
0.0
 10
-53.4515
 20
0.4603
 30
0.0
 10
-53.4515
 20
0.4603
 30
0.0
 10
-53.3222
 20
0.3326
 30
0.0
 10
-53.1616
 20
0.2684
 30
0.0
 10
-52.9689
 20
0.2684
 30
0.0
  0
SPLINE
  5
89
330
1F
100
AcDbEntity
  8
VRSTVA_1
 62
   250
100
AcDbSpline
210
0.0
220
0.0
230
1.0
 70
    11
 71
     3
 72
    52
 73
    48
 74
     0
 42
0.0000000001
 43
0.0000000001
 40
0.0
 40
0.0
 40
0.0
 40
0.0
 40
0.0769230769230769
 40
0.0769230769230769
 40
0.0769230769230769
 40
0.0769230769230769
 40
0.1538461538461539
 40
0.1538461538461539
 40
0.1538461538461539
 40
0.1538461538461539
 40
0.2307692307692308
 40
0.2307692307692308
 40
0.2307692307692308
 40
0.2307692307692308
 40
0.3076923076923077
 40
0.3076923076923077
 40
0.3076923076923077
 40
0.3076923076923077
 40
0.3846153846153846
 40
0.3846153846153846
 40
0.3846153846153846
 40
0.3846153846153846
 40
0.4615384615384616
 40
0.4615384615384616
 40
0.4615384615384616
 40
0.4615384615384616
 40
0.5384615384615384
 40
0.5384615384615384
 40
0.5384615384615384
 40
0.5384615384615384
 40
0.6153846153846154
 40
0.6153846153846154
 40
0.6153846153846154
 40
0.6153846153846154
 40
0.6923076923076923
 40
0.6923076923076923
 40
0.6923076923076923
 40
0.6923076923076923
 40
0.7692307692307693
 40
0.7692307692307693
 40
0.7692307692307693
 40
0.7692307692307693
 40
0.8461538461538461
 40
0.8461538461538461
 40
0.8461538461538461
 40
0.8461538461538461
 40
1.0
 40
1.0
 40
1.0
 40
1.0
 10
-53.6575
 20
2.4624
 30
0.0
 10
-54.0554
 20
2.4624
 30
0.0
 10
-54.3758
 20
2.5032
 30
0.0
 10
-54.6178
 20
2.5854
 30
0.0
 10
-54.6178
 20
2.5854
 30
0.0
 10
-54.8606
 20
2.6669
 30
0.0
 10
-55.0479
 20
2.7891
 30
0.0
 10
-55.1794
 20
2.9505
 30
0.0
 10
-55.1794
 20
2.9505
 30
0.0
 10
-55.311
 20
3.1118
 30
0.0
 10
-55.3768
 20
3.3147
 30
0.0
 10
-55.3768
 20
3.5591
 30
0.0
 10
-55.3768
 20
3.5591
 30
0.0
 10
-55.3768
 20
3.74
 30
0.0
 10
-55.34
 20
3.8983
 30
0.0
 10
-55.2672
 20
4.0346
 30
0.0
 10
-55.2672
 20
4.0346
 30
0.0
 10
-55.1951
 20
4.1709
 30
0.0
 10
-55.0902
 20
4.2829
 30
0.0
 10
-54.9531
 20
4.3722
 30
0.0
 10
-54.9531
 20
4.3722
 30
0.0
 10
-54.816
 20
4.4607
 30
0.0
 10
-54.6491
 20
4.5304
 30
0.0
 10
-54.4525
 20
4.5805
 30
0.0
 10
-54.4525
 20
4.5805
 30
0.0
 10
-54.2559
 20
4.6314
 30
0.0
 10
-53.9912
 20
4.6565
 30
0.0
 10
-53.6575
 20
4.6565
 30
0.0
 10
-53.6575
 20
4.6565
 30
0.0
 10
-53.2627
 20
4.6565
 30
0.0
 10
-52.9446
 20
4.6158
 30
0.0
 10
-52.7018
 20
4.5351
 30
0.0
 10
-52.7018
 20
4.5351
 30
0.0
 10
-52.459
 20
4.4536
 30
0.0
 10
-52.2718
 20
4.3322
 30
0.0
 10
-52.1394
 20
4.1709
 30
0.0
 10
-52.1394
 20
4.1709
 30
0.0
 10
-52.007
 20
4.0095
 30
0.0
 10
-51.9412
 20
3.8058
 30
0.0
 10
-51.9412
 20
3.5591
 30
0.0
 10
-51.9412
 20
3.5591
 30
0.0
 10
-51.9412
 20
3.2348
 30
0.0
 10
-52.0571
 20
2.9802
 30
0.0
 10
-52.2898
 20
2.7954
 30
0.0
 10
-52.2898
 20
2.7954
 30
0.0
 10
-52.5694
 20
2.5737
 30
0.0
 10
-53.0261
 20
2.4624
 30
0.0
 10
-53.6575
 20
2.4624
 30
0.0
  0
SPLINE
  5
8A
330
1F
100
AcDbEntity
  8
VRSTVA_1
 62
   250
100
AcDbSpline
210
0.0
220
0.0
230
1.0
 70
    11
 71
     3
 72
    36
 73
    32
 74
     0
 42
0.0000000001
 43
0.0000000001
 40
0.0
 40
0.0
 40
0.0
 40
0.0
 40
0.1111111111111111
 40
0.1111111111111111
 40
0.1111111111111111
 40
0.1111111111111111
 40
0.2222222222222222
 40
0.2222222222222222
 40
0.2222222222222222
 40
0.2222222222222222
 40
0.3333333333333333
 40
0.3333333333333333
 40
0.3333333333333333
 40
0.3333333333333333
 40
0.4444444444444444
 40
0.4444444444444444
 40
0.4444444444444444
 40
0.4444444444444444
 40
0.5555555555555556
 40
0.5555555555555556
 40
0.5555555555555556
 40
0.5555555555555556
 40
0.6666666666666666
 40
0.6666666666666666
 40
0.6666666666666666
 40
0.6666666666666666
 40
0.7777777777777778
 40
0.7777777777777778
 40
0.7777777777777778
 40
0.7777777777777778
 40
1.0
 40
1.0
 40
1.0
 40
1.0
 10
-53.6575
 20
2.887
 30
0.0
 10
-53.1052
 20
2.887
 30
0.0
 10
-52.7379
 20
2.952
 30
0.0
 10
-52.5546
 20
3.0813
 30
0.0
 10
-52.5546
 20
3.0813
 30
0.0
 10
-52.372
 20
3.2105
 30
0.0
 10
-52.2804
 20
3.3695
 30
0.0
 10
-52.2804
 20
3.5591
 30
0.0
 10
-52.2804
 20
3.5591
 30
0.0
 10
-52.2804
 20
3.7494
 30
0.0
 10
-52.3728
 20
3.9084
 30
0.0
 10
-52.5561
 20
4.0377
 30
0.0
 10
-52.5561
 20
4.0377
 30
0.0
 10
-52.7394
 20
4.1669
 30
0.0
 10
-53.1068
 20
4.232
 30
0.0
 10
-53.6575
 20
4.232
 30
0.0
 10
-53.6575
 20
4.232
 30
0.0
 10
-54.2113
 20
4.232
 30
0.0
 10
-54.5794
 20
4.1669
 30
0.0
 10
-54.7612
 20
4.0377
 30
0.0
 10
-54.7612
 20
4.0377
 30
0.0
 10
-54.9437
 20
3.9084
 30
0.0
 10
-55.0345
 20
3.7479
 30
0.0
 10
-55.0345
 20
3.5552
 30
0.0
 10
-55.0345
 20
3.5552
 30
0.0
 10
-55.0345
 20
3.3648
 30
0.0
 10
-54.9539
 20
3.2136
 30
0.0
 10
-54.7933
 20
3.1001
 30
0.0
 10
-54.7933
 20
3.1001
 30
0.0
 10
-54.5888
 20
2.9583
 30
0.0
 10
-54.2097
 20
2.887
 30
0.0
 10
-53.6575
 20
2.887
 30
0.0
  0
SPLINE
  5
8B
330
1F
100
AcDbEntity
  8
VRSTVA_1
 62
   250
100
AcDbSpline
210
0.0
220
0.0
230
1.0
 70
    11
 71
     3
 72
    20
 73
    16
 74
     0
 42
0.0000000001
 43
0.0000000001
 40
0.0
 40
0.0
 40
0.0
 40
0.0
 40
0.2
 40
0.2
 40
0.2
 40
0.2
 40
0.4
 40
0.4
 40
0.4
 40
0.4
 40
0.6
 40
0.6
 40
0.6
 40
0.6
 40
1.0
 40
1.0
 40
1.0
 40
1.0
 10
-53.0081
 20
6.3359
 30
0.0
 10
-53.0081
 20
6.3359
 30
0.0
 10
-53.4233
 20
6.3359
 30
0.0
 10
-53.4233
 20
6.3359
 30
0.0
 10
-53.4233
 20
6.3359
 30
0.0
 10
-53.4233
 20
6.3359
 30
0.0
 10
-53.4233
 20
7.6057
 30
0.0
 10
-53.4233
 20
7.6057
 30
0.0
 10
-53.4233
 20
7.6057
 30
0.0
 10
-53.4233
 20
7.6057
 30
0.0
 10
-53.0081
 20
7.6057
 30
0.0
 10
-53.0081
 20
7.6057
 30
0.0
 10
-53.0081
 20
7.6057
 30
0.0
 10
-53.0081
 20
7.6057
 30
0.0
 10
-53.0081
 20
6.3359
 30
0.0
 10
-53.0081
 20
6.3359
 30
0.0
  0
SPLINE
  5
8C
330
1F
100
AcDbEntity
  8
VRSTVA_1
 62
   250
100
AcDbSpline
210
0.0
220
0.0
230
1.0
 70
    11
 71
     3
 72
    40
 73
    36
 74
     0
 42
0.0000000001
 43
0.0000000001
 40
0.0
 40
0.0
 40
0.0
 40
0.0
 40
0.1
 40
0.1
 40
0.1
 40
0.1
 40
0.2
 40
0.2
 40
0.2
 40
0.2
 40
0.3
 40
0.3
 40
0.3
 40
0.3
 40
0.4
 40
0.4
 40
0.4
 40
0.4
 40
0.5
 40
0.5
 40
0.5
 40
0.5
 40
0.6
 40
0.6
 40
0.6
 40
0.6
 40
0.7
 40
0.7
 40
0.7
 40
0.7
 40
0.8
 40
0.8
 40
0.8
 40
0.8
 40
1.0
 40
1.0
 40
1.0
 40
1.0
 10
-51.9984
 20
10.8087
 30
0.0
 10
-51.9984
 20
10.8087
 30
0.0
 10
-51.9984
 20
10.3959
 30
0.0
 10
-51.9984
 20
10.3959
 30
0.0
 10
-51.9984
 20
10.3959
 30
0.0
 10
-51.9984
 20
10.3959
 30
0.0
 10
-54.6303
 20
10.3959
 30
0.0
 10
-54.6303
 20
10.3959
 30
0.0
 10
-54.6303
 20
10.3959
 30
0.0
 10
-54.5356
 20
10.2964
 30
0.0
 10
-54.4408
 20
10.1664
 30
0.0
 10
-54.346
 20
10.005
 30
0.0
 10
-54.346
 20
10.005
 30
0.0
 10
-54.2512
 20
9.8429
 30
0.0
 10
-54.1799
 20
9.698
 30
0.0
 10
-54.1329
 20
9.5695
 30
0.0
 10
-54.1329
 20
9.5695
 30
0.0
 10
-54.1329
 20
9.5695
 30
0.0
 10
-54.5316
 20
9.5695
 30
0.0
 10
-54.5316
 20
9.5695
 30
0.0
 10
-54.5316
 20
9.5695
 30
0.0
 10
-54.6405
 20
9.8006
 30
0.0
 10
-54.7721
 20
10.0027
 30
0.0
 10
-54.9264
 20
10.1758
 30
0.0
 10
-54.9264
 20
10.1758
 30
0.0
 10
-55.0815
 20
10.3481
 30
0.0
 10
-55.2311
 20
10.4711
 30
0.0
 10
-55.3768
 20
10.5432
 30
0.0
 10
-55.3768
 20
10.5432
 30
0.0
 10
-55.3768
 20
10.5432
 30
0.0
 10
-55.3768
 20
10.8087
 30
0.0
 10
-55.3768
 20
10.8087
 30
0.0
 10
-55.3768
 20
10.8087
 30
0.0
 10
-55.3768
 20
10.8087
 30
0.0
 10
-51.9984
 20
10.8087
 30
0.0
 10
-51.9984
 20
10.8087
 30
0.0
  0
SPLINE
  5
8D
330
1F
100
AcDbEntity
  8
VRSTVA_1
 62
   250
100
AcDbSpline
210
0.0
220
0.0
230
1.0
 70
    11
 71
     3
 72
    40
 73
    36
 74
     0
 42
0.0000000001
 43
0.0000000001
 40
0.0
 40
0.0
 40
0.0
 40
0.0
 40
0.1
 40
0.1
 40
0.1
 40
0.1
 40
0.2
 40
0.2
 40
0.2
 40
0.2
 40
0.3
 40
0.3
 40
0.3
 40
0.3
 40
0.4
 40
0.4
 40
0.4
 40
0.4
 40
0.5
 40
0.5
 40
0.5
 40
0.5
 40
0.6
 40
0.6
 40
0.6
 40
0.6
 40
0.7
 40
0.7
 40
0.7
 40
0.7
 40
0.8
 40
0.8
 40
0.8
 40
0.8
 40
1.0
 40
1.0
 40
1.0
 40
1.0
 10
-51.9984
 20
13.074
 30
0.0
 10
-51.9984
 20
13.074
 30
0.0
 10
-51.9984
 20
12.6612
 30
0.0
 10
-51.9984
 20
12.6612
 30
0.0
 10
-51.9984
 20
12.6612
 30
0.0
 10
-51.9984
 20
12.6612
 30
0.0
 10
-54.6303
 20
12.6612
 30
0.0
 10
-54.6303
 20
12.6612
 30
0.0
 10
-54.6303
 20
12.6612
 30
0.0
 10
-54.5356
 20
12.5617
 30
0.0
 10
-54.4408
 20
12.4317
 30
0.0
 10
-54.346
 20
12.2703
 30
0.0
 10
-54.346
 20
12.2703
 30
0.0
 10
-54.2512
 20
12.1082
 30
0.0
 10
-54.1799
 20
11.9633
 30
0.0
 10
-54.1329
 20
11.8348
 30
0.0
 10
-54.1329
 20
11.8348
 30
0.0
 10
-54.1329
 20
11.8348
 30
0.0
 10
-54.5316
 20
11.8348
 30
0.0
 10
-54.5316
 20
11.8348
 30
0.0
 10
-54.5316
 20
11.8348
 30
0.0
 10
-54.6405
 20
12.0659
 30
0.0
 10
-54.7721
 20
12.268
 30
0.0
 10
-54.9264
 20
12.4411
 30
0.0
 10
-54.9264
 20
12.4411
 30
0.0
 10
-55.0815
 20
12.6134
 30
0.0
 10
-55.2311
 20
12.7364
 30
0.0
 10
-55.3768
 20
12.8085
 30
0.0
 10
-55.3768
 20
12.8085
 30
0.0
 10
-55.3768
 20
12.8085
 30
0.0
 10
-55.3768
 20
13.074
 30
0.0
 10
-55.3768
 20
13.074
 30
0.0
 10
-55.3768
 20
13.074
 30
0.0
 10
-55.3768
 20
13.074
 30
0.0
 10
-51.9984
 20
13.074
 30
0.0
 10
-51.9984
 20
13.074
 30
0.0
  0
SPLINE
  5
8E
330
1F
100
AcDbEntity
  8
VRSTVA_1
 62
   250
100
AcDbSpline
210
0.0
220
0.0
230
1.0
 70
    11
 71
     3
 72
    52
 73
    48
 74
     0
 42
0.0000000001
 43
0.0000000001
 40
0.0
 40
0.0
 40
0.0
 40
0.0
 40
0.0769230769230769
 40
0.0769230769230769
 40
0.0769230769230769
 40
0.0769230769230769
 40
0.1538461538461539
 40
0.1538461538461539
 40
0.1538461538461539
 40
0.1538461538461539
 40
0.2307692307692308
 40
0.2307692307692308
 40
0.2307692307692308
 40
0.2307692307692308
 40
0.3076923076923077
 40
0.3076923076923077
 40
0.3076923076923077
 40
0.3076923076923077
 40
0.3846153846153846
 40
0.3846153846153846
 40
0.3846153846153846
 40
0.3846153846153846
 40
0.4615384615384616
 40
0.4615384615384616
 40
0.4615384615384616
 40
0.4615384615384616
 40
0.5384615384615384
 40
0.5384615384615384
 40
0.5384615384615384
 40
0.5384615384615384
 40
0.6153846153846154
 40
0.6153846153846154
 40
0.6153846153846154
 40
0.6153846153846154
 40
0.6923076923076923
 40
0.6923076923076923
 40
0.6923076923076923
 40
0.6923076923076923
 40
0.7692307692307693
 40
0.7692307692307693
 40
0.7692307692307693
 40
0.7692307692307693
 40
0.8461538461538461
 40
0.8461538461538461
 40
0.8461538461538461
 40
0.8461538461538461
 40
1.0
 40
1.0
 40
1.0
 40
1.0
 10
-53.6575
 20
14.1322
 30
0.0
 10
-54.0554
 20
14.1322
 30
0.0
 10
-54.3758
 20
14.173
 30
0.0
 10
-54.6178
 20
14.2552
 30
0.0
 10
-54.6178
 20
14.2552
 30
0.0
 10
-54.8606
 20
14.3367
 30
0.0
 10
-55.0479
 20
14.4589
 30
0.0
 10
-55.1794
 20
14.6203
 30
0.0
 10
-55.1794
 20
14.6203
 30
0.0
 10
-55.311
 20
14.7816
 30
0.0
 10
-55.3768
 20
14.9845
 30
0.0
 10
-55.3768
 20
15.2289
 30
0.0
 10
-55.3768
 20
15.2289
 30
0.0
 10
-55.3768
 20
15.4098
 30
0.0
 10
-55.34
 20
15.5681
 30
0.0
 10
-55.2672
 20
15.7044
 30
0.0
 10
-55.2672
 20
15.7044
 30
0.0
 10
-55.1951
 20
15.8407
 30
0.0
 10
-55.0902
 20
15.9527
 30
0.0
 10
-54.9531
 20
16.042
 30
0.0
 10
-54.9531
 20
16.042
 30
0.0
 10
-54.816
 20
16.1305
 30
0.0
 10
-54.6491
 20
16.2002
 30
0.0
 10
-54.4525
 20
16.2503
 30
0.0
 10
-54.4525
 20
16.2503
 30
0.0
 10
-54.2559
 20
16.3012
 30
0.0
 10
-53.9912
 20
16.3263
 30
0.0
 10
-53.6575
 20
16.3263
 30
0.0
 10
-53.6575
 20
16.3263
 30
0.0
 10
-53.2627
 20
16.3263
 30
0.0
 10
-52.9446
 20
16.2856
 30
0.0
 10
-52.7018
 20
16.2049
 30
0.0
 10
-52.7018
 20
16.2049
 30
0.0
 10
-52.459
 20
16.1234
 30
0.0
 10
-52.2718
 20
16.002
 30
0.0
 10
-52.1394
 20
15.8407
 30
0.0
 10
-52.1394
 20
15.8407
 30
0.0
 10
-52.007
 20
15.6793
 30
0.0
 10
-51.9412
 20
15.4756
 30
0.0
 10
-51.9412
 20
15.2289
 30
0.0
 10
-51.9412
 20
15.2289
 30
0.0
 10
-51.9412
 20
14.9046
 30
0.0
 10
-52.0571
 20
14.65
 30
0.0
 10
-52.2898
 20
14.4652
 30
0.0
 10
-52.2898
 20
14.4652
 30
0.0
 10
-52.5694
 20
14.2435
 30
0.0
 10
-53.0261
 20
14.1322
 30
0.0
 10
-53.6575
 20
14.1322
 30
0.0
  0
SPLINE
  5
8F
330
1F
100
AcDbEntity
  8
VRSTVA_1
 62
   250
100
AcDbSpline
210
0.0
220
0.0
230
1.0
 70
    11
 71
     3
 72
    36
 73
    32
 74
     0
 42
0.0000000001
 43
0.0000000001
 40
0.0
 40
0.0
 40
0.0
 40
0.0
 40
0.1111111111111111
 40
0.1111111111111111
 40
0.1111111111111111
 40
0.1111111111111111
 40
0.2222222222222222
 40
0.2222222222222222
 40
0.2222222222222222
 40
0.2222222222222222
 40
0.3333333333333333
 40
0.3333333333333333
 40
0.3333333333333333
 40
0.3333333333333333
 40
0.4444444444444444
 40
0.4444444444444444
 40
0.4444444444444444
 40
0.4444444444444444
 40
0.5555555555555556
 40
0.5555555555555556
 40
0.5555555555555556
 40
0.5555555555555556
 40
0.6666666666666666
 40
0.6666666666666666
 40
0.6666666666666666
 40
0.6666666666666666
 40
0.7777777777777778
 40
0.7777777777777778
 40
0.7777777777777778
 40
0.7777777777777778
 40
1.0
 40
1.0
 40
1.0
 40
1.0
 10
-53.6575
 20
14.5568
 30
0.0
 10
-53.1052
 20
14.5568
 30
0.0
 10
-52.7379
 20
14.6218
 30
0.0
 10
-52.5546
 20
14.7511
 30
0.0
 10
-52.5546
 20
14.7511
 30
0.0
 10
-52.372
 20
14.8803
 30
0.0
 10
-52.2804
 20
15.0393
 30
0.0
 10
-52.2804
 20
15.2289
 30
0.0
 10
-52.2804
 20
15.2289
 30
0.0
 10
-52.2804
 20
15.4192
 30
0.0
 10
-52.3728
 20
15.5782
 30
0.0
 10
-52.5561
 20
15.7075
 30
0.0
 10
-52.5561
 20
15.7075
 30
0.0
 10
-52.7394
 20
15.8367
 30
0.0
 10
-53.1068
 20
15.9018
 30
0.0
 10
-53.6575
 20
15.9018
 30
0.0
 10
-53.6575
 20
15.9018
 30
0.0
 10
-54.2113
 20
15.9018
 30
0.0
 10
-54.5794
 20
15.8367
 30
0.0
 10
-54.7612
 20
15.7075
 30
0.0
 10
-54.7612
 20
15.7075
 30
0.0
 10
-54.9437
 20
15.5782
 30
0.0
 10
-55.0345
 20
15.4177
 30
0.0
 10
-55.0345
 20
15.225
 30
0.0
 10
-55.0345
 20
15.225
 30
0.0
 10
-55.0345
 20
15.0346
 30
0.0
 10
-54.9539
 20
14.8834
 30
0.0
 10
-54.7933
 20
14.7699
 30
0.0
 10
-54.7933
 20
14.7699
 30
0.0
 10
-54.5888
 20
14.6281
 30
0.0
 10
-54.2097
 20
14.5568
 30
0.0
 10
-53.6575
 20
14.5568
 30
0.0
  0
SPLINE
  5
90
330
1F
100
AcDbEntity
  8
VRSTVA_1
 62
   250
100
AcDbSpline
210
0.0
220
0.0
230
1.0
 70
    24
 71
     3
 72
     8
 73
     4
 74
     0
 42
0.0000000001
 43
0.0000000001
 40
0.0
 40
0.0
 40
0.0
 40
0.0
 40
1.0
 40
1.0
 40
1.0
 40
1.0
 10
-30.4958
 20
15.4074
 30
0.0
 10
-30.4958
 20
15.4074
 30
0.0
 10
-30.4958
 20
-5.1628
 30
0.0
 10
-30.4958
 20
-5.1628
 30
0.0
  0
SPLINE
  5
91
330
1F
100
AcDbEntity
  8
VRSTVA_1
 62
   250
100
AcDbSpline
210
0.0
220
0.0
230
1.0
 70
    24
 71
     3
 72
     8
 73
     4
 74
     0
 42
0.0000000001
 43
0.0000000001
 40
0.0
 40
0.0
 40
0.0
 40
0.0
 40
1.0
 40
1.0
 40
1.0
 40
1.0
 10
-29.6218
 20
16.9211
 30
0.0
 10
-29.6218
 20
16.9211
 30
0.0
 10
-29.6218
 20
-6.6766
 30
0.0
 10
-29.6218
 20
-6.6766
 30
0.0
  0
SPLINE
  5
92
330
1F
100
AcDbEntity
  8
VRSTVA_1
 62
   250
100
AcDbSpline
210
0.0
220
0.0
230
1.0
 70
    24
 71
     3
 72
     8
 73
     4
 74
     0
 42
0.0000000001
 43
0.0000000001
 40
0.0
 40
0.0
 40
0.0
 40
0.0
 40
1.0
 40
1.0
 40
1.0
 40
1.0
 10
-28.3108
 20
15.4074
 30
0.0
 10
-28.3108
 20
15.4074
 30
0.0
 10
-28.3108
 20
-5.1628
 30
0.0
 10
-28.3108
 20
-5.1628
 30
0.0
  0
SPLINE
  5
93
330
1F
100
AcDbEntity
  8
VRSTVA_1
 62
   250
100
AcDbSpline
210
0.0
220
0.0
230
1.0
 70
    24
 71
     3
 72
     8
 73
     4
 74
     0
 42
0.0000000001
 43
0.0000000001
 40
0.0
 40
0.0
 40
0.0
 40
0.0
 40
1.0
 40
1.0
 40
1.0
 40
1.0
 10
-27.4368
 20
16.9211
 30
0.0
 10
-27.4368
 20
16.9211
 30
0.0
 10
-27.4368
 20
-6.6766
 30
0.0
 10
-27.4368
 20
-6.6766
 30
0.0
  0
SPLINE
  5
94
330
1F
100
AcDbEntity
  8
VRSTVA_1
 62
   250
100
AcDbSpline
210
0.0
220
0.0
230
1.0
 70
    24
 71
     3
 72
     8
 73
     4
 74
     0
 42
0.0000000001
 43
0.0000000001
 40
0.0
 40
0.0
 40
0.0
 40
0.0
 40
1.0
 40
1.0
 40
1.0
 40
1.0
 10
-26.1258
 20
15.4074
 30
0.0
 10
-26.1258
 20
15.4074
 30
0.0
 10
-26.1258
 20
-5.1628
 30
0.0
 10
-26.1258
 20
-5.1628
 30
0.0
  0
SPLINE
  5
95
330
1F
100
AcDbEntity
  8
VRSTVA_1
 62
   250
100
AcDbSpline
210
0.0
220
0.0
230
1.0
 70
    24
 71
     3
 72
     8
 73
     4
 74
     0
 42
0.0000000001
 43
0.0000000001
 40
0.0
 40
0.0
 40
0.0
 40
0.0
 40
1.0
 40
1.0
 40
1.0
 40
1.0
 10
-25.2519
 20
16.9211
 30
0.0
 10
-25.2519
 20
16.9211
 30
0.0
 10
-25.2519
 20
-6.6766
 30
0.0
 10
-25.2519
 20
-6.6766
 30
0.0
  0
SPLINE
  5
96
330
1F
100
AcDbEntity
  8
VRSTVA_1
 62
   250
100
AcDbSpline
210
0.0
220
0.0
230
1.0
 70
    24
 71
     3
 72
     8
 73
     4
 74
     0
 42
0.0000000001
 43
0.0000000001
 40
0.0
 40
0.0
 40
0.0
 40
0.0
 40
1.0
 40
1.0
 40
1.0
 40
1.0
 10
-23.9409
 20
15.4074
 30
0.0
 10
-23.9409
 20
15.4074
 30
0.0
 10
-23.9409
 20
-5.1628
 30
0.0
 10
-23.9409
 20
-5.1628
 30
0.0
  0
SPLINE
  5
97
330
1F
100
AcDbEntity
  8
VRSTVA_1
 62
   250
100
AcDbSpline
210
0.0
220
0.0
230
1.0
 70
    24
 71
     3
 72
     8
 73
     4
 74
     0
 42
0.0000000001
 43
0.0000000001
 40
0.0
 40
0.0
 40
0.0
 40
0.0
 40
1.0
 40
1.0
 40
1.0
 40
1.0
 10
-23.0669
 20
16.9211
 30
0.0
 10
-23.0669
 20
16.9211
 30
0.0
 10
-23.0669
 20
-6.6766
 30
0.0
 10
-23.0669
 20
-6.6766
 30
0.0
  0
SPLINE
  5
98
330
1F
100
AcDbEntity
  8
VRSTVA_1
 62
   250
100
AcDbSpline
210
0.0
220
0.0
230
1.0
 70
    24
 71
     3
 72
     8
 73
     4
 74
     0
 42
0.0000000001
 43
0.0000000001
 40
0.0
 40
0.0
 40
0.0
 40
0.0
 40
1.0
 40
1.0
 40
1.0
 40
1.0
 10
-21.7559
 20
15.4074
 30
0.0
 10
-21.7559
 20
15.4074
 30
0.0
 10
-21.7559
 20
-5.1628
 30
0.0
 10
-21.7559
 20
-5.1628
 30
0.0
  0
SPLINE
  5
99
330
1F
100
AcDbEntity
  8
VRSTVA_1
 62
   250
100
AcDbSpline
210
0.0
220
0.0
230
1.0
 70
    24
 71
     3
 72
     8
 73
     4
 74
     0
 42
0.0000000001
 43
0.0000000001
 40
0.0
 40
0.0
 40
0.0
 40
0.0
 40
1.0
 40
1.0
 40
1.0
 40
1.0
 10
-20.8819
 20
16.9211
 30
0.0
 10
-20.8819
 20
16.9211
 30
0.0
 10
-20.8819
 20
-6.6766
 30
0.0
 10
-20.8819
 20
-6.6766
 30
0.0
  0
SPLINE
  5
9A
330
1F
100
AcDbEntity
  8
VRSTVA_1
 62
   250
100
AcDbSpline
210
0.0
220
0.0
230
1.0
 70
    24
 71
     3
 72
     8
 73
     4
 74
     0
 42
0.0000000001
 43
0.0000000001
 40
0.0
 40
0.0
 40
0.0
 40
0.0
 40
1.0
 40
1.0
 40
1.0
 40
1.0
 10
-19.5709
 20
15.4074
 30
0.0
 10
-19.5709
 20
15.4074
 30
0.0
 10
-19.5709
 20
-5.1628
 30
0.0
 10
-19.5709
 20
-5.1628
 30
0.0
  0
SPLINE
  5
9B
330
1F
100
AcDbEntity
  8
VRSTVA_1
 62
   250
100
AcDbSpline
210
0.0
220
0.0
230
1.0
 70
    24
 71
     3
 72
     8
 73
     4
 74
     0
 42
0.0000000001
 43
0.0000000001
 40
0.0
 40
0.0
 40
0.0
 40
0.0
 40
1.0
 40
1.0
 40
1.0
 40
1.0
 10
-18.6969
 20
16.9211
 30
0.0
 10
-18.6969
 20
16.9211
 30
0.0
 10
-18.6969
 20
-6.6766
 30
0.0
 10
-18.6969
 20
-6.6766
 30
0.0
  0
SPLINE
  5
9C
330
1F
100
AcDbEntity
  8
VRSTVA_1
 62
   250
100
AcDbSpline
210
0.0
220
0.0
230
1.0
 70
    24
 71
     3
 72
     8
 73
     4
 74
     0
 42
0.0000000001
 43
0.0000000001
 40
0.0
 40
0.0
 40
0.0
 40
0.0
 40
1.0
 40
1.0
 40
1.0
 40
1.0
 10
-17.3859
 20
15.4074
 30
0.0
 10
-17.3859
 20
15.4074
 30
0.0
 10
-17.3859
 20
-5.1628
 30
0.0
 10
-17.3859
 20
-5.1628
 30
0.0
  0
SPLINE
  5
9D
330
1F
100
AcDbEntity
  8
VRSTVA_1
 62
   250
100
AcDbSpline
210
0.0
220
0.0
230
1.0
 70
    24
 71
     3
 72
     8
 73
     4
 74
     0
 42
0.0000000001
 43
0.0000000001
 40
0.0
 40
0.0
 40
0.0
 40
0.0
 40
1.0
 40
1.0
 40
1.0
 40
1.0
 10
-16.512
 20
16.9211
 30
0.0
 10
-16.512
 20
16.9211
 30
0.0
 10
-16.512
 20
-6.6766
 30
0.0
 10
-16.512
 20
-6.6766
 30
0.0
  0
SPLINE
  5
9E
330
1F
100
AcDbEntity
  8
VRSTVA_1
 62
   250
100
AcDbSpline
210
0.0
220
0.0
230
1.0
 70
     8
 71
     3
 72
   292
 73
   288
 74
     0
 42
0.0000000001
 43
0.0000000001
 40
0.0
 40
0.0
 40
0.0
 40
0.0
 40
0.0136986301369863
 40
0.0136986301369863
 40
0.0136986301369863
 40
0.0136986301369863
 40
0.0273972602739726
 40
0.0273972602739726
 40
0.0273972602739726
 40
0.0273972602739726
 40
0.0410958904109589
 40
0.0410958904109589
 40
0.0410958904109589
 40
0.0410958904109589
 40
0.0547945205479452
 40
0.0547945205479452
 40
0.0547945205479452
 40
0.0547945205479452
 40
0.0684931506849315
 40
0.0684931506849315
 40
0.0684931506849315
 40
0.0684931506849315
 40
0.0821917808219178
 40
0.0821917808219178
 40
0.0821917808219178
 40
0.0821917808219178
 40
0.0958904109589041
 40
0.0958904109589041
 40
0.0958904109589041
 40
0.0958904109589041
 40
0.1095890410958904
 40
0.1095890410958904
 40
0.1095890410958904
 40
0.1095890410958904
 40
0.1232876712328767
 40
0.1232876712328767
 40
0.1232876712328767
 40
0.1232876712328767
 40
0.136986301369863
 40
0.136986301369863
 40
0.136986301369863
 40
0.136986301369863
 40
0.1506849315068493
 40
0.1506849315068493
 40
0.1506849315068493
 40
0.1506849315068493
 40
0.1643835616438356
 40
0.1643835616438356
 40
0.1643835616438356
 40
0.1643835616438356
 40
0.1780821917808219
 40
0.1780821917808219
 40
0.1780821917808219
 40
0.1780821917808219
 40
0.1917808219178082
 40
0.1917808219178082
 40
0.1917808219178082
 40
0.1917808219178082
 40
0.2054794520547945
 40
0.2054794520547945
 40
0.2054794520547945
 40
0.2054794520547945
 40
0.2191780821917808
 40
0.2191780821917808
 40
0.2191780821917808
 40
0.2191780821917808
 40
0.2328767123287671
 40
0.2328767123287671
 40
0.2328767123287671
 40
0.2328767123287671
 40
0.2465753424657534
 40
0.2465753424657534
 40
0.2465753424657534
 40
0.2465753424657534
 40
0.2602739726027397
 40
0.2602739726027397
 40
0.2602739726027397
 40
0.2602739726027397
 40
0.273972602739726
 40
0.273972602739726
 40
0.273972602739726
 40
0.273972602739726
 40
0.2876712328767123
 40
0.2876712328767123
 40
0.2876712328767123
 40
0.2876712328767123
 40
0.3013698630136986
 40
0.3013698630136986
 40
0.3013698630136986
 40
0.3013698630136986
 40
0.3150684931506849
 40
0.3150684931506849
 40
0.3150684931506849
 40
0.3150684931506849
 40
0.3287671232876712
 40
0.3287671232876712
 40
0.3287671232876712
 40
0.3287671232876712
 40
0.3424657534246575
 40
0.3424657534246575
 40
0.3424657534246575
 40
0.3424657534246575
 40
0.3561643835616438
 40
0.3561643835616438
 40
0.3561643835616438
 40
0.3561643835616438
 40
0.3698630136986301
 40
0.3698630136986301
 40
0.3698630136986301
 40
0.3698630136986301
 40
0.3835616438356164
 40
0.3835616438356164
 40
0.3835616438356164
 40
0.3835616438356164
 40
0.3972602739726027
 40
0.3972602739726027
 40
0.3972602739726027
 40
0.3972602739726027
 40
0.410958904109589
 40
0.410958904109589
 40
0.410958904109589
 40
0.410958904109589
 40
0.4246575342465753
 40
0.4246575342465753
 40
0.4246575342465753
 40
0.4246575342465753
 40
0.4383561643835616
 40
0.4383561643835616
 40
0.4383561643835616
 40
0.4383561643835616
 40
0.4520547945205479
 40
0.4520547945205479
 40
0.4520547945205479
 40
0.4520547945205479
 40
0.4657534246575342
 40
0.4657534246575342
 40
0.4657534246575342
 40
0.4657534246575342
 40
0.4794520547945205
 40
0.4794520547945205
 40
0.4794520547945205
 40
0.4794520547945205
 40
0.4931506849315068
 40
0.4931506849315068
 40
0.4931506849315068
 40
0.4931506849315068
 40
0.5068493150684932
 40
0.5068493150684932
 40
0.5068493150684932
 40
0.5068493150684932
 40
0.5205479452054794
 40
0.5205479452054794
 40
0.5205479452054794
 40
0.5205479452054794
 40
0.5342465753424658
 40
0.5342465753424658
 40
0.5342465753424658
 40
0.5342465753424658
 40
0.547945205479452
 40
0.547945205479452
 40
0.547945205479452
 40
0.547945205479452
 40
0.5616438356164384
 40
0.5616438356164384
 40
0.5616438356164384
 40
0.5616438356164384
 40
0.5753424657534246
 40
0.5753424657534246
 40
0.5753424657534246
 40
0.5753424657534246
 40
0.589041095890411
 40
0.589041095890411
 40
0.589041095890411
 40
0.589041095890411
 40
0.6027397260273972
 40
0.6027397260273972
 40
0.6027397260273972
 40
0.6027397260273972
 40
0.6164383561643836
 40
0.6164383561643836
 40
0.6164383561643836
 40
0.6164383561643836
 40
0.6301369863013698
 40
0.6301369863013698
 40
0.6301369863013698
 40
0.6301369863013698
 40
0.6438356164383562
 40
0.6438356164383562
 40
0.6438356164383562
 40
0.6438356164383562
 40
0.6575342465753424
 40
0.6575342465753424
 40
0.6575342465753424
 40
0.6575342465753424
 40
0.6712328767123288
 40
0.6712328767123288
 40
0.6712328767123288
 40
0.6712328767123288
 40
0.684931506849315
 40
0.684931506849315
 40
0.684931506849315
 40
0.684931506849315
 40
0.6986301369863014
 40
0.6986301369863014
 40
0.6986301369863014
 40
0.6986301369863014
 40
0.7123287671232876
 40
0.7123287671232876
 40
0.7123287671232876
 40
0.7123287671232876
 40
0.726027397260274
 40
0.726027397260274
 40
0.726027397260274
 40
0.726027397260274
 40
0.7397260273972602
 40
0.7397260273972602
 40
0.7397260273972602
 40
0.7397260273972602
 40
0.7534246575342466
 40
0.7534246575342466
 40
0.7534246575342466
 40
0.7534246575342466
 40
0.7671232876712328
 40
0.7671232876712328
 40
0.7671232876712328
 40
0.7671232876712328
 40
0.7808219178082192
 40
0.7808219178082192
 40
0.7808219178082192
 40
0.7808219178082192
 40
0.7945205479452054
 40
0.7945205479452054
 40
0.7945205479452054
 40
0.7945205479452054
 40
0.8082191780821918
 40
0.8082191780821918
 40
0.8082191780821918
 40
0.8082191780821918
 40
0.821917808219178
 40
0.821917808219178
 40
0.821917808219178
 40
0.821917808219178
 40
0.8356164383561644
 40
0.8356164383561644
 40
0.8356164383561644
 40
0.8356164383561644
 40
0.8493150684931506
 40
0.8493150684931506
 40
0.8493150684931506
 40
0.8493150684931506
 40
0.863013698630137
 40
0.863013698630137
 40
0.863013698630137
 40
0.863013698630137
 40
0.8767123287671232
 40
0.8767123287671232
 40
0.8767123287671232
 40
0.8767123287671232
 40
0.8904109589041096
 40
0.8904109589041096
 40
0.8904109589041096
 40
0.8904109589041096
 40
0.9041095890410958
 40
0.9041095890410958
 40
0.9041095890410958
 40
0.9041095890410958
 40
0.9178082191780822
 40
0.9178082191780822
 40
0.9178082191780822
 40
0.9178082191780822
 40
0.9315068493150684
 40
0.9315068493150684
 40
0.9315068493150684
 40
0.9315068493150684
 40
0.9452054794520548
 40
0.9452054794520548
 40
0.9452054794520548
 40
0.9452054794520548
 40
0.958904109589041
 40
0.958904109589041
 40
0.958904109589041
 40
0.958904109589041
 40
0.9726027397260274
 40
0.9726027397260274
 40
0.9726027397260274
 40
0.9726027397260274
 40
1.0
 40
1.0
 40
1.0
 40
1.0
 10
-31.3692
 20
-6.6774
 30
0.0
 10
-31.3692
 20
-6.6774
 30
0.0
 10
-30.4966
 20
-5.1631
 30
0.0
 10
-30.4966
 20
-5.1631
 30
0.0
 10
-30.4966
 20
-5.1631
 30
0.0
 10
-30.4966
 20
-5.1631
 30
0.0
 10
-29.6301
 20
-6.6697
 30
0.0
 10
-29.6301
 20
-6.6697
 30
0.0
 10
-29.6301
 20
-6.6697
 30
0.0
 10
-29.6301
 20
-6.6697
 30
0.0
 10
-29.2089
 20
-6.6697
 30
0.0
 10
-29.2089
 20
-6.6697
 30
0.0
 10
-29.2089
 20
-6.6697
 30
0.0
 10
-29.2089
 20
-6.6697
 30
0.0
 10
-28.3241
 20
-5.1671
 30
0.0
 10
-28.3241
 20
-5.1671
 30
0.0
 10
-28.3241
 20
-5.1671
 30
0.0
 10
-28.3241
 20
-5.1671
 30
0.0
 10
-27.4534
 20
-6.6556
 30
0.0
 10
-27.4534
 20
-6.6556
 30
0.0
 10
-27.4534
 20
-6.6556
 30
0.0
 10
-27.4534
 20
-6.6556
 30
0.0
 10
-26.976
 20
-6.6556
 30
0.0
 10
-26.976
 20
-6.6556
 30
0.0
 10
-26.976
 20
-6.6556
 30
0.0
 10
-26.976
 20
-6.6556
 30
0.0
 10
-26.1053
 20
-5.2232
 30
0.0
 10
-26.1053
 20
-5.2232
 30
0.0
 10
-26.1053
 20
-5.2232
 30
0.0
 10
-26.1053
 20
-5.2232
 30
0.0
 10
-25.2627
 20
-6.6556
 30
0.0
 10
-25.2627
 20
-6.6556
 30
0.0
 10
-25.2627
 20
-6.6556
 30
0.0
 10
-25.2627
 20
-6.6556
 30
0.0
 10
-24.8273
 20
-6.6556
 30
0.0
 10
-24.8273
 20
-6.6556
 30
0.0
 10
-24.8273
 20
-6.6556
 30
0.0
 10
-24.8273
 20
-6.6556
 30
0.0
 10
-23.9427
 20
-5.195
 30
0.0
 10
-23.9427
 20
-5.195
 30
0.0
 10
-23.9427
 20
-5.195
 30
0.0
 10
-23.9427
 20
-5.195
 30
0.0
 10
-23.086
 20
-6.6556
 30
0.0
 10
-23.086
 20
-6.6556
 30
0.0
 10
-23.086
 20
-6.6556
 30
0.0
 10
-23.086
 20
-6.6556
 30
0.0
 10
-22.6365
 20
-6.6556
 30
0.0
 10
-22.6365
 20
-6.6556
 30
0.0
 10
-22.6365
 20
-6.6556
 30
0.0
 10
-22.6365
 20
-6.6556
 30
0.0
 10
-21.7519
 20
-5.1529
 30
0.0
 10
-21.7519
 20
-5.1529
 30
0.0
 10
-21.7519
 20
-5.1529
 30
0.0
 10
-21.7519
 20
-5.1529
 30
0.0
 10
-20.9092
 20
-6.6556
 30
0.0
 10
-20.9092
 20
-6.6556
 30
0.0
 10
-20.9092
 20
-6.6556
 30
0.0
 10
-20.9092
 20
-6.6556
 30
0.0
 10
-20.4881
 20
-6.6556
 30
0.0
 10
-20.4881
 20
-6.6556
 30
0.0
 10
-20.4881
 20
-6.6556
 30
0.0
 10
-20.4881
 20
-6.6556
 30
0.0
 10
-19.5768
 20
-5.1741
 30
0.0
 10
-19.5768
 20
-5.1741
 30
0.0
 10
-19.5768
 20
-5.1741
 30
0.0
 10
-19.5768
 20
-5.1741
 30
0.0
 10
-18.6943
 20
-6.6549
 30
0.0
 10
-18.6943
 20
-6.6549
 30
0.0
 10
-18.6943
 20
-6.6549
 30
0.0
 10
-18.6943
 20
-6.6549
 30
0.0
 10
-18.2583
 20
-6.6447
 30
0.0
 10
-18.2583
 20
-6.6447
 30
0.0
 10
-18.2583
 20
-6.6447
 30
0.0
 10
-18.2583
 20
-6.6447
 30
0.0
 10
-17.3962
 20
-5.1741
 30
0.0
 10
-17.3962
 20
-5.1741
 30
0.0
 10
-17.3962
 20
-5.1741
 30
0.0
 10
-17.3962
 20
-5.1741
 30
0.0
 10
-16.4935
 20
-6.6649
 30
0.0
 10
-16.4935
 20
-6.6649
 30
0.0
 10
-16.4935
 20
-6.6649
 30
0.0
 10
-16.4935
 20
-6.6649
 30
0.0
 10
-16.0878
 20
-6.6649
 30
0.0
 10
-16.0878
 20
-6.6649
 30
0.0
 10
-16.0878
 20
-6.6649
 30
0.0
 10
-16.0878
 20
-6.6649
 30
0.0
 10
-15.2077
 20
-5.1811
 30
0.0
 10
-15.2077
 20
-5.1811
 30
0.0
 10
-15.2077
 20
-5.1811
 30
0.0
 10
-15.2077
 20
-5.1811
 30
0.0
 10
-14.337
 20
-6.6416
 30
0.0
 10
-14.337
 20
-6.6416
 30
0.0
 10
-14.337
 20
-6.6416
 30
0.0
 10
-14.337
 20
-6.6416
 30
0.0
 10
-13.8736
 20
-6.6416
 30
0.0
 10
-13.8736
 20
-6.6416
 30
0.0
 10
-13.8736
 20
-6.6416
 30
0.0
 10
-13.8736
 20
-6.6416
 30
0.0
 10
-13.0451
 20
-5.1529
 30
0.0
 10
-13.0451
 20
-5.1529
 30
0.0
 10
-13.0451
 20
-5.1529
 30
0.0
 10
-13.0451
 20
-5.1529
 30
0.0
 10
-12.1604
 20
-6.6697
 30
0.0
 10
-12.1604
 20
-6.6697
 30
0.0
 10
-12.1604
 20
-6.6697
 30
0.0
 10
-12.1604
 20
-6.6697
 30
0.0
 10
-11.7251
 20
-6.6556
 30
0.0
 10
-11.7251
 20
-6.6556
 30
0.0
 10
-11.7251
 20
-6.6556
 30
0.0
 10
-11.7251
 20
-6.6556
 30
0.0
 10
-10.8684
 20
-5.1389
 30
0.0
 10
-10.8684
 20
-5.1389
 30
0.0
 10
-10.8684
 20
-5.1389
 30
0.0
 10
-10.8684
 20
-5.1389
 30
0.0
 10
-9.9978
 20
-6.6416
 30
0.0
 10
-9.9978
 20
-6.6416
 30
0.0
 10
-9.9978
 20
-6.6416
 30
0.0
 10
-9.9978
 20
-6.6416
 30
0.0
 10
-9.5062
 20
-6.6276
 30
0.0
 10
-9.5062
 20
-6.6276
 30
0.0
 10
-9.5062
 20
-6.6276
 30
0.0
 10
-9.5062
 20
-6.6276
 30
0.0
 10
-8.6355
 20
-5.1529
 30
0.0
 10
-8.6355
 20
-5.1529
 30
0.0
 10
-8.6355
 20
-5.1529
 30
0.0
 10
-8.6355
 20
-5.1529
 30
0.0
 10
-7.7788
 20
-6.6416
 30
0.0
 10
-7.7788
 20
-6.6416
 30
0.0
 10
-7.7788
 20
-6.6416
 30
0.0
 10
-7.7788
 20
-6.6416
 30
0.0
 10
-7.3434
 20
-6.6356
 30
0.0
 10
-7.3434
 20
-6.6356
 30
0.0
 10
-7.3434
 20
-6.6356
 30
0.0
 10
-7.3434
 20
-6.6356
 30
0.0
 10
-6.4827
 20
-5.1934
 30
0.0
 10
-6.4827
 20
-5.1934
 30
0.0
 10
-6.4827
 20
-5.1934
 30
0.0
 10
-6.4827
 20
-5.1934
 30
0.0
 10
-5.6072
 20
-6.6504
 30
0.0
 10
-5.6072
 20
-6.6504
 30
0.0
 10
-5.6072
 20
-6.6504
 30
0.0
 10
-5.6072
 20
-6.6504
 30
0.0
 10
-5.1174
 20
-6.6504
 30
0.0
 10
-5.1174
 20
-6.6504
 30
0.0
 10
-5.1174
 20
-6.6504
 30
0.0
 10
-5.1174
 20
-6.6504
 30
0.0
 10
-4.2864
 20
-5.1488
 30
0.0
 10
-4.2864
 20
-5.1488
 30
0.0
 10
-4.2864
 20
-5.1488
 30
0.0
 10
-4.2864
 20
-5.1488
 30
0.0
 10
-3.4258
 20
-6.6356
 30
0.0
 10
-3.4258
 20
-6.6356
 30
0.0
 10
-3.4258
 20
-6.6356
 30
0.0
 10
-3.4258
 20
-6.6356
 30
0.0
 10
-2.9065
 20
-6.6356
 30
0.0
 10
-2.9065
 20
-6.6356
 30
0.0
 10
-2.9065
 20
-6.6356
 30
0.0
 10
-2.9065
 20
-6.6356
 30
0.0
 10
-2.0755
 20
-5.1189
 30
0.0
 10
-2.0755
 20
-5.1189
 30
0.0
 10
-2.0755
 20
-5.1189
 30
0.0
 10
-2.0755
 20
-5.1189
 30
0.0
 10
-1.1852
 20
-6.6654
 30
0.0
 10
-1.1852
 20
-6.6654
 30
0.0
 10
-1.1852
 20
-6.6654
 30
0.0
 10
-1.1852
 20
-6.6654
 30
0.0
 10
-0.7847
 20
-6.6654
 30
0.0
 10
-0.7847
 20
-6.6654
 30
0.0
 10
-0.7847
 20
-6.6654
 30
0.0
 10
-0.7847
 20
-6.6654
 30
0.0
 10
0.1056
 20
-5.1041
 30
0.0
 10
0.1056
 20
-5.1041
 30
0.0
 10
0.1056
 20
-5.1041
 30
0.0
 10
0.1056
 20
-5.1041
 30
0.0
 10
0.9959
 20
-6.6654
 30
0.0
 10
0.9959
 20
-6.6654
 30
0.0
 10
0.9959
 20
-6.6654
 30
0.0
 10
0.9959
 20
-6.6654
 30
0.0
 10
1.4561
 20
-6.6654
 30
0.0
 10
1.4561
 20
-6.6654
 30
0.0
 10
1.4561
 20
-6.6654
 30
0.0
 10
1.4561
 20
-6.6654
 30
0.0
 10
2.3019
 20
-5.1934
 30
0.0
 10
2.3019
 20
-5.1934
 30
0.0
 10
2.3019
 20
-5.1934
 30
0.0
 10
2.3019
 20
-5.1934
 30
0.0
 10
3.1626
 20
-6.6356
 30
0.0
 10
3.1626
 20
-6.6356
 30
0.0
 10
3.1626
 20
-6.6356
 30
0.0
 10
3.1626
 20
-6.6356
 30
0.0
 10
3.6226
 20
-6.6356
 30
0.0
 10
3.6226
 20
-6.6356
 30
0.0
 10
3.6226
 20
-6.6356
 30
0.0
 10
3.6226
 20
-6.6356
 30
0.0
 10
4.5277
 20
-5.1488
 30
0.0
 10
4.5277
 20
-5.1488
 30
0.0
 10
4.5277
 20
-5.1488
 30
0.0
 10
4.5277
 20
-5.1488
 30
0.0
 10
5.3587
 20
-6.6504
 30
0.0
 10
5.3587
 20
-6.6504
 30
0.0
 10
5.3587
 20
-6.6504
 30
0.0
 10
5.3587
 20
-6.6504
 30
0.0
 10
5.8187
 20
-6.6504
 30
0.0
 10
5.8187
 20
-6.6504
 30
0.0
 10
5.8187
 20
-6.6504
 30
0.0
 10
5.8187
 20
-6.6504
 30
0.0
 10
6.6942
 20
-5.1934
 30
0.0
 10
6.6942
 20
-5.1934
 30
0.0
 10
6.6942
 20
-5.1934
 30
0.0
 10
6.6942
 20
-5.1934
 30
0.0
 10
7.5548
 20
-6.6654
 30
0.0
 10
7.5548
 20
-6.6654
 30
0.0
 10
7.5548
 20
-6.6654
 30
0.0
 10
7.5548
 20
-6.6654
 30
0.0
 10
8.0296
 20
-6.6654
 30
0.0
 10
8.0296
 20
-6.6654
 30
0.0
 10
8.0296
 20
-6.6654
 30
0.0
 10
8.0296
 20
-6.6654
 30
0.0
 10
8.9051
 20
-5.1636
 30
0.0
 10
8.9051
 20
-5.1636
 30
0.0
 10
8.9051
 20
-5.1636
 30
0.0
 10
8.9051
 20
-5.1636
 30
0.0
 10
9.7509
 20
-6.695
 30
0.0
 10
9.7509
 20
-6.695
 30
0.0
 10
9.7509
 20
-6.695
 30
0.0
 10
9.7509
 20
-6.695
 30
0.0
 10
10.1813
 20
-6.6802
 30
0.0
 10
10.1813
 20
-6.6802
 30
0.0
 10
10.1813
 20
-6.6802
 30
0.0
 10
10.1813
 20
-6.6802
 30
0.0
 10
11.0121
 20
-5.1786
 30
0.0
 10
11.0121
 20
-5.1786
 30
0.0
 10
11.0121
 20
-5.1786
 30
0.0
 10
11.0121
 20
-5.1786
 30
0.0
 10
11.9174
 20
-6.6504
 30
0.0
 10
11.9174
 20
-6.6504
 30
0.0
 10
11.9174
 20
-6.6504
 30
0.0
 10
11.9174
 20
-6.6504
 30
0.0
 10
12.3477
 20
-6.6504
 30
0.0
 10
12.3477
 20
-6.6504
 30
0.0
 10
12.3477
 20
-6.6504
 30
0.0
 10
12.3477
 20
-6.6504
 30
0.0
 10
13.2232
 20
-5.1338
 30
0.0
 10
13.2232
 20
-5.1338
 30
0.0
 10
13.2232
 20
-5.1338
 30
0.0
 10
13.2232
 20
-5.1338
 30
0.0
 10
14.0795
 20
-6.6696
 30
0.0
 10
14.0795
 20
-6.6696
 30
0.0
 10
14.0795
 20
-6.6696
 30
0.0
 10
14.0795
 20
-6.6696
 30
0.0
 10
14.5247
 20
-6.6696
 30
0.0
 10
14.5247
 20
-6.6696
 30
0.0
 10
14.5247
 20
-6.6696
 30
0.0
 10
14.5247
 20
-6.6696
 30
0.0
 10
15.3727
 20
-5.1189
 30
0.0
 10
15.3727
 20
-5.1189
 30
0.0
 10
15.3727
 20
-5.1189
 30
0.0
 10
15.3727
 20
-5.1189
 30
0.0
 10
16.2418
 20
-6.6696
 30
0.0
 10
16.2418
 20
-6.6696
 30
0.0
 10
16.2418
 20
-6.6696
 30
0.0
 10
16.2418
 20
-6.6696
 30
0.0
 10
16.7081
 20
-6.6696
 30
0.0
 10
16.7081
 20
-6.6696
 30
0.0
 10
16.7081
 20
-6.6696
 30
0.0
 10
16.7081
 20
-6.6696
 30
0.0
 10
17.5773
 20
-5.2039
 30
0.0
 10
17.5773
 20
-5.2039
 30
0.0
 10
17.5773
 20
-5.2039
 30
0.0
 10
17.5773
 20
-5.2039
 30
0.0
 10
18.4465
 20
-6.6909
 30
0.0
 10
18.4465
 20
-6.6909
 30
0.0
 10
18.4465
 20
-6.6909
 30
0.0
 10
18.4465
 20
-6.6909
 30
0.0
 10
18.8703
 20
-6.6909
 30
0.0
 10
18.8703
 20
-6.6909
 30
0.0
 10
18.8703
 20
-6.6909
 30
0.0
 10
18.8703
 20
-6.6909
 30
0.0
 10
19.7819
 20
-5.1189
 30
0.0
 10
19.7819
 20
-5.1189
 30
0.0
 10
19.7819
 20
-5.1189
 30
0.0
 10
19.7819
 20
-5.1189
 30
0.0
 10
20.6297
 20
-6.6909
 30
0.0
 10
20.6297
 20
-6.6909
 30
0.0
 10
20.6297
 20
-6.6909
 30
0.0
 10
20.6297
 20
-6.6909
 30
0.0
 10
20.8561
 20
-6.6909
 30
0.0
 10
20.8561
 20
-6.6909
 30
0.0
  0
SPLINE
  5
9F
330
1F
100
AcDbEntity
  8
VRSTVA_1
 62
   250
100
AcDbSpline
210
0.0
220
0.0
230
1.0
 70
    24
 71
     3
 72
     8
 73
     4
 74
     0
 42
0.0000000001
 43
0.0000000001
 40
0.0
 40
0.0
 40
0.0
 40
0.0
 40
1.0
 40
1.0
 40
1.0
 40
1.0
 10
-15.201
 20
15.4074
 30
0.0
 10
-15.201
 20
15.4074
 30
0.0
 10
-15.201
 20
-5.1628
 30
0.0
 10
-15.201
 20
-5.1628
 30
0.0
  0
SPLINE
  5
A0
330
1F
100
AcDbEntity
  8
VRSTVA_1
 62
   250
100
AcDbSpline
210
0.0
220
0.0
230
1.0
 70
    24
 71
     3
 72
     8
 73
     4
 74
     0
 42
0.0000000001
 43
0.0000000001
 40
0.0
 40
0.0
 40
0.0
 40
0.0
 40
1.0
 40
1.0
 40
1.0
 40
1.0
 10
-14.327
 20
16.9211
 30
0.0
 10
-14.327
 20
16.9211
 30
0.0
 10
-14.327
 20
-6.6766
 30
0.0
 10
-14.327
 20
-6.6766
 30
0.0
  0
SPLINE
  5
A1
330
1F
100
AcDbEntity
  8
VRSTVA_1
 62
   250
100
AcDbSpline
210
0.0
220
0.0
230
1.0
 70
    24
 71
     3
 72
     8
 73
     4
 74
     0
 42
0.0000000001
 43
0.0000000001
 40
0.0
 40
0.0
 40
0.0
 40
0.0
 40
1.0
 40
1.0
 40
1.0
 40
1.0
 10
-13.016
 20
15.4074
 30
0.0
 10
-13.016
 20
15.4074
 30
0.0
 10
-13.016
 20
-5.1628
 30
0.0
 10
-13.016
 20
-5.1628
 30
0.0
  0
SPLINE
  5
A2
330
1F
100
AcDbEntity
  8
VRSTVA_1
 62
   250
100
AcDbSpline
210
0.0
220
0.0
230
1.0
 70
    24
 71
     3
 72
     8
 73
     4
 74
     0
 42
0.0000000001
 43
0.0000000001
 40
0.0
 40
0.0
 40
0.0
 40
0.0
 40
1.0
 40
1.0
 40
1.0
 40
1.0
 10
-12.142
 20
16.9211
 30
0.0
 10
-12.142
 20
16.9211
 30
0.0
 10
-12.142
 20
-6.6766
 30
0.0
 10
-12.142
 20
-6.6766
 30
0.0
  0
SPLINE
  5
A3
330
1F
100
AcDbEntity
  8
VRSTVA_1
 62
   250
100
AcDbSpline
210
0.0
220
0.0
230
1.0
 70
    24
 71
     3
 72
     8
 73
     4
 74
     0
 42
0.0000000001
 43
0.0000000001
 40
0.0
 40
0.0
 40
0.0
 40
0.0
 40
1.0
 40
1.0
 40
1.0
 40
1.0
 10
-10.831
 20
15.4074
 30
0.0
 10
-10.831
 20
15.4074
 30
0.0
 10
-10.831
 20
-5.1628
 30
0.0
 10
-10.831
 20
-5.1628
 30
0.0
  0
SPLINE
  5
A4
330
1F
100
AcDbEntity
  8
VRSTVA_1
 62
   250
100
AcDbSpline
210
0.0
220
0.0
230
1.0
 70
    24
 71
     3
 72
     8
 73
     4
 74
     0
 42
0.0000000001
 43
0.0000000001
 40
0.0
 40
0.0
 40
0.0
 40
0.0
 40
1.0
 40
1.0
 40
1.0
 40
1.0
 10
-9.957
 20
16.9211
 30
0.0
 10
-9.957
 20
16.9211
 30
0.0
 10
-9.957
 20
-6.6766
 30
0.0
 10
-9.957
 20
-6.6766
 30
0.0
  0
SPLINE
  5
A5
330
1F
100
AcDbEntity
  8
VRSTVA_1
 62
   250
100
AcDbSpline
210
0.0
220
0.0
230
1.0
 70
    24
 71
     3
 72
     8
 73
     4
 74
     0
 42
0.0000000001
 43
0.0000000001
 40
0.0
 40
0.0
 40
0.0
 40
0.0
 40
1.0
 40
1.0
 40
1.0
 40
1.0
 10
-8.646
 20
15.4074
 30
0.0
 10
-8.646
 20
15.4074
 30
0.0
 10
-8.646
 20
-5.1628
 30
0.0
 10
-8.646
 20
-5.1628
 30
0.0
  0
SPLINE
  5
A6
330
1F
100
AcDbEntity
  8
VRSTVA_1
 62
   250
100
AcDbSpline
210
0.0
220
0.0
230
1.0
 70
    24
 71
     3
 72
     8
 73
     4
 74
     0
 42
0.0000000001
 43
0.0000000001
 40
0.0
 40
0.0
 40
0.0
 40
0.0
 40
1.0
 40
1.0
 40
1.0
 40
1.0
 10
-7.772
 20
16.9211
 30
0.0
 10
-7.772
 20
16.9211
 30
0.0
 10
-7.772
 20
-6.6766
 30
0.0
 10
-7.772
 20
-6.6766
 30
0.0
  0
SPLINE
  5
A7
330
1F
100
AcDbEntity
  8
VRSTVA_1
 62
   250
100
AcDbSpline
210
0.0
220
0.0
230
1.0
 70
    24
 71
     3
 72
     8
 73
     4
 74
     0
 42
0.0000000001
 43
0.0000000001
 40
0.0
 40
0.0
 40
0.0
 40
0.0
 40
1.0
 40
1.0
 40
1.0
 40
1.0
 10
-6.461
 20
15.4074
 30
0.0
 10
-6.461
 20
15.4074
 30
0.0
 10
-6.461
 20
-5.1628
 30
0.0
 10
-6.461
 20
-5.1628
 30
0.0
  0
SPLINE
  5
A8
330
1F
100
AcDbEntity
  8
VRSTVA_1
 62
   250
100
AcDbSpline
210
0.0
220
0.0
230
1.0
 70
    24
 71
     3
 72
     8
 73
     4
 74
     0
 42
0.0000000001
 43
0.0000000001
 40
0.0
 40
0.0
 40
0.0
 40
0.0
 40
1.0
 40
1.0
 40
1.0
 40
1.0
 10
-5.5871
 20
16.9211
 30
0.0
 10
-5.5871
 20
16.9211
 30
0.0
 10
-5.5871
 20
-6.6766
 30
0.0
 10
-5.5871
 20
-6.6766
 30
0.0
  0
SPLINE
  5
A9
330
1F
100
AcDbEntity
  8
VRSTVA_1
 62
   250
100
AcDbSpline
210
0.0
220
0.0
230
1.0
 70
    24
 71
     3
 72
     8
 73
     4
 74
     0
 42
0.0000000001
 43
0.0000000001
 40
0.0
 40
0.0
 40
0.0
 40
0.0
 40
1.0
 40
1.0
 40
1.0
 40
1.0
 10
-4.2761
 20
15.4074
 30
0.0
 10
-4.2761
 20
15.4074
 30
0.0
 10
-4.2761
 20
-5.1628
 30
0.0
 10
-4.2761
 20
-5.1628
 30
0.0
  0
SPLINE
  5
AA
330
1F
100
AcDbEntity
  8
VRSTVA_1
 62
   250
100
AcDbSpline
210
0.0
220
0.0
230
1.0
 70
    24
 71
     3
 72
     8
 73
     4
 74
     0
 42
0.0000000001
 43
0.0000000001
 40
0.0
 40
0.0
 40
0.0
 40
0.0
 40
1.0
 40
1.0
 40
1.0
 40
1.0
 10
-3.4021
 20
16.9211
 30
0.0
 10
-3.4021
 20
16.9211
 30
0.0
 10
-3.4021
 20
-6.6766
 30
0.0
 10
-3.4021
 20
-6.6766
 30
0.0
  0
SPLINE
  5
AB
330
1F
100
AcDbEntity
  8
VRSTVA_1
 62
   250
100
AcDbSpline
210
0.0
220
0.0
230
1.0
 70
    24
 71
     3
 72
     8
 73
     4
 74
     0
 42
0.0000000001
 43
0.0000000001
 40
0.0
 40
0.0
 40
0.0
 40
0.0
 40
1.0
 40
1.0
 40
1.0
 40
1.0
 10
29.3476
 20
-4.8194
 30
0.0
 10
29.3476
 20
-4.8194
 30
0.0
 10
30.7679
 20
-4.8194
 30
0.0
 10
30.7679
 20
-4.8194
 30
0.0
  0
SPLINE
  5
AC
330
1F
100
AcDbEntity
  8
VRSTVA_1
 62
   250
100
AcDbSpline
210
0.0
220
0.0
230
1.0
 70
    24
 71
     3
 72
     8
 73
     4
 74
     0
 42
0.0000000001
 43
0.0000000001
 40
0.0
 40
0.0
 40
0.0
 40
0.0
 40
1.0
 40
1.0
 40
1.0
 40
1.0
 10
31.0519
 20
-4.8194
 30
0.0
 10
31.0519
 20
-4.8194
 30
0.0
 10
32.4722
 20
-4.8194
 30
0.0
 10
32.4722
 20
-4.8194
 30
0.0
  0
SPLINE
  5
AD
330
1F
100
AcDbEntity
  8
VRSTVA_1
 62
   250
100
AcDbSpline
210
0.0
220
0.0
230
1.0
 70
    24
 71
     3
 72
     8
 73
     4
 74
     0
 42
0.0000000001
 43
0.0000000001
 40
0.0
 40
0.0
 40
0.0
 40
0.0
 40
1.0
 40
1.0
 40
1.0
 40
1.0
 10
32.7562
 20
-4.8194
 30
0.0
 10
32.7562
 20
-4.8194
 30
0.0
 10
34.1764
 20
-4.8194
 30
0.0
 10
34.1764
 20
-4.8194
 30
0.0
  0
SPLINE
  5
AE
330
1F
100
AcDbEntity
  8
VRSTVA_1
 62
   250
100
AcDbSpline
210
0.0
220
0.0
230
1.0
 70
    24
 71
     3
 72
     8
 73
     4
 74
     0
 42
0.0000000001
 43
0.0000000001
 40
0.0
 40
0.0
 40
0.0
 40
0.0
 40
1.0
 40
1.0
 40
1.0
 40
1.0
 10
34.4605
 20
-4.2731
 30
0.0
 10
34.4605
 20
-4.2731
 30
0.0
 10
35.8807
 20
-4.2731
 30
0.0
 10
35.8807
 20
-4.2731
 30
0.0
  0
SPLINE
  5
AF
330
1F
100
AcDbEntity
  8
VRSTVA_1
 62
   250
100
AcDbSpline
210
0.0
220
0.0
230
1.0
 70
    24
 71
     3
 72
     8
 73
     4
 74
     0
 42
0.0000000001
 43
0.0000000001
 40
0.0
 40
0.0
 40
0.0
 40
0.0
 40
1.0
 40
1.0
 40
1.0
 40
1.0
 10
36.1648
 20
-4.2731
 30
0.0
 10
36.1648
 20
-4.2731
 30
0.0
 10
37.585
 20
-4.2731
 30
0.0
 10
37.585
 20
-4.2731
 30
0.0
  0
SPLINE
  5
B0
330
1F
100
AcDbEntity
  8
VRSTVA_1
 62
   250
100
AcDbSpline
210
0.0
220
0.0
230
1.0
 70
    24
 71
     3
 72
     8
 73
     4
 74
     0
 42
0.0000000001
 43
0.0000000001
 40
0.0
 40
0.0
 40
0.0
 40
0.0
 40
1.0
 40
1.0
 40
1.0
 40
1.0
 10
37.8691
 20
-4.2731
 30
0.0
 10
37.8691
 20
-4.2731
 30
0.0
 10
39.2893
 20
-4.2731
 30
0.0
 10
39.2893
 20
-4.2731
 30
0.0
  0
SPLINE
  5
B1
330
1F
100
AcDbEntity
  8
VRSTVA_1
 62
   250
100
AcDbSpline
210
0.0
220
0.0
230
1.0
 70
     8
 71
     3
 72
    16
 73
    12
 74
     0
 42
0.0000000001
 43
0.0000000001
 40
0.0
 40
0.0
 40
0.0
 40
0.0
 40
0.25
 40
0.25
 40
0.25
 40
0.25
 40
0.5
 40
0.5
 40
0.5
 40
0.5
 40
1.0
 40
1.0
 40
1.0
 40
1.0
 10
39.5262
 20
-3.9452
 30
0.0
 10
39.5262
 20
-3.9452
 30
0.0
 10
40.0762
 20
-3.9452
 30
0.0
 10
40.0762
 20
-3.9452
 30
0.0
 10
40.0762
 20
-3.9452
 30
0.0
 10
40.0762
 20
-3.9452
 30
0.0
 10
40.0945
 20
14.2126
 30
0.0
 10
40.0945
 20
14.2126
 30
0.0
 10
40.0945
 20
14.2126
 30
0.0
 10
40.0945
 20
14.2126
 30
0.0
 10
39.5608
 20
14.2126
 30
0.0
 10
39.5608
 20
14.2126
 30
0.0
  0
SPLINE
  5
B2
330
1F
100
AcDbEntity
  8
VRSTVA_1
  6
NEW_LINE1
 62
   250
100
AcDbSpline
210
0.0
220
0.0
230
1.0
 70
    24
 71
     3
 72
     8
 73
     4
 74
     0
 42
0.0000000001
 43
0.0000000001
 40
0.0
 40
0.0
 40
0.0
 40
0.0
 40
1.0
 40
1.0
 40
1.0
 40
1.0
 10
41.118
 20
5.1222
 30
0.0
 10
41.118
 20
5.1222
 30
0.0
 10
-47.2663
 20
5.1222
 30
0.0
 10
-47.2663
 20
5.1222
 30
0.0
  0
SPLINE
  5
B4
330
1F
100
AcDbEntity
  8
VRSTVA_1
 62
   250
100
AcDbSpline
210
0.0
220
0.0
230
1.0
 70
    24
 71
     3
 72
     8
 73
     4
 74
     0
 42
0.0000000001
 43
0.0000000001
 40
0.0
 40
0.0
 40
0.0
 40
0.0
 40
1.0
 40
1.0
 40
1.0
 40
1.0
 10
-2.057
 20
15.4074
 30
0.0
 10
-2.057
 20
15.4074
 30
0.0
 10
-2.057
 20
-5.1628
 30
0.0
 10
-2.057
 20
-5.1628
 30
0.0
  0
SPLINE
  5
B5
330
1F
100
AcDbEntity
  8
VRSTVA_1
 62
   250
100
AcDbSpline
210
0.0
220
0.0
230
1.0
 70
    24
 71
     3
 72
     8
 73
     4
 74
     0
 42
0.0000000001
 43
0.0000000001
 40
0.0
 40
0.0
 40
0.0
 40
0.0
 40
1.0
 40
1.0
 40
1.0
 40
1.0
 10
-1.183
 20
16.9211
 30
0.0
 10
-1.183
 20
16.9211
 30
0.0
 10
-1.183
 20
-6.6766
 30
0.0
 10
-1.183
 20
-6.6766
 30
0.0
  0
SPLINE
  5
B6
330
1F
100
AcDbEntity
  8
VRSTVA_1
 62
   250
100
AcDbSpline
210
0.0
220
0.0
230
1.0
 70
    24
 71
     3
 72
     8
 73
     4
 74
     0
 42
0.0000000001
 43
0.0000000001
 40
0.0
 40
0.0
 40
0.0
 40
0.0
 40
1.0
 40
1.0
 40
1.0
 40
1.0
 10
0.128
 20
15.4074
 30
0.0
 10
0.128
 20
15.4074
 30
0.0
 10
0.128
 20
-5.1628
 30
0.0
 10
0.128
 20
-5.1628
 30
0.0
  0
SPLINE
  5
B7
330
1F
100
AcDbEntity
  8
VRSTVA_1
 62
   250
100
AcDbSpline
210
0.0
220
0.0
230
1.0
 70
    24
 71
     3
 72
     8
 73
     4
 74
     0
 42
0.0000000001
 43
0.0000000001
 40
0.0
 40
0.0
 40
0.0
 40
0.0
 40
1.0
 40
1.0
 40
1.0
 40
1.0
 10
1.0019
 20
16.9211
 30
0.0
 10
1.0019
 20
16.9211
 30
0.0
 10
1.0019
 20
-6.6766
 30
0.0
 10
1.0019
 20
-6.6766
 30
0.0
  0
SPLINE
  5
B8
330
1F
100
AcDbEntity
  8
VRSTVA_1
 62
   250
100
AcDbSpline
210
0.0
220
0.0
230
1.0
 70
    24
 71
     3
 72
     8
 73
     4
 74
     0
 42
0.0000000001
 43
0.0000000001
 40
0.0
 40
0.0
 40
0.0
 40
0.0
 40
1.0
 40
1.0
 40
1.0
 40
1.0
 10
2.3129
 20
15.4074
 30
0.0
 10
2.3129
 20
15.4074
 30
0.0
 10
2.3129
 20
-5.1628
 30
0.0
 10
2.3129
 20
-5.1628
 30
0.0
  0
SPLINE
  5
B9
330
1F
100
AcDbEntity
  8
VRSTVA_1
 62
   250
100
AcDbSpline
210
0.0
220
0.0
230
1.0
 70
    24
 71
     3
 72
     8
 73
     4
 74
     0
 42
0.0000000001
 43
0.0000000001
 40
0.0
 40
0.0
 40
0.0
 40
0.0
 40
1.0
 40
1.0
 40
1.0
 40
1.0
 10
34.4605
 20
14.5177
 30
0.0
 10
34.4605
 20
14.5177
 30
0.0
 10
35.8807
 20
14.5177
 30
0.0
 10
35.8807
 20
14.5177
 30
0.0
  0
SPLINE
  5
BA
330
1F
100
AcDbEntity
  8
VRSTVA_1
 62
   250
100
AcDbSpline
210
0.0
220
0.0
230
1.0
 70
    24
 71
     3
 72
     8
 73
     4
 74
     0
 42
0.0000000001
 43
0.0000000001
 40
0.0
 40
0.0
 40
0.0
 40
0.0
 40
1.0
 40
1.0
 40
1.0
 40
1.0
 10
36.1648
 20
14.5177
 30
0.0
 10
36.1648
 20
14.5177
 30
0.0
 10
37.585
 20
14.5177
 30
0.0
 10
37.585
 20
14.5177
 30
0.0
  0
SPLINE
  5
BB
330
1F
100
AcDbEntity
  8
VRSTVA_1
 62
   250
100
AcDbSpline
210
0.0
220
0.0
230
1.0
 70
    24
 71
     3
 72
     8
 73
     4
 74
     0
 42
0.0000000001
 43
0.0000000001
 40
0.0
 40
0.0
 40
0.0
 40
0.0
 40
1.0
 40
1.0
 40
1.0
 40
1.0
 10
37.8691
 20
14.5177
 30
0.0
 10
37.8691
 20
14.5177
 30
0.0
 10
39.2893
 20
14.5177
 30
0.0
 10
39.2893
 20
14.5177
 30
0.0
  0
SPLINE
  5
BC
330
1F
100
AcDbEntity
  8
VRSTVA_1
 62
   250
100
AcDbSpline
210
0.0
220
0.0
230
1.0
 70
    24
 71
     3
 72
     8
 73
     4
 74
     0
 42
0.0000000001
 43
0.0000000001
 40
0.0
 40
0.0
 40
0.0
 40
0.0
 40
1.0
 40
1.0
 40
1.0
 40
1.0
 10
29.3476
 20
15.0639
 30
0.0
 10
29.3476
 20
15.0639
 30
0.0
 10
30.7679
 20
15.0639
 30
0.0
 10
30.7679
 20
15.0639
 30
0.0
  0
SPLINE
  5
BD
330
1F
100
AcDbEntity
  8
VRSTVA_1
 62
   250
100
AcDbSpline
210
0.0
220
0.0
230
1.0
 70
    24
 71
     3
 72
     8
 73
     4
 74
     0
 42
0.0000000001
 43
0.0000000001
 40
0.0
 40
0.0
 40
0.0
 40
0.0
 40
1.0
 40
1.0
 40
1.0
 40
1.0
 10
31.0519
 20
15.0639
 30
0.0
 10
31.0519
 20
15.0639
 30
0.0
 10
32.4722
 20
15.0639
 30
0.0
 10
32.4722
 20
15.0639
 30
0.0
  0
SPLINE
  5
BE
330
1F
100
AcDbEntity
  8
VRSTVA_1
 62
   250
100
AcDbSpline
210
0.0
220
0.0
230
1.0
 70
    24
 71
     3
 72
     8
 73
     4
 74
     0
 42
0.0000000001
 43
0.0000000001
 40
0.0
 40
0.0
 40
0.0
 40
0.0
 40
1.0
 40
1.0
 40
1.0
 40
1.0
 10
32.7562
 20
15.0639
 30
0.0
 10
32.7562
 20
15.0639
 30
0.0
 10
34.1764
 20
15.0639
 30
0.0
 10
34.1764
 20
15.0639
 30
0.0
  0
SPLINE
  5
BF
330
1F
100
AcDbEntity
  8
VRSTVA_1
 62
   250
100
AcDbSpline
210
0.0
220
0.0
230
1.0
 70
    24
 71
     3
 72
     8
 73
     4
 74
     0
 42
0.0000000001
 43
0.0000000001
 40
0.0
 40
0.0
 40
0.0
 40
0.0
 40
1.0
 40
1.0
 40
1.0
 40
1.0
 10
3.1869
 20
16.9211
 30
0.0
 10
3.1869
 20
16.9211
 30
0.0
 10
3.1869
 20
-6.6766
 30
0.0
 10
3.1869
 20
-6.6766
 30
0.0
  0
SPLINE
  5
C0
330
1F
100
AcDbEntity
  8
VRSTVA_1
 62
   250
100
AcDbSpline
210
0.0
220
0.0
230
1.0
 70
    24
 71
     3
 72
     8
 73
     4
 74
     0
 42
0.0000000001
 43
0.0000000001
 40
0.0
 40
0.0
 40
0.0
 40
0.0
 40
1.0
 40
1.0
 40
1.0
 40
1.0
 10
4.4979
 20
15.4074
 30
0.0
 10
4.4979
 20
15.4074
 30
0.0
 10
4.4979
 20
-5.1628
 30
0.0
 10
4.4979
 20
-5.1628
 30
0.0
  0
SPLINE
  5
C1
330
1F
100
AcDbEntity
  8
VRSTVA_1
 62
   250
100
AcDbSpline
210
0.0
220
0.0
230
1.0
 70
    24
 71
     3
 72
     8
 73
     4
 74
     0
 42
0.0000000001
 43
0.0000000001
 40
0.0
 40
0.0
 40
0.0
 40
0.0
 40
1.0
 40
1.0
 40
1.0
 40
1.0
 10
5.3719
 20
16.9211
 30
0.0
 10
5.3719
 20
16.9211
 30
0.0
 10
5.3719
 20
-6.6766
 30
0.0
 10
5.3719
 20
-6.6766
 30
0.0
  0
SPLINE
  5
C2
330
1F
100
AcDbEntity
  8
VRSTVA_1
 62
   250
100
AcDbSpline
210
0.0
220
0.0
230
1.0
 70
    24
 71
     3
 72
     8
 73
     4
 74
     0
 42
0.0000000001
 43
0.0000000001
 40
0.0
 40
0.0
 40
0.0
 40
0.0
 40
1.0
 40
1.0
 40
1.0
 40
1.0
 10
6.6829
 20
15.4074
 30
0.0
 10
6.6829
 20
15.4074
 30
0.0
 10
6.6829
 20
-5.1628
 30
0.0
 10
6.6829
 20
-5.1628
 30
0.0
  0
SPLINE
  5
C3
330
1F
100
AcDbEntity
  8
VRSTVA_1
 62
   250
100
AcDbSpline
210
0.0
220
0.0
230
1.0
 70
    24
 71
     3
 72
     8
 73
     4
 74
     0
 42
0.0000000001
 43
0.0000000001
 40
0.0
 40
0.0
 40
0.0
 40
0.0
 40
1.0
 40
1.0
 40
1.0
 40
1.0
 10
7.5569
 20
16.9211
 30
0.0
 10
7.5569
 20
16.9211
 30
0.0
 10
7.5569
 20
-6.6766
 30
0.0
 10
7.5569
 20
-6.6766
 30
0.0
  0
SPLINE
  5
C4
330
1F
100
AcDbEntity
  8
VRSTVA_1
 62
   250
100
AcDbSpline
210
0.0
220
0.0
230
1.0
 70
    24
 71
     3
 72
     8
 73
     4
 74
     0
 42
0.0000000001
 43
0.0000000001
 40
0.0
 40
0.0
 40
0.0
 40
0.0
 40
1.0
 40
1.0
 40
1.0
 40
1.0
 10
8.8679
 20
15.4074
 30
0.0
 10
8.8679
 20
15.4074
 30
0.0
 10
8.8679
 20
-5.1628
 30
0.0
 10
8.8679
 20
-5.1628
 30
0.0
  0
SPLINE
  5
C5
330
1F
100
AcDbEntity
  8
VRSTVA_1
 62
   250
100
AcDbSpline
210
0.0
220
0.0
230
1.0
 70
    24
 71
     3
 72
     8
 73
     4
 74
     0
 42
0.0000000001
 43
0.0000000001
 40
0.0
 40
0.0
 40
0.0
 40
0.0
 40
1.0
 40
1.0
 40
1.0
 40
1.0
 10
9.7419
 20
16.9211
 30
0.0
 10
9.7419
 20
16.9211
 30
0.0
 10
9.7419
 20
-6.6766
 30
0.0
 10
9.7419
 20
-6.6766
 30
0.0
  0
SPLINE
  5
C6
330
1F
100
AcDbEntity
  8
VRSTVA_1
 62
   250
100
AcDbSpline
210
0.0
220
0.0
230
1.0
 70
    24
 71
     3
 72
     8
 73
     4
 74
     0
 42
0.0000000001
 43
0.0000000001
 40
0.0
 40
0.0
 40
0.0
 40
0.0
 40
1.0
 40
1.0
 40
1.0
 40
1.0
 10
11.0529
 20
15.4074
 30
0.0
 10
11.0529
 20
15.4074
 30
0.0
 10
11.0529
 20
-5.1628
 30
0.0
 10
11.0529
 20
-5.1628
 30
0.0
  0
SPLINE
  5
C7
330
1F
100
AcDbEntity
  8
VRSTVA_1
 62
   250
100
AcDbSpline
210
0.0
220
0.0
230
1.0
 70
    24
 71
     3
 72
     8
 73
     4
 74
     0
 42
0.0000000001
 43
0.0000000001
 40
0.0
 40
0.0
 40
0.0
 40
0.0
 40
1.0
 40
1.0
 40
1.0
 40
1.0
 10
11.9268
 20
16.9211
 30
0.0
 10
11.9268
 20
16.9211
 30
0.0
 10
11.9268
 20
-6.6766
 30
0.0
 10
11.9268
 20
-6.6766
 30
0.0
  0
SPLINE
  5
C8
330
1F
100
AcDbEntity
  8
VRSTVA_1
 62
   250
100
AcDbSpline
210
0.0
220
0.0
230
1.0
 70
    24
 71
     3
 72
     8
 73
     4
 74
     0
 42
0.0000000001
 43
0.0000000001
 40
0.0
 40
0.0
 40
0.0
 40
0.0
 40
1.0
 40
1.0
 40
1.0
 40
1.0
 10
13.2378
 20
15.4074
 30
0.0
 10
13.2378
 20
15.4074
 30
0.0
 10
13.2378
 20
-5.1628
 30
0.0
 10
13.2378
 20
-5.1628
 30
0.0
  0
SPLINE
  5
C9
330
1F
100
AcDbEntity
  8
VRSTVA_1
 62
   250
100
AcDbSpline
210
0.0
220
0.0
230
1.0
 70
    24
 71
     3
 72
     8
 73
     4
 74
     0
 42
0.0000000001
 43
0.0000000001
 40
0.0
 40
0.0
 40
0.0
 40
0.0
 40
1.0
 40
1.0
 40
1.0
 40
1.0
 10
14.1118
 20
16.9211
 30
0.0
 10
14.1118
 20
16.9211
 30
0.0
 10
14.1118
 20
-6.6766
 30
0.0
 10
14.1118
 20
-6.6766
 30
0.0
  0
SPLINE
  5
CA
330
1F
100
AcDbEntity
  8
VRSTVA_1
 62
   250
100
AcDbSpline
210
0.0
220
0.0
230
1.0
 70
    24
 71
     3
 72
     8
 73
     4
 74
     0
 42
0.0000000001
 43
0.0000000001
 40
0.0
 40
0.0
 40
0.0
 40
0.0
 40
1.0
 40
1.0
 40
1.0
 40
1.0
 10
15.4228
 20
15.4074
 30
0.0
 10
15.4228
 20
15.4074
 30
0.0
 10
15.4228
 20
-5.1628
 30
0.0
 10
15.4228
 20
-5.1628
 30
0.0
  0
SPLINE
  5
CB
330
1F
100
AcDbEntity
  8
VRSTVA_1
 62
   250
100
AcDbSpline
210
0.0
220
0.0
230
1.0
 70
    24
 71
     3
 72
     8
 73
     4
 74
     0
 42
0.0000000001
 43
0.0000000001
 40
0.0
 40
0.0
 40
0.0
 40
0.0
 40
1.0
 40
1.0
 40
1.0
 40
1.0
 10
16.2968
 20
16.9211
 30
0.0
 10
16.2968
 20
16.9211
 30
0.0
 10
16.2968
 20
-6.6766
 30
0.0
 10
16.2968
 20
-6.6766
 30
0.0
  0
SPLINE
  5
CC
330
1F
100
AcDbEntity
  8
VRSTVA_1
 62
   250
100
AcDbSpline
210
0.0
220
0.0
230
1.0
 70
    24
 71
     3
 72
     8
 73
     4
 74
     0
 42
0.0000000001
 43
0.0000000001
 40
0.0
 40
0.0
 40
0.0
 40
0.0
 40
1.0
 40
1.0
 40
1.0
 40
1.0
 10
17.6078
 20
15.4074
 30
0.0
 10
17.6078
 20
15.4074
 30
0.0
 10
17.6078
 20
-5.1628
 30
0.0
 10
17.6078
 20
-5.1628
 30
0.0
  0
SPLINE
  5
CD
330
1F
100
AcDbEntity
  8
VRSTVA_1
 62
   250
100
AcDbSpline
210
0.0
220
0.0
230
1.0
 70
    24
 71
     3
 72
     8
 73
     4
 74
     0
 42
0.0000000001
 43
0.0000000001
 40
0.0
 40
0.0
 40
0.0
 40
0.0
 40
1.0
 40
1.0
 40
1.0
 40
1.0
 10
18.4818
 20
16.9211
 30
0.0
 10
18.4818
 20
16.9211
 30
0.0
 10
18.4818
 20
-6.6766
 30
0.0
 10
18.4818
 20
-6.6766
 30
0.0
  0
SPLINE
  5
CE
330
1F
100
AcDbEntity
  8
VRSTVA_1
 62
   250
100
AcDbSpline
210
0.0
220
0.0
230
1.0
 70
    24
 71
     3
 72
     8
 73
     4
 74
     0
 42
0.0000000001
 43
0.0000000001
 40
0.0
 40
0.0
 40
0.0
 40
0.0
 40
1.0
 40
1.0
 40
1.0
 40
1.0
 10
19.7928
 20
15.4074
 30
0.0
 10
19.7928
 20
15.4074
 30
0.0
 10
19.7928
 20
-5.1628
 30
0.0
 10
19.7928
 20
-5.1628
 30
0.0
  0
SPLINE
  5
CF
330
1F
100
AcDbEntity
  8
VRSTVA_1
 62
   250
100
AcDbSpline
210
0.0
220
0.0
230
1.0
 70
    11
 71
     3
 72
    20
 73
    16
 74
     0
 42
0.0000000001
 43
0.0000000001
 40
0.0
 40
0.0
 40
0.0
 40
0.0
 40
0.2
 40
0.2
 40
0.2
 40
0.2
 40
0.4
 40
0.4
 40
0.4
 40
0.4
 40
0.6
 40
0.6
 40
0.6
 40
0.6
 40
1.0
 40
1.0
 40
1.0
 40
1.0
 10
39.2206
 20
15.8463
 30
0.0
 10
39.2206
 20
15.8463
 30
0.0
 10
39.5767
 20
15.8463
 30
0.0
 10
39.5767
 20
15.8463
 30
0.0
 10
39.5767
 20
15.8463
 30
0.0
 10
39.5767
 20
15.8463
 30
0.0
 10
39.5767
 20
-5.4856
 30
0.0
 10
39.5767
 20
-5.4856
 30
0.0
 10
39.5767
 20
-5.4856
 30
0.0
 10
39.5767
 20
-5.4856
 30
0.0
 10
39.2206
 20
-5.4856
 30
0.0
 10
39.2206
 20
-5.4856
 30
0.0
 10
39.2206
 20
-5.4856
 30
0.0
 10
39.2206
 20
-5.4856
 30
0.0
 10
39.2206
 20
15.8463
 30
0.0
 10
39.2206
 20
15.8463
 30
0.0
  0
SPLINE
  5
D0
330
1F
100
AcDbEntity
  8
VRSTVA_1
 62
   250
100
AcDbSpline
210
0.0
220
0.0
230
1.0
 70
    11
 71
     3
 72
    20
 73
    16
 74
     0
 42
0.0000000001
 43
0.0000000001
 40
0.0
 40
0.0
 40
0.0
 40
0.0
 40
0.2
 40
0.2
 40
0.2
 40
0.2
 40
0.4
 40
0.4
 40
0.4
 40
0.4
 40
0.6
 40
0.6
 40
0.6
 40
0.6
 40
1.0
 40
1.0
 40
1.0
 40
1.0
 10
37.5982
 20
15.8463
 30
0.0
 10
37.5982
 20
15.8463
 30
0.0
 10
37.9543
 20
15.8463
 30
0.0
 10
37.9543
 20
15.8463
 30
0.0
 10
37.9543
 20
15.8463
 30
0.0
 10
37.9543
 20
15.8463
 30
0.0
 10
37.9543
 20
-5.4856
 30
0.0
 10
37.9543
 20
-5.4856
 30
0.0
 10
37.9543
 20
-5.4856
 30
0.0
 10
37.9543
 20
-5.4856
 30
0.0
 10
37.5982
 20
-5.4856
 30
0.0
 10
37.5982
 20
-5.4856
 30
0.0
 10
37.5982
 20
-5.4856
 30
0.0
 10
37.5982
 20
-5.4856
 30
0.0
 10
37.5982
 20
15.8463
 30
0.0
 10
37.5982
 20
15.8463
 30
0.0
  0
SPLINE
  5
D1
330
1F
100
AcDbEntity
  8
VRSTVA_1
 62
   250
100
AcDbSpline
210
0.0
220
0.0
230
1.0
 70
    11
 71
     3
 72
    20
 73
    16
 74
     0
 42
0.0000000001
 43
0.0000000001
 40
0.0
 40
0.0
 40
0.0
 40
0.0
 40
0.2
 40
0.2
 40
0.2
 40
0.2
 40
0.4
 40
0.4
 40
0.4
 40
0.4
 40
0.6
 40
0.6
 40
0.6
 40
0.6
 40
1.0
 40
1.0
 40
1.0
 40
1.0
 10
35.8175
 20
17.1151
 30
0.0
 10
35.8175
 20
17.1151
 30
0.0
 10
36.1736
 20
17.1151
 30
0.0
 10
36.1736
 20
17.1151
 30
0.0
 10
36.1736
 20
17.1151
 30
0.0
 10
36.1736
 20
17.1151
 30
0.0
 10
36.1736
 20
-6.9923
 30
0.0
 10
36.1736
 20
-6.9923
 30
0.0
 10
36.1736
 20
-6.9923
 30
0.0
 10
36.1736
 20
-6.9923
 30
0.0
 10
35.8175
 20
-6.9923
 30
0.0
 10
35.8175
 20
-6.9923
 30
0.0
 10
35.8175
 20
-6.9923
 30
0.0
 10
35.8175
 20
-6.9923
 30
0.0
 10
35.8175
 20
17.1151
 30
0.0
 10
35.8175
 20
17.1151
 30
0.0
  0
SPLINE
  5
D2
330
1F
100
AcDbEntity
  8
VRSTVA_1
 62
   250
100
AcDbSpline
210
0.0
220
0.0
230
1.0
 70
    11
 71
     3
 72
    20
 73
    16
 74
     0
 42
0.0000000001
 43
0.0000000001
 40
0.0
 40
0.0
 40
0.0
 40
0.0
 40
0.2
 40
0.2
 40
0.2
 40
0.2
 40
0.4
 40
0.4
 40
0.4
 40
0.4
 40
0.6
 40
0.6
 40
0.6
 40
0.6
 40
1.0
 40
1.0
 40
1.0
 40
1.0
 10
34.1161
 20
17.1151
 30
0.0
 10
34.1161
 20
17.1151
 30
0.0
 10
34.4722
 20
17.1151
 30
0.0
 10
34.4722
 20
17.1151
 30
0.0
 10
34.4722
 20
17.1151
 30
0.0
 10
34.4722
 20
17.1151
 30
0.0
 10
34.4722
 20
-6.9923
 30
0.0
 10
34.4722
 20
-6.9923
 30
0.0
 10
34.4722
 20
-6.9923
 30
0.0
 10
34.4722
 20
-6.9923
 30
0.0
 10
34.1161
 20
-6.9923
 30
0.0
 10
34.1161
 20
-6.9923
 30
0.0
 10
34.1161
 20
-6.9923
 30
0.0
 10
34.1161
 20
-6.9923
 30
0.0
 10
34.1161
 20
17.1151
 30
0.0
 10
34.1161
 20
17.1151
 30
0.0
  0
SPLINE
  5
D3
330
1F
100
AcDbEntity
  8
VRSTVA_1
 62
   250
100
AcDbSpline
210
0.0
220
0.0
230
1.0
 70
    11
 71
     3
 72
    20
 73
    16
 74
     0
 42
0.0000000001
 43
0.0000000001
 40
0.0
 40
0.0
 40
0.0
 40
0.0
 40
0.2
 40
0.2
 40
0.2
 40
0.2
 40
0.4
 40
0.4
 40
0.4
 40
0.4
 40
0.6
 40
0.6
 40
0.6
 40
0.6
 40
1.0
 40
1.0
 40
1.0
 40
1.0
 10
32.4541
 20
18.2253
 30
0.0
 10
32.4541
 20
18.2253
 30
0.0
 10
32.8102
 20
18.2253
 30
0.0
 10
32.8102
 20
18.2253
 30
0.0
 10
32.8102
 20
18.2253
 30
0.0
 10
32.8102
 20
18.2253
 30
0.0
 10
32.8102
 20
-8.0233
 30
0.0
 10
32.8102
 20
-8.0233
 30
0.0
 10
32.8102
 20
-8.0233
 30
0.0
 10
32.8102
 20
-8.0233
 30
0.0
 10
32.4541
 20
-8.0233
 30
0.0
 10
32.4541
 20
-8.0233
 30
0.0
 10
32.4541
 20
-8.0233
 30
0.0
 10
32.4541
 20
-8.0233
 30
0.0
 10
32.4541
 20
18.2253
 30
0.0
 10
32.4541
 20
18.2253
 30
0.0
  0
SPLINE
  5
D4
330
1F
100
AcDbEntity
  8
VRSTVA_1
 62
   250
100
AcDbSpline
210
0.0
220
0.0
230
1.0
 70
    11
 71
     3
 72
    20
 73
    16
 74
     0
 42
0.0000000001
 43
0.0000000001
 40
0.0
 40
0.0
 40
0.0
 40
0.0
 40
0.2
 40
0.2
 40
0.2
 40
0.2
 40
0.4
 40
0.4
 40
0.4
 40
0.4
 40
0.6
 40
0.6
 40
0.6
 40
0.6
 40
1.0
 40
1.0
 40
1.0
 40
1.0
 10
30.713
 20
18.2253
 30
0.0
 10
30.713
 20
18.2253
 30
0.0
 10
31.0691
 20
18.2253
 30
0.0
 10
31.0691
 20
18.2253
 30
0.0
 10
31.0691
 20
18.2253
 30
0.0
 10
31.0691
 20
18.2253
 30
0.0
 10
31.0691
 20
-8.0233
 30
0.0
 10
31.0691
 20
-8.0233
 30
0.0
 10
31.0691
 20
-8.0233
 30
0.0
 10
31.0691
 20
-8.0233
 30
0.0
 10
30.713
 20
-8.0233
 30
0.0
 10
30.713
 20
-8.0233
 30
0.0
 10
30.713
 20
-8.0233
 30
0.0
 10
30.713
 20
-8.0233
 30
0.0
 10
30.713
 20
18.2253
 30
0.0
 10
30.713
 20
18.2253
 30
0.0
  0
SPLINE
  5
D5
330
1F
100
AcDbEntity
  8
VRSTVA_1
 62
   250
100
AcDbSpline
210
0.0
220
0.0
230
1.0
 70
    11
 71
     3
 72
    20
 73
    16
 74
     0
 42
0.0000000001
 43
0.0000000001
 40
0.0
 40
0.0
 40
0.0
 40
0.0
 40
0.2
 40
0.2
 40
0.2
 40
0.2
 40
0.4
 40
0.4
 40
0.4
 40
0.4
 40
0.6
 40
0.6
 40
0.6
 40
0.6
 40
1.0
 40
1.0
 40
1.0
 40
1.0
 10
29.0511
 20
18.2253
 30
0.0
 10
29.0511
 20
18.2253
 30
0.0
 10
29.4072
 20
18.2253
 30
0.0
 10
29.4072
 20
18.2253
 30
0.0
 10
29.4072
 20
18.2253
 30
0.0
 10
29.4072
 20
18.2253
 30
0.0
 10
29.4072
 20
-8.0233
 30
0.0
 10
29.4072
 20
-8.0233
 30
0.0
 10
29.4072
 20
-8.0233
 30
0.0
 10
29.4072
 20
-8.0233
 30
0.0
 10
29.0511
 20
-8.0233
 30
0.0
 10
29.0511
 20
-8.0233
 30
0.0
 10
29.0511
 20
-8.0233
 30
0.0
 10
29.0511
 20
-8.0233
 30
0.0
 10
29.0511
 20
18.2253
 30
0.0
 10
29.0511
 20
18.2253
 30
0.0
  0
SPLINE
  5
D6
330
1F
100
AcDbEntity
  8
VRSTVA_1
 62
   250
100
AcDbSpline
210
0.0
220
0.0
230
1.0
 70
     8
 71
     3
 72
   292
 73
   288
 74
     0
 42
0.0000000001
 43
0.0000000001
 40
0.0
 40
0.0
 40
0.0
 40
0.0
 40
0.0136986301369863
 40
0.0136986301369863
 40
0.0136986301369863
 40
0.0136986301369863
 40
0.0273972602739726
 40
0.0273972602739726
 40
0.0273972602739726
 40
0.0273972602739726
 40
0.0410958904109589
 40
0.0410958904109589
 40
0.0410958904109589
 40
0.0410958904109589
 40
0.0547945205479452
 40
0.0547945205479452
 40
0.0547945205479452
 40
0.0547945205479452
 40
0.0684931506849315
 40
0.0684931506849315
 40
0.0684931506849315
 40
0.0684931506849315
 40
0.0821917808219178
 40
0.0821917808219178
 40
0.0821917808219178
 40
0.0821917808219178
 40
0.0958904109589041
 40
0.0958904109589041
 40
0.0958904109589041
 40
0.0958904109589041
 40
0.1095890410958904
 40
0.1095890410958904
 40
0.1095890410958904
 40
0.1095890410958904
 40
0.1232876712328767
 40
0.1232876712328767
 40
0.1232876712328767
 40
0.1232876712328767
 40
0.136986301369863
 40
0.136986301369863
 40
0.136986301369863
 40
0.136986301369863
 40
0.1506849315068493
 40
0.1506849315068493
 40
0.1506849315068493
 40
0.1506849315068493
 40
0.1643835616438356
 40
0.1643835616438356
 40
0.1643835616438356
 40
0.1643835616438356
 40
0.1780821917808219
 40
0.1780821917808219
 40
0.1780821917808219
 40
0.1780821917808219
 40
0.1917808219178082
 40
0.1917808219178082
 40
0.1917808219178082
 40
0.1917808219178082
 40
0.2054794520547945
 40
0.2054794520547945
 40
0.2054794520547945
 40
0.2054794520547945
 40
0.2191780821917808
 40
0.2191780821917808
 40
0.2191780821917808
 40
0.2191780821917808
 40
0.2328767123287671
 40
0.2328767123287671
 40
0.2328767123287671
 40
0.2328767123287671
 40
0.2465753424657534
 40
0.2465753424657534
 40
0.2465753424657534
 40
0.2465753424657534
 40
0.2602739726027397
 40
0.2602739726027397
 40
0.2602739726027397
 40
0.2602739726027397
 40
0.273972602739726
 40
0.273972602739726
 40
0.273972602739726
 40
0.273972602739726
 40
0.2876712328767123
 40
0.2876712328767123
 40
0.2876712328767123
 40
0.2876712328767123
 40
0.3013698630136986
 40
0.3013698630136986
 40
0.3013698630136986
 40
0.3013698630136986
 40
0.3150684931506849
 40
0.3150684931506849
 40
0.3150684931506849
 40
0.3150684931506849
 40
0.3287671232876712
 40
0.3287671232876712
 40
0.3287671232876712
 40
0.3287671232876712
 40
0.3424657534246575
 40
0.3424657534246575
 40
0.3424657534246575
 40
0.3424657534246575
 40
0.3561643835616438
 40
0.3561643835616438
 40
0.3561643835616438
 40
0.3561643835616438
 40
0.3698630136986301
 40
0.3698630136986301
 40
0.3698630136986301
 40
0.3698630136986301
 40
0.3835616438356164
 40
0.3835616438356164
 40
0.3835616438356164
 40
0.3835616438356164
 40
0.3972602739726027
 40
0.3972602739726027
 40
0.3972602739726027
 40
0.3972602739726027
 40
0.410958904109589
 40
0.410958904109589
 40
0.410958904109589
 40
0.410958904109589
 40
0.4246575342465753
 40
0.4246575342465753
 40
0.4246575342465753
 40
0.4246575342465753
 40
0.4383561643835616
 40
0.4383561643835616
 40
0.4383561643835616
 40
0.4383561643835616
 40
0.4520547945205479
 40
0.4520547945205479
 40
0.4520547945205479
 40
0.4520547945205479
 40
0.4657534246575342
 40
0.4657534246575342
 40
0.4657534246575342
 40
0.4657534246575342
 40
0.4794520547945205
 40
0.4794520547945205
 40
0.4794520547945205
 40
0.4794520547945205
 40
0.4931506849315068
 40
0.4931506849315068
 40
0.4931506849315068
 40
0.4931506849315068
 40
0.5068493150684932
 40
0.5068493150684932
 40
0.5068493150684932
 40
0.5068493150684932
 40
0.5205479452054794
 40
0.5205479452054794
 40
0.5205479452054794
 40
0.5205479452054794
 40
0.5342465753424658
 40
0.5342465753424658
 40
0.5342465753424658
 40
0.5342465753424658
 40
0.547945205479452
 40
0.547945205479452
 40
0.547945205479452
 40
0.547945205479452
 40
0.5616438356164384
 40
0.5616438356164384
 40
0.5616438356164384
 40
0.5616438356164384
 40
0.5753424657534246
 40
0.5753424657534246
 40
0.5753424657534246
 40
0.5753424657534246
 40
0.589041095890411
 40
0.589041095890411
 40
0.589041095890411
 40
0.589041095890411
 40
0.6027397260273972
 40
0.6027397260273972
 40
0.6027397260273972
 40
0.6027397260273972
 40
0.6164383561643836
 40
0.6164383561643836
 40
0.6164383561643836
 40
0.6164383561643836
 40
0.6301369863013698
 40
0.6301369863013698
 40
0.6301369863013698
 40
0.6301369863013698
 40
0.6438356164383562
 40
0.6438356164383562
 40
0.6438356164383562
 40
0.6438356164383562
 40
0.6575342465753424
 40
0.6575342465753424
 40
0.6575342465753424
 40
0.6575342465753424
 40
0.6712328767123288
 40
0.6712328767123288
 40
0.6712328767123288
 40
0.6712328767123288
 40
0.684931506849315
 40
0.684931506849315
 40
0.684931506849315
 40
0.684931506849315
 40
0.6986301369863014
 40
0.6986301369863014
 40
0.6986301369863014
 40
0.6986301369863014
 40
0.7123287671232876
 40
0.7123287671232876
 40
0.7123287671232876
 40
0.7123287671232876
 40
0.726027397260274
 40
0.726027397260274
 40
0.726027397260274
 40
0.726027397260274
 40
0.7397260273972602
 40
0.7397260273972602
 40
0.7397260273972602
 40
0.7397260273972602
 40
0.7534246575342466
 40
0.7534246575342466
 40
0.7534246575342466
 40
0.7534246575342466
 40
0.7671232876712328
 40
0.7671232876712328
 40
0.7671232876712328
 40
0.7671232876712328
 40
0.7808219178082192
 40
0.7808219178082192
 40
0.7808219178082192
 40
0.7808219178082192
 40
0.7945205479452054
 40
0.7945205479452054
 40
0.7945205479452054
 40
0.7945205479452054
 40
0.8082191780821918
 40
0.8082191780821918
 40
0.8082191780821918
 40
0.8082191780821918
 40
0.821917808219178
 40
0.821917808219178
 40
0.821917808219178
 40
0.821917808219178
 40
0.8356164383561644
 40
0.8356164383561644
 40
0.8356164383561644
 40
0.8356164383561644
 40
0.8493150684931506
 40
0.8493150684931506
 40
0.8493150684931506
 40
0.8493150684931506
 40
0.863013698630137
 40
0.863013698630137
 40
0.863013698630137
 40
0.863013698630137
 40
0.8767123287671232
 40
0.8767123287671232
 40
0.8767123287671232
 40
0.8767123287671232
 40
0.8904109589041096
 40
0.8904109589041096
 40
0.8904109589041096
 40
0.8904109589041096
 40
0.9041095890410958
 40
0.9041095890410958
 40
0.9041095890410958
 40
0.9041095890410958
 40
0.9178082191780822
 40
0.9178082191780822
 40
0.9178082191780822
 40
0.9178082191780822
 40
0.9315068493150684
 40
0.9315068493150684
 40
0.9315068493150684
 40
0.9315068493150684
 40
0.9452054794520548
 40
0.9452054794520548
 40
0.9452054794520548
 40
0.9452054794520548
 40
0.958904109589041
 40
0.958904109589041
 40
0.958904109589041
 40
0.958904109589041
 40
0.9726027397260274
 40
0.9726027397260274
 40
0.9726027397260274
 40
0.9726027397260274
 40
1.0
 40
1.0
 40
1.0
 40
1.0
 10
-31.3692
 20
16.9488
 30
0.0
 10
-31.3692
 20
16.9488
 30
0.0
 10
-30.4966
 20
15.4343
 30
0.0
 10
-30.4966
 20
15.4343
 30
0.0
 10
-30.4966
 20
15.4343
 30
0.0
 10
-30.4966
 20
15.4343
 30
0.0
 10
-29.6301
 20
16.9411
 30
0.0
 10
-29.6301
 20
16.9411
 30
0.0
 10
-29.6301
 20
16.9411
 30
0.0
 10
-29.6301
 20
16.9411
 30
0.0
 10
-29.2089
 20
16.9411
 30
0.0
 10
-29.2089
 20
16.9411
 30
0.0
 10
-29.2089
 20
16.9411
 30
0.0
 10
-29.2089
 20
16.9411
 30
0.0
 10
-28.3241
 20
15.4383
 30
0.0
 10
-28.3241
 20
15.4383
 30
0.0
 10
-28.3241
 20
15.4383
 30
0.0
 10
-28.3241
 20
15.4383
 30
0.0
 10
-27.4534
 20
16.9271
 30
0.0
 10
-27.4534
 20
16.9271
 30
0.0
 10
-27.4534
 20
16.9271
 30
0.0
 10
-27.4534
 20
16.9271
 30
0.0
 10
-26.976
 20
16.9271
 30
0.0
 10
-26.976
 20
16.9271
 30
0.0
 10
-26.976
 20
16.9271
 30
0.0
 10
-26.976
 20
16.9271
 30
0.0
 10
-26.1053
 20
15.4944
 30
0.0
 10
-26.1053
 20
15.4944
 30
0.0
 10
-26.1053
 20
15.4944
 30
0.0
 10
-26.1053
 20
15.4944
 30
0.0
 10
-25.2627
 20
16.9271
 30
0.0
 10
-25.2627
 20
16.9271
 30
0.0
 10
-25.2627
 20
16.9271
 30
0.0
 10
-25.2627
 20
16.9271
 30
0.0
 10
-24.8273
 20
16.9271
 30
0.0
 10
-24.8273
 20
16.9271
 30
0.0
 10
-24.8273
 20
16.9271
 30
0.0
 10
-24.8273
 20
16.9271
 30
0.0
 10
-23.9427
 20
15.4663
 30
0.0
 10
-23.9427
 20
15.4663
 30
0.0
 10
-23.9427
 20
15.4663
 30
0.0
 10
-23.9427
 20
15.4663
 30
0.0
 10
-23.086
 20
16.9271
 30
0.0
 10
-23.086
 20
16.9271
 30
0.0
 10
-23.086
 20
16.9271
 30
0.0
 10
-23.086
 20
16.9271
 30
0.0
 10
-22.6365
 20
16.9271
 30
0.0
 10
-22.6365
 20
16.9271
 30
0.0
 10
-22.6365
 20
16.9271
 30
0.0
 10
-22.6365
 20
16.9271
 30
0.0
 10
-21.7519
 20
15.4241
 30
0.0
 10
-21.7519
 20
15.4241
 30
0.0
 10
-21.7519
 20
15.4241
 30
0.0
 10
-21.7519
 20
15.4241
 30
0.0
 10
-20.9092
 20
16.9271
 30
0.0
 10
-20.9092
 20
16.9271
 30
0.0
 10
-20.9092
 20
16.9271
 30
0.0
 10
-20.9092
 20
16.9271
 30
0.0
 10
-20.4881
 20
16.9271
 30
0.0
 10
-20.4881
 20
16.9271
 30
0.0
 10
-20.4881
 20
16.9271
 30
0.0
 10
-20.4881
 20
16.9271
 30
0.0
 10
-19.5768
 20
15.4453
 30
0.0
 10
-19.5768
 20
15.4453
 30
0.0
 10
-19.5768
 20
15.4453
 30
0.0
 10
-19.5768
 20
15.4453
 30
0.0
 10
-18.6943
 20
16.9263
 30
0.0
 10
-18.6943
 20
16.9263
 30
0.0
 10
-18.6943
 20
16.9263
 30
0.0
 10
-18.6943
 20
16.9263
 30
0.0
 10
-18.2583
 20
16.9161
 30
0.0
 10
-18.2583
 20
16.9161
 30
0.0
 10
-18.2583
 20
16.9161
 30
0.0
 10
-18.2583
 20
16.9161
 30
0.0
 10
-17.3962
 20
15.4453
 30
0.0
 10
-17.3962
 20
15.4453
 30
0.0
 10
-17.3962
 20
15.4453
 30
0.0
 10
-17.3962
 20
15.4453
 30
0.0
 10
-16.4935
 20
16.9365
 30
0.0
 10
-16.4935
 20
16.9365
 30
0.0
 10
-16.4935
 20
16.9365
 30
0.0
 10
-16.4935
 20
16.9365
 30
0.0
 10
-16.0878
 20
16.9365
 30
0.0
 10
-16.0878
 20
16.9365
 30
0.0
 10
-16.0878
 20
16.9365
 30
0.0
 10
-16.0878
 20
16.9365
 30
0.0
 10
-15.2077
 20
15.4523
 30
0.0
 10
-15.2077
 20
15.4523
 30
0.0
 10
-15.2077
 20
15.4523
 30
0.0
 10
-15.2077
 20
15.4523
 30
0.0
 10
-14.337
 20
16.9131
 30
0.0
 10
-14.337
 20
16.9131
 30
0.0
 10
-14.337
 20
16.9131
 30
0.0
 10
-14.337
 20
16.9131
 30
0.0
 10
-13.8736
 20
16.9131
 30
0.0
 10
-13.8736
 20
16.9131
 30
0.0
 10
-13.8736
 20
16.9131
 30
0.0
 10
-13.8736
 20
16.9131
 30
0.0
 10
-13.0451
 20
15.4241
 30
0.0
 10
-13.0451
 20
15.4241
 30
0.0
 10
-13.0451
 20
15.4241
 30
0.0
 10
-13.0451
 20
15.4241
 30
0.0
 10
-12.1604
 20
16.9411
 30
0.0
 10
-12.1604
 20
16.9411
 30
0.0
 10
-12.1604
 20
16.9411
 30
0.0
 10
-12.1604
 20
16.9411
 30
0.0
 10
-11.7251
 20
16.9271
 30
0.0
 10
-11.7251
 20
16.9271
 30
0.0
 10
-11.7251
 20
16.9271
 30
0.0
 10
-11.7251
 20
16.9271
 30
0.0
 10
-10.8684
 20
15.4102
 30
0.0
 10
-10.8684
 20
15.4102
 30
0.0
 10
-10.8684
 20
15.4102
 30
0.0
 10
-10.8684
 20
15.4102
 30
0.0
 10
-9.9978
 20
16.9131
 30
0.0
 10
-9.9978
 20
16.9131
 30
0.0
 10
-9.9978
 20
16.9131
 30
0.0
 10
-9.9978
 20
16.9131
 30
0.0
 10
-9.5062
 20
16.899
 30
0.0
 10
-9.5062
 20
16.899
 30
0.0
 10
-9.5062
 20
16.899
 30
0.0
 10
-9.5062
 20
16.899
 30
0.0
 10
-8.6355
 20
15.4241
 30
0.0
 10
-8.6355
 20
15.4241
 30
0.0
 10
-8.6355
 20
15.4241
 30
0.0
 10
-8.6355
 20
15.4241
 30
0.0
 10
-7.7788
 20
16.9131
 30
0.0
 10
-7.7788
 20
16.9131
 30
0.0
 10
-7.7788
 20
16.9131
 30
0.0
 10
-7.7788
 20
16.9131
 30
0.0
 10
-7.3434
 20
16.9071
 30
0.0
 10
-7.3434
 20
16.9071
 30
0.0
 10
-7.3434
 20
16.9071
 30
0.0
 10
-7.3434
 20
16.9071
 30
0.0
 10
-6.4827
 20
15.4646
 30
0.0
 10
-6.4827
 20
15.4646
 30
0.0
 10
-6.4827
 20
15.4646
 30
0.0
 10
-6.4827
 20
15.4646
 30
0.0
 10
-5.6072
 20
16.922
 30
0.0
 10
-5.6072
 20
16.922
 30
0.0
 10
-5.6072
 20
16.922
 30
0.0
 10
-5.6072
 20
16.922
 30
0.0
 10
-5.1174
 20
16.922
 30
0.0
 10
-5.1174
 20
16.922
 30
0.0
 10
-5.1174
 20
16.922
 30
0.0
 10
-5.1174
 20
16.922
 30
0.0
 10
-4.2864
 20
15.42
 30
0.0
 10
-4.2864
 20
15.42
 30
0.0
 10
-4.2864
 20
15.42
 30
0.0
 10
-4.2864
 20
15.42
 30
0.0
 10
-3.4258
 20
16.9071
 30
0.0
 10
-3.4258
 20
16.9071
 30
0.0
 10
-3.4258
 20
16.9071
 30
0.0
 10
-3.4258
 20
16.9071
 30
0.0
 10
-2.9065
 20
16.9071
 30
0.0
 10
-2.9065
 20
16.9071
 30
0.0
 10
-2.9065
 20
16.9071
 30
0.0
 10
-2.9065
 20
16.9071
 30
0.0
 10
-2.0755
 20
15.3902
 30
0.0
 10
-2.0755
 20
15.3902
 30
0.0
 10
-2.0755
 20
15.3902
 30
0.0
 10
-2.0755
 20
15.3902
 30
0.0
 10
-1.1852
 20
16.937
 30
0.0
 10
-1.1852
 20
16.937
 30
0.0
 10
-1.1852
 20
16.937
 30
0.0
 10
-1.1852
 20
16.937
 30
0.0
 10
-0.7847
 20
16.937
 30
0.0
 10
-0.7847
 20
16.937
 30
0.0
 10
-0.7847
 20
16.937
 30
0.0
 10
-0.7847
 20
16.937
 30
0.0
 10
0.1056
 20
15.3753
 30
0.0
 10
0.1056
 20
15.3753
 30
0.0
 10
0.1056
 20
15.3753
 30
0.0
 10
0.1056
 20
15.3753
 30
0.0
 10
0.9959
 20
16.937
 30
0.0
 10
0.9959
 20
16.937
 30
0.0
 10
0.9959
 20
16.937
 30
0.0
 10
0.9959
 20
16.937
 30
0.0
 10
1.4561
 20
16.937
 30
0.0
 10
1.4561
 20
16.937
 30
0.0
 10
1.4561
 20
16.937
 30
0.0
 10
1.4561
 20
16.937
 30
0.0
 10
2.3019
 20
15.4646
 30
0.0
 10
2.3019
 20
15.4646
 30
0.0
 10
2.3019
 20
15.4646
 30
0.0
 10
2.3019
 20
15.4646
 30
0.0
 10
3.1626
 20
16.9071
 30
0.0
 10
3.1626
 20
16.9071
 30
0.0
 10
3.1626
 20
16.9071
 30
0.0
 10
3.1626
 20
16.9071
 30
0.0
 10
3.6226
 20
16.9071
 30
0.0
 10
3.6226
 20
16.9071
 30
0.0
 10
3.6226
 20
16.9071
 30
0.0
 10
3.6226
 20
16.9071
 30
0.0
 10
4.5277
 20
15.42
 30
0.0
 10
4.5277
 20
15.42
 30
0.0
 10
4.5277
 20
15.42
 30
0.0
 10
4.5277
 20
15.42
 30
0.0
 10
5.3587
 20
16.922
 30
0.0
 10
5.3587
 20
16.922
 30
0.0
 10
5.3587
 20
16.922
 30
0.0
 10
5.3587
 20
16.922
 30
0.0
 10
5.8187
 20
16.922
 30
0.0
 10
5.8187
 20
16.922
 30
0.0
 10
5.8187
 20
16.922
 30
0.0
 10
5.8187
 20
16.922
 30
0.0
 10
6.6942
 20
15.4646
 30
0.0
 10
6.6942
 20
15.4646
 30
0.0
 10
6.6942
 20
15.4646
 30
0.0
 10
6.6942
 20
15.4646
 30
0.0
 10
7.5548
 20
16.937
 30
0.0
 10
7.5548
 20
16.937
 30
0.0
 10
7.5548
 20
16.937
 30
0.0
 10
7.5548
 20
16.937
 30
0.0
 10
8.0296
 20
16.937
 30
0.0
 10
8.0296
 20
16.937
 30
0.0
 10
8.0296
 20
16.937
 30
0.0
 10
8.0296
 20
16.937
 30
0.0
 10
8.9051
 20
15.4348
 30
0.0
 10
8.9051
 20
15.4348
 30
0.0
 10
8.9051
 20
15.4348
 30
0.0
 10
8.9051
 20
15.4348
 30
0.0
 10
9.7509
 20
16.9666
 30
0.0
 10
9.7509
 20
16.9666
 30
0.0
 10
9.7509
 20
16.9666
 30
0.0
 10
9.7509
 20
16.9666
 30
0.0
 10
10.1813
 20
16.9518
 30
0.0
 10
10.1813
 20
16.9518
 30
0.0
 10
10.1813
 20
16.9518
 30
0.0
 10
10.1813
 20
16.9518
 30
0.0
 10
11.0121
 20
15.4498
 30
0.0
 10
11.0121
 20
15.4498
 30
0.0
 10
11.0121
 20
15.4498
 30
0.0
 10
11.0121
 20
15.4498
 30
0.0
 10
11.9174
 20
16.922
 30
0.0
 10
11.9174
 20
16.922
 30
0.0
 10
11.9174
 20
16.922
 30
0.0
 10
11.9174
 20
16.922
 30
0.0
 10
12.3477
 20
16.922
 30
0.0
 10
12.3477
 20
16.922
 30
0.0
 10
12.3477
 20
16.922
 30
0.0
 10
12.3477
 20
16.922
 30
0.0
 10
13.2232
 20
15.405
 30
0.0
 10
13.2232
 20
15.405
 30
0.0
 10
13.2232
 20
15.405
 30
0.0
 10
13.2232
 20
15.405
 30
0.0
 10
14.0795
 20
16.9411
 30
0.0
 10
14.0795
 20
16.9411
 30
0.0
 10
14.0795
 20
16.9411
 30
0.0
 10
14.0795
 20
16.9411
 30
0.0
 10
14.5247
 20
16.9411
 30
0.0
 10
14.5247
 20
16.9411
 30
0.0
 10
14.5247
 20
16.9411
 30
0.0
 10
14.5247
 20
16.9411
 30
0.0
 10
15.3727
 20
15.3902
 30
0.0
 10
15.3727
 20
15.3902
 30
0.0
 10
15.3727
 20
15.3902
 30
0.0
 10
15.3727
 20
15.3902
 30
0.0
 10
16.2418
 20
16.9411
 30
0.0
 10
16.2418
 20
16.9411
 30
0.0
 10
16.2418
 20
16.9411
 30
0.0
 10
16.2418
 20
16.9411
 30
0.0
 10
16.7081
 20
16.9411
 30
0.0
 10
16.7081
 20
16.9411
 30
0.0
 10
16.7081
 20
16.9411
 30
0.0
 10
16.7081
 20
16.9411
 30
0.0
 10
17.5773
 20
15.4751
 30
0.0
 10
17.5773
 20
15.4751
 30
0.0
 10
17.5773
 20
15.4751
 30
0.0
 10
17.5773
 20
15.4751
 30
0.0
 10
18.4465
 20
16.9623
 30
0.0
 10
18.4465
 20
16.9623
 30
0.0
 10
18.4465
 20
16.9623
 30
0.0
 10
18.4465
 20
16.9623
 30
0.0
 10
18.8703
 20
16.9623
 30
0.0
 10
18.8703
 20
16.9623
 30
0.0
 10
18.8703
 20
16.9623
 30
0.0
 10
18.8703
 20
16.9623
 30
0.0
 10
19.7819
 20
15.3902
 30
0.0
 10
19.7819
 20
15.3902
 30
0.0
 10
19.7819
 20
15.3902
 30
0.0
 10
19.7819
 20
15.3902
 30
0.0
 10
20.6297
 20
16.9623
 30
0.0
 10
20.6297
 20
16.9623
 30
0.0
 10
20.6297
 20
16.9623
 30
0.0
 10
20.6297
 20
16.9623
 30
0.0
 10
20.8379
 20
16.9623
 30
0.0
 10
20.8379
 20
16.9623
 30
0.0
  0
ENDSEC
  0
SECTION
  2
OBJECTS
  0
DICTIONARY
  5
C
330
0
100
AcDbDictionary
  3
ACAD_GROUP
350
D
  3
ACAD_LAYOUT
350
1A
  3
ACAD_MATERIAL
350
3B
  3
ACAD_MLEADERSTYLE
350
F9
  3
ACAD_MLINESTYLE
350
17
  3
ACAD_PLOTSETTINGS
350
19
  3
ACAD_VISUALSTYLE
350
2A
  3
ACDBHEADERROUNDTRIPXREC
350
D7
  3
ACDBVARIABLEDICTIONARY
350
F7
  0
DICTIONARY
  5
D
102
{ACAD_REACTORS
330
C
102
}
330
C
100
AcDbDictionary
  0
DICTIONARY
  5
1A
102
{ACAD_REACTORS
330
C
102
}
330
C
100
AcDbDictionary
  0
DICTIONARY
  5
3B
102
{ACAD_REACTORS
330
C
102
}
330
C
100
AcDbDictionary
  3
BYBLOCK
350
3D
  3
BYLAYER
350
3C
  3
GLOBAL
350
3E
  0
DICTIONARY
  5
F9
102
{ACAD_REACTORS
330
C
102
}
330
C
100
AcDbDictionary
  0
DICTIONARY
  5
17
102
{ACAD_REACTORS
330
C
102
}
330
C
100
AcDbDictionary
  3
STANDARD
350
18
  0
DICTIONARY
  5
19
102
{ACAD_REACTORS
330
C
102
}
330
C
100
AcDbDictionary
  0
DICTIONARY
  5
2A
102
{ACAD_REACTORS
330
C
102
}
330
C
100
AcDbDictionary
  3
2DWIREFRAME
350
2F
  3
3D_HIDDEN
350
31
  3
3DWIREFRAME
350
30
  3
BASIC
350
32
  3
BRIGHTEN
350
36
  3
COLORCHANGE
350
3A
  3
CONCEPTUAL
350
34
  3
DIM
350
35
  3
FACEPATTERN
350
39
  3
FLAT
350
2B
  3
FLATWITHEDGES
350
2C
  3
GOURAUD
350
2D
  3
GOURAUDWITHEDGES
350
2E
  3
LINEPATTERN
350
38
  3
REALISTIC
350
33
  3
THICKEN
350
37
  0
DICTIONARY
  5
D7
102
{ACAD_REACTORS
330
C
102
}
330
C
100
AcDbDictionary
  3
CEPSNTYPE
350
E0
  3
DIMSTYLEDATA
350
F6
  3
FINGERPRINTGUID
350
E1
  3
HYPERLINKBASE
350
DA
  3
INSUNITS
350
DF
  3
LAYOUTDICT
350
DC
  3
LWETCUNION
350
DE
  3
PLOTSETDICT
350
DD
  3
PSVPSCALE
350
E3
  3
PUCSBASE
350
E6
  3
PUCSORGBACK
350
EC
  3
PUCSORGBOTTOM
350
E8
  3
PUCSORGFRONT
350
EB
  3
PUCSORGLEFT
350
E9
  3
PUCSORGRIGHT
350
EA
  3
PUCSORGTOP
350
E7
  3
PUCSORTHOREF
350
E4
  3
PUCSORTHOVIEW
350
E5
  3
STYLESHEET
350
DB
  3
TSTACKALIGN
350
D8
  3
TSTACKSIZE
350
D9
  3
UCSBASE
350
EF
  3
UCSORGBACK
350
F5
  3
UCSORGBOTTOM
350
F1
  3
UCSORGFRONT
350
F4
  3
UCSORGLEFT
350
F2
  3
UCSORGRIGHT
350
F3
  3
UCSORGTOP
350
F0
  3
UCSORTHOREF
350
ED
  3
UCSORTHOVIEW
350
EE
  3
VERSIONGUID
350
E2
  0
DICTIONARY
  5
F7
102
{ACAD_REACTORS
330
C
102
}
330
C
100
AcDbDictionary
  3
DIMASSOC
350
FA
  3
HIDETEXT
350
FB
  0
MATERIAL
  5
3D
102
{ACAD_REACTORS
330
3B
102
}
102
{ACAD_XDICTIONARY
360
FE
102
}
330
3B
100
AcDbMaterial
  1
ByBlock
  0
MATERIAL
  5
3C
102
{ACAD_REACTORS
330
3B
102
}
102
{ACAD_XDICTIONARY
360
FC
102
}
330
3B
100
AcDbMaterial
  1
ByLayer
  0
MATERIAL
  5
3E
102
{ACAD_REACTORS
330
3B
102
}
102
{ACAD_XDICTIONARY
360
100
102
}
330
3B
100
AcDbMaterial
  1
Global
  0
MLINESTYLE
  5
18
102
{ACAD_REACTORS
330
17
102
}
330
17
100
AcDbMlineStyle
  2
Standard
 70
     0
  3

 62
   256
 51
90.0
 52
90.0
 71
     2
 49
0.5
 62
   256
  6
BYLAYER
 49
-0.5
 62
   256
  6
BYLAYER
  0
ACAD_PROXY_OBJECT
  5
2F
102
{ACAD_REACTORS
330
2A
102
}
330
2A
100
AcDbProxyObject
 90
      499
 91
      501
 93
      436
310
42CC9915DA5C99599C985B595049028333333333333E3BF0000000000000FB0107901411070040501600405405064090741402480A0340
1001
ACAD
1000
AcDbSavedByObjectVersion
1070
     0
  0
ACAD_PROXY_OBJECT
  5
31
102
{ACAD_REACTORS
330
2A
102
}
330
2A
100
AcDbProxyObject
 90
      499
 91
      501
 93
      500
310
424CD108121A5919195B90640502408333333333333E3BF0000000000000FB01079024090700405020000000000001110200405405064090740C02480A0340
1001
ACAD
1000
AcDbSavedByObjectVersion
1070
     0
  0
ACAD_PROXY_OBJECT
  5
30
102
{ACAD_REACTORS
330
2A
102
}
330
2A
100
AcDbProxyObject
 90
      499
 91
      501
 93
      436
310
42CCD915DA5C99599C985B595059028333333333333E3BF0000000000000FB0107901411070040501600405405064090741402480A0340
1001
ACAD
1000
AcDbSavedByObjectVersion
1070
     0
  0
ACAD_PROXY_OBJECT
  5
32
102
{ACAD_REACTORS
330
2A
102
}
330
2A
100
AcDbProxyObject
 90
      499
 91
      501
 93
      388
310
4150985CDA58D07406404333333333333E3BF0000000000000FB0107A41107004050150841D405064090741402480A0350
1001
ACAD
1000
AcDbSavedByObjectVersion
1070
     0
  0
ACAD_PROXY_OBJECT
  5
36
102
{ACAD_REACTORS
330
2A
102
}
330
2A
100
AcDbProxyObject
 90
      499
 91
      501
 93
      428
310
42109C9A59DA1D195B90C409028333333333333E3BF0000000000000FB010790141107004050150841D405064090741402480A029950
1001
ACAD
1000
AcDbSavedByObjectVersion
1070
     0
  0
ACAD_PROXY_OBJECT
  5
3A
102
{ACAD_REACTORS
330
2A
102
}
330
2A
100
AcDbProxyObject
 90
      499
 91
      501
 93
      452
310
42D0DBDB1BDC90DA185B99D95104090240C333333333333E3BF0000000000000FB0108901411070040501508421405064090741402480A0350
1001
ACAD
1000
AcDbSavedByObjectVersion
1070
     0
  0
ACAD_PROXY_OBJECT
  5
34
102
{ACAD_REACTORS
330
2A
102
}
330
2A
100
AcDbProxyObject
 90
      499
 91
      501
 93
      500
310
4290DBDB98D95C1D1D585B10940D028333333333333E3BF0000000000000FB0107902409070040501000000000000111010841D405064090740C02480A0340
1001
ACAD
1000
AcDbSavedByObjectVersion
1070
     0
  0
ACAD_PROXY_OBJECT
  5
35
102
{ACAD_REACTORS
330
2A
102
}
330
2A
100
AcDbProxyObject
 90
      499
 91
      501
 93
      412
310
40D11A5B50B409028333333333333E3BF0000000000000FB010790141107004050150841D405064090741402480A02677FFFFFD0
1001
ACAD
1000
AcDbSavedByObjectVersion
1070
     0
  0
ACAD_PROXY_OBJECT
  5
39
102
{ACAD_REACTORS
330
2A
102
}
330
2A
100
AcDbProxyObject
 90
      499
 91
      501
 93
      444
310
42D19858D95C185D1D195C9B90F409028333333333333E3BF0000000000000FB010790141107004050150841D405064090741402480A0350
1001
ACAD
1000
AcDbSavedByObjectVersion
1070
     0
  0
ACAD_PROXY_OBJECT
  5
2B
102
{ACAD_REACTORS
330
2A
102
}
330
2A
100
AcDbProxyObject
 90
      499
 91
      501
 93
      388
310
41119B185D240901404333333333333E3BF0000000000000F9010740A41107004050150841D405064090741402480A1B50
1001
ACAD
1000
AcDbSavedByObjectVersion
1070
     0
  0
ACAD_PROXY_OBJECT
  5
2C
102
{ACAD_REACTORS
330
2A
102
}
330
2A
100
AcDbProxyObject
 90
      499
 91
      501
 93
      476
310
43519B185D15DA5D1A115919D95CD0140901404333333333333E3BF0000000000000F9010740901411070040501600405405064090741402480A1B50
1001
ACAD
1000
AcDbSavedByObjectVersion
1070
     0
  0
ACAD_PROXY_OBJECT
  5
2D
102
{ACAD_REACTORS
330
2A
102
}
330
2A
100
AcDbProxyObject
 90
      499
 91
      501
 93
      412
310
41D1DBDD5C985D5910240902404333333333333E3BF0000000000000F9010740A411070040501641D405064090741402480A1B50
1001
ACAD
1000
AcDbSavedByObjectVersion
1070
     0
  0
ACAD_PROXY_OBJECT
  5
2E
102
{ACAD_REACTORS
330
2A
102
}
330
2A
100
AcDbProxyObject
 90
      499
 91
      501
 93
      500
310
4411DBDD5C985D5915DA5D1A115919D95CD0340902404333333333333E3BF0000000000000F9010740901411070040501600405405064090741402480A1B50
1001
ACAD
1000
AcDbSavedByObjectVersion
1070
     0
  0
ACAD_PROXY_OBJECT
  5
38
102
{ACAD_REACTORS
330
2A
102
}
330
2A
100
AcDbProxyObject
 90
      499
 91
      501
 93
      444
310
42D31A5B995C185D1D195C9B90E409028333333333333E3BF0000000000000FB010790141107004050750841D405064090741402483A0350
1001
ACAD
1000
AcDbSavedByObjectVersion
1070
     0
  0
ACAD_PROXY_OBJECT
  5
33
102
{ACAD_REACTORS
330
2A
102
}
330
2A
100
AcDbProxyObject
 90
      499
 91
      501
 93
      420
310
425499585B1A5CDD1A58D08409028333333333333E3BF0000000000000FB01079019070040501508421405064090741402480A1B40
1001
ACAD
1000
AcDbSavedByObjectVersion
1070
     0
  0
ACAD_PROXY_OBJECT
  5
37
102
{ACAD_REACTORS
330
2A
102
}
330
2A
100
AcDbProxyObject
 90
      499
 91
      501
 93
      412
310
41D51A1A58DAD95B90D409028333333333333E3BF0000000000000FB010790141107004050150C41D405064090741402480A0350
1001
ACAD
1000
AcDbSavedByObjectVersion
1070
     0
  0
XRECORD
  5
E0
102
{ACAD_REACTORS
330
D7
102
}
330
D7
100
AcDbXrecord
 90
        0
  0
XRECORD
  5
F6
102
{ACAD_REACTORS
330
D7
102
}
330
D7
100
AcDbXrecord
1000
DSTYLE
1002
{
1070
   340
340
11
1002
}
  0
XRECORD
  5
E1
102
{ACAD_REACTORS
330
D7
102
}
330
D7
100
AcDbXrecord
  1
{8F2567BB-8391-47E4-94D1-3DD602646549}
  0
XRECORD
  5
DA
102
{ACAD_REACTORS
330
D7
102
}
330
D7
100
AcDbXrecord
  1

  0
XRECORD
  5
DF
102
{ACAD_REACTORS
330
D7
102
}
330
D7
100
AcDbXrecord
 90
        4
  0
XRECORD
  5
DC
102
{ACAD_REACTORS
330
D7
102
}
330
D7
100
AcDbXrecord
340
1A
  0
XRECORD
  5
DE
102
{ACAD_REACTORS
330
D7
102
}
330
D7
100
AcDbXrecord
 90
    10781
  0
XRECORD
  5
DD
102
{ACAD_REACTORS
330
D7
102
}
330
D7
100
AcDbXrecord
340
19
  0
XRECORD
  5
E3
102
{ACAD_REACTORS
330
D7
102
}
330
D7
100
AcDbXrecord
 40
0.0
  0
XRECORD
  5
E6
102
{ACAD_REACTORS
330
D7
102
}
330
D7
100
AcDbXrecord
340
0
  0
XRECORD
  5
EC
102
{ACAD_REACTORS
330
D7
102
}
330
D7
100
AcDbXrecord
 10
0.0
 20
0.0
 30
0.0
  0
XRECORD
  5
E8
102
{ACAD_REACTORS
330
D7
102
}
330
D7
100
AcDbXrecord
 10
0.0
 20
0.0
 30
0.0
  0
XRECORD
  5
EB
102
{ACAD_REACTORS
330
D7
102
}
330
D7
100
AcDbXrecord
 10
0.0
 20
0.0
 30
0.0
  0
XRECORD
  5
E9
102
{ACAD_REACTORS
330
D7
102
}
330
D7
100
AcDbXrecord
 10
0.0
 20
0.0
 30
0.0
  0
XRECORD
  5
EA
102
{ACAD_REACTORS
330
D7
102
}
330
D7
100
AcDbXrecord
 10
0.0
 20
0.0
 30
0.0
  0
XRECORD
  5
E7
102
{ACAD_REACTORS
330
D7
102
}
330
D7
100
AcDbXrecord
 10
0.0
 20
0.0
 30
0.0
  0
XRECORD
  5
E4
102
{ACAD_REACTORS
330
D7
102
}
330
D7
100
AcDbXrecord
340
0
  0
XRECORD
  5
E5
102
{ACAD_REACTORS
330
D7
102
}
330
D7
100
AcDbXrecord
 70
     0
  0
XRECORD
  5
DB
102
{ACAD_REACTORS
330
D7
102
}
330
D7
100
AcDbXrecord
  1

  0
XRECORD
  5
D8
102
{ACAD_REACTORS
330
D7
102
}
330
D7
100
AcDbXrecord
 90
        1
  0
XRECORD
  5
D9
102
{ACAD_REACTORS
330
D7
102
}
330
D7
100
AcDbXrecord
 90
       70
  0
XRECORD
  5
EF
102
{ACAD_REACTORS
330
D7
102
}
330
D7
100
AcDbXrecord
340
0
  0
XRECORD
  5
F5
102
{ACAD_REACTORS
330
D7
102
}
330
D7
100
AcDbXrecord
 10
0.0
 20
0.0
 30
0.0
  0
XRECORD
  5
F1
102
{ACAD_REACTORS
330
D7
102
}
330
D7
100
AcDbXrecord
 10
0.0
 20
0.0
 30
0.0
  0
XRECORD
  5
F4
102
{ACAD_REACTORS
330
D7
102
}
330
D7
100
AcDbXrecord
 10
0.0
 20
0.0
 30
0.0
  0
XRECORD
  5
F2
102
{ACAD_REACTORS
330
D7
102
}
330
D7
100
AcDbXrecord
 10
0.0
 20
0.0
 30
0.0
  0
XRECORD
  5
F3
102
{ACAD_REACTORS
330
D7
102
}
330
D7
100
AcDbXrecord
 10
0.0
 20
0.0
 30
0.0
  0
XRECORD
  5
F0
102
{ACAD_REACTORS
330
D7
102
}
330
D7
100
AcDbXrecord
 10
0.0
 20
0.0
 30
0.0
  0
XRECORD
  5
ED
102
{ACAD_REACTORS
330
D7
102
}
330
D7
100
AcDbXrecord
340
0
  0
XRECORD
  5
EE
102
{ACAD_REACTORS
330
D7
102
}
330
D7
100
AcDbXrecord
 70
     0
  0
XRECORD
  5
E2
102
{ACAD_REACTORS
330
D7
102
}
330
D7
100
AcDbXrecord
  1
{FAEB1C32-E019-11D5-929B-00C0DF256EC4}
  0
DICTIONARYVAR
  5
FA
102
{ACAD_REACTORS
330
F7
102
}
330
F7
100
DictionaryVariables
280
     0
  1
2
  0
DICTIONARYVAR
  5
FB
102
{ACAD_REACTORS
330
F7
102
}
330
F7
100
DictionaryVariables
280
     0
  1
1
  0
DICTIONARY
  5
FE
330
3D
100
AcDbDictionary
280
     1
  3
ACAD_XREC_ROUNDTRIP
360
FF
  0
DICTIONARY
  5
FC
330
3C
100
AcDbDictionary
280
     1
  3
ACAD_XREC_ROUNDTRIP
360
FD
  0
DICTIONARY
  5
100
330
3E
100
AcDbDictionary
280
     1
  3
ACAD_XREC_ROUNDTRIP
360
101
  0
XRECORD
  5
FF
102
{ACAD_REACTORS
330
FE
102
}
330
FE
100
AcDbXrecord
102
MATERIAL
148
0.0
149
0.0
149
0.0
 93
        0
 94
      127
282
     0
 72
     1
 77
     1
171
     1
175
     1
179
     1
273
     0
  0
XRECORD
  5
FD
102
{ACAD_REACTORS
330
FC
102
}
330
FC
100
AcDbXrecord
102
MATERIAL
148
0.0
149
0.0
149
0.0
 93
        0
 94
      127
282
     0
 72
     1
 77
     1
171
     1
175
     1
179
     1
273
     0
  0
XRECORD
  5
101
102
{ACAD_REACTORS
330
100
102
}
330
100
100
AcDbXrecord
102
MATERIAL
148
0.0
149
0.0
149
0.0
 93
        0
 94
      127
282
     0
 72
     1
 77
     1
171
     1
175
     1
179
     1
273
     0
  0
ENDSEC
  0
EOF
