  0
SECTION
  2
HEADER
  9
$ACADVER
  1
AC1014
  9
$ACADMAINTVER
 70
     9
  9
$DWGCODEPAGE
  3
ANSI_1250
  9
$INSBASE
 10
0.0
 20
0.0
 30
0.0
  9
$EXTMIN
 10
-30.4401
 20
-12.5879
 30
0.0
  9
$EXTMAX
 10
30.4465
 20
12.4468
 30
0.0
  9
$LIMMIN
 10
0.0
 20
0.0
  9
$LIMMAX
 10
12.0
 20
9.0
  9
$ORTHOMODE
 70
     0
  9
$REGENMODE
 70
     1
  9
$FILLMODE
 70
     1
  9
$QTEXTMODE
 70
     0
  9
$MIRRTEXT
 70
     1
  9
$DRAGMODE
 70
     2
  9
$LTSCALE
 40
1.0
  9
$OSMODE
 70
    37
  9
$ATTMODE
 70
     1
  9
$TEXTSIZE
 40
0.2
  9
$TRACEWID
 40
0.05
  9
$TEXTSTYLE
  7
STANDARD
  9
$CLAYER
  8
0
  9
$CELTYPE
  6
BYLAYER
  9
$CECOLOR
 62
   256
  9
$CELTSCALE
 40
1.0
  9
$DELOBJ
 70
     1
  9
$DISPSILH
 70
     0
  9
$DIMSCALE
 40
1.0
  9
$DIMASZ
 40
0.18
  9
$DIMEXO
 40
0.0625
  9
$DIMDLI
 40
0.38
  9
$DIMRND
 40
0.0
  9
$DIMDLE
 40
0.0
  9
$DIMEXE
 40
0.18
  9
$DIMTP
 40
0.0
  9
$DIMTM
 40
0.0
  9
$DIMTXT
 40
0.18
  9
$DIMCEN
 40
0.09
  9
$DIMTSZ
 40
0.0
  9
$DIMTOL
 70
     0
  9
$DIMLIM
 70
     0
  9
$DIMTIH
 70
     1
  9
$DIMTOH
 70
     1
  9
$DIMSE1
 70
     0
  9
$DIMSE2
 70
     0
  9
$DIMTAD
 70
     0
  9
$DIMZIN
 70
     0
  9
$DIMBLK
  1

  9
$DIMASO
 70
     1
  9
$DIMSHO
 70
     1
  9
$DIMPOST
  1

  9
$DIMAPOST
  1

  9
$DIMALT
 70
     0
  9
$DIMALTD
 70
     2
  9
$DIMALTF
 40
25.4
  9
$DIMLFAC
 40
1.0
  9
$DIMTOFL
 70
     0
  9
$DIMTVP
 40
0.0
  9
$DIMTIX
 70
     0
  9
$DIMSOXD
 70
     0
  9
$DIMSAH
 70
     0
  9
$DIMBLK1
  1

  9
$DIMBLK2
  1

  9
$DIMSTYLE
  2
STANDARD
  9
$DIMCLRD
 70
     0
  9
$DIMCLRE
 70
     0
  9
$DIMCLRT
 70
     0
  9
$DIMTFAC
 40
1.0
  9
$DIMGAP
 40
0.09
  9
$DIMJUST
 70
     0
  9
$DIMSD1
 70
     0
  9
$DIMSD2
 70
     0
  9
$DIMTOLJ
 70
     1
  9
$DIMTZIN
 70
     0
  9
$DIMALTZ
 70
     0
  9
$DIMALTTZ
 70
     0
  9
$DIMFIT
 70
     3
  9
$DIMUPT
 70
     0
  9
$DIMUNIT
 70
     2
  9
$DIMDEC
 70
     4
  9
$DIMTDEC
 70
     4
  9
$DIMALTU
 70
     2
  9
$DIMALTTD
 70
     2
  9
$DIMTXSTY
  7
STANDARD
  9
$DIMAUNIT
 70
     0
  9
$LUNITS
 70
     2
  9
$LUPREC
 70
     4
  9
$SKETCHINC
 40
0.1
  9
$FILLETRAD
 40
0.5
  9
$AUNITS
 70
     0
  9
$AUPREC
 70
     0
  9
$MENU
  1
.
  9
$ELEVATION
 40
0.0
  9
$PELEVATION
 40
0.0
  9
$THICKNESS
 40
0.0
  9
$LIMCHECK
 70
     0
  9
$CHAMFERA
 40
0.5
  9
$CHAMFERB
 40
0.5
  9
$CHAMFERC
 40
1.0
  9
$CHAMFERD
 40
0.0
  9
$SKPOLY
 70
     0
  9
$TDCREATE
 40
2456269.420601597
  9
$TDUPDATE
 40
2456269.420601609
  9
$TDINDWG
 40
0.0000000116
  9
$TDUSRTIMER
 40
0.0000000116
  9
$USRTIMER
 70
     1
  9
$ANGBASE
 50
0.0
  9
$ANGDIR
 70
     0
  9
$PDMODE
 70
     0
  9
$PDSIZE
 40
0.0
  9
$PLINEWID
 40
0.0
  9
$COORDS
 70
     1
  9
$SPLFRAME
 70
     0
  9
$SPLINETYPE
 70
     6
  9
$SPLINESEGS
 70
     8
  9
$ATTDIA
 70
     0
  9
$ATTREQ
 70
     1
  9
$HANDLING
 70
     1
  9
$HANDSEED
  5
BA
  9
$SURFTAB1
 70
     6
  9
$SURFTAB2
 70
     6
  9
$SURFTYPE
 70
     6
  9
$SURFU
 70
     6
  9
$SURFV
 70
     6
  9
$UCSNAME
  2

  9
$UCSORG
 10
0.0
 20
0.0
 30
0.0
  9
$UCSXDIR
 10
1.0
 20
0.0
 30
0.0
  9
$UCSYDIR
 10
0.0
 20
1.0
 30
0.0
  9
$PUCSNAME
  2

  9
$PUCSORG
 10
0.0
 20
0.0
 30
0.0
  9
$PUCSXDIR
 10
1.0
 20
0.0
 30
0.0
  9
$PUCSYDIR
 10
0.0
 20
1.0
 30
0.0
  9
$USERI1
 70
     0
  9
$USERI2
 70
     0
  9
$USERI3
 70
     0
  9
$USERI4
 70
     0
  9
$USERI5
 70
     0
  9
$USERR1
 40
0.0
  9
$USERR2
 40
0.0
  9
$USERR3
 40
0.0
  9
$USERR4
 40
0.0
  9
$USERR5
 40
0.0
  9
$WORLDVIEW
 70
     1
  9
$SHADEDGE
 70
     3
  9
$SHADEDIF
 70
    70
  9
$TILEMODE
 70
     1
  9
$MAXACTVP
 70
    64
  9
$PINSBASE
 10
0.0
 20
0.0
 30
0.0
  9
$PLIMCHECK
 70
     0
  9
$PEXTMIN
 10
1.000000000000000E+20
 20
1.000000000000000E+20
 30
1.000000000000000E+20
  9
$PEXTMAX
 10
-1.000000000000000E+20
 20
-1.000000000000000E+20
 30
-1.000000000000000E+20
  9
$PLIMMIN
 10
0.0
 20
0.0
  9
$PLIMMAX
 10
12.0
 20
9.0
  9
$UNITMODE
 70
     0
  9
$VISRETAIN
 70
     1
  9
$PLINEGEN
 70
     0
  9
$PSLTSCALE
 70
     1
  9
$TREEDEPTH
 70
  3020
  9
$PICKSTYLE
 70
     1
  9
$CMLSTYLE
  2
STANDARD
  9
$CMLJUST
 70
     0
  9
$CMLSCALE
 40
1.0
  9
$PROXYGRAPHICS
 70
     1
  9
$MEASUREMENT
 70
     0
  0
ENDSEC
  0
SECTION
  2
CLASSES
  0
CLASS
  1
ACDBDICTIONARYWDFLT
  2
AcDbDictionaryWithDefault
  3
ObjectDBX Classes
 90
        0
280
     0
281
     0
  0
CLASS
  1
VISUALSTYLE
  2
AcDbVisualStyle
  3
ObjectDBX Classes
 90
     4095
280
     0
281
     0
  0
CLASS
  1
MATERIAL
  2
AcDbMaterial
  3
ObjectDBX Classes
 90
     1153
280
     0
281
     0
  0
CLASS
  1
DICTIONARYVAR
  2
AcDbDictionaryVar
  3
ObjectDBX Classes
 90
        0
280
     0
281
     0
  0
CLASS
  1
XRECORD
  2
AcDbXrecord
  3
AutoCAD 2000
 90
        0
280
     0
281
     0
  0
CLASS
  1
LWPOLYLINE
  2
AcDbPolyline
  3
AutoCAD 2000
 90
        0
280
     0
281
     1
  0
CLASS
  1
HATCH
  2
AcDbHatch
  3
AutoCAD 2000
 90
        0
280
     0
281
     1
  0
CLASS
  1
ACDBPLACEHOLDER
  2
AcDbPlaceHolder
  3
ObjectDBX Classes
 90
        0
280
     0
281
     0
  0
CLASS
  1
LAYOUT
  2
AcDbLayout
  3
ObjectDBX Classes
 90
        0
280
     0
281
     0
  0
ENDSEC
  0
SECTION
  2
TABLES
  0
TABLE
  2
VPORT
  5
8
330
0
100
AcDbSymbolTable
 70
     1
  0
VPORT
  5
29
330
8
100
AcDbSymbolTableRecord
100
AcDbViewportTableRecord
  2
*ACTIVE
 70
     0
 10
0.0
 20
0.0
 11
1.0
 21
1.0
 12
10.42990654205607
 22
4.5
 13
0.0
 23
0.0
 14
0.5
 24
0.5
 15
0.5
 25
0.5
 16
0.0
 26
0.0
 36
1.0
 17
0.0
 27
0.0
 37
0.0
 40
9.0
 41
1.972972972850329
 42
50.0
 43
0.0
 44
0.0
 50
0.0
 51
0.0
 71
     0
 72
   100
 73
     1
 74
     3
 75
     0
 76
     0
 77
     0
 78
     0
  0
ENDTAB
  0
TABLE
  2
LTYPE
  5
5
330
0
100
AcDbSymbolTable
 70
    10
  0
LTYPE
  5
14
330
5
100
AcDbSymbolTableRecord
100
AcDbLinetypeTableRecord
  2
BYBLOCK
 70
     0
  3

 72
    65
 73
     0
 40
0.0
  0
LTYPE
  5
15
330
5
100
AcDbSymbolTableRecord
100
AcDbLinetypeTableRecord
  2
BYLAYER
 70
     0
  3

 72
    65
 73
     0
 40
0.0
  0
LTYPE
  5
16
330
5
100
AcDbSymbolTableRecord
100
AcDbLinetypeTableRecord
  2
CONTINUOUS
 70
     0
  3
Solid line
 72
    65
 73
     0
 40
0.0
  0
LTYPE
  5
42
330
5
100
AcDbSymbolTableRecord
100
AcDbLinetypeTableRecord
  2
NEW_LINE1
 70
     0
  3

 72
    65
 73
     4
 40
1.2
 49
0.5
 74
     4
 75
     0
340
0
 46
1.0
 50
0.0
 44
0.0
 45
0.0
 49
-0.3
 74
     4
 75
     0
340
0
 46
1.0
 50
0.0
 44
0.0
 45
0.0
 49
0.1
 74
     4
 75
     0
340
0
 46
1.0
 50
0.0
 44
0.0
 45
0.0
 49
-0.3
 74
     4
 75
     0
340
0
 46
1.0
 50
0.0
 44
0.0
 45
0.0
  0
LTYPE
  5
4C
330
5
100
AcDbSymbolTableRecord
100
AcDbLinetypeTableRecord
  2
NEW_LINE2
 70
     0
  3

 72
    65
 73
     4
 40
1.2
 49
0.5
 74
     4
 75
     0
340
0
 46
1.0
 50
0.0
 44
0.0
 45
0.0
 49
-0.3
 74
     4
 75
     0
340
0
 46
1.0
 50
0.0
 44
0.0
 45
0.0
 49
0.1
 74
     4
 75
     0
340
0
 46
1.0
 50
0.0
 44
0.0
 45
0.0
 49
-0.3
 74
     4
 75
     0
340
0
 46
1.0
 50
0.0
 44
0.0
 45
0.0
  0
LTYPE
  5
4E
330
5
100
AcDbSymbolTableRecord
100
AcDbLinetypeTableRecord
  2
NEW_LINE3
 70
     0
  3

 72
    65
 73
     4
 40
1.2
 49
0.5
 74
     4
 75
     0
340
0
 46
1.0
 50
0.0
 44
0.0
 45
0.0
 49
-0.3
 74
     4
 75
     0
340
0
 46
1.0
 50
0.0
 44
0.0
 45
0.0
 49
0.1
 74
     4
 75
     0
340
0
 46
1.0
 50
0.0
 44
0.0
 45
0.0
 49
-0.3
 74
     4
 75
     0
340
0
 46
1.0
 50
0.0
 44
0.0
 45
0.0
  0
LTYPE
  5
74
330
5
100
AcDbSymbolTableRecord
100
AcDbLinetypeTableRecord
  2
NEW_LINE4
 70
     0
  3

 72
    65
 73
     4
 40
1.2
 49
0.5
 74
     4
 75
     0
340
0
 46
1.0
 50
0.0
 44
0.0
 45
0.0
 49
-0.3
 74
     4
 75
     0
340
0
 46
1.0
 50
0.0
 44
0.0
 45
0.0
 49
0.1
 74
     4
 75
     0
340
0
 46
1.0
 50
0.0
 44
0.0
 45
0.0
 49
-0.3
 74
     4
 75
     0
340
0
 46
1.0
 50
0.0
 44
0.0
 45
0.0
  0
LTYPE
  5
7F
330
5
100
AcDbSymbolTableRecord
100
AcDbLinetypeTableRecord
  2
NEW_LINE5
 70
     0
  3

 72
    65
 73
     4
 40
1.2
 49
0.5
 74
     4
 75
     0
340
0
 46
1.0
 50
0.0
 44
0.0
 45
0.0
 49
-0.3
 74
     4
 75
     0
340
0
 46
1.0
 50
0.0
 44
0.0
 45
0.0
 49
0.1
 74
     4
 75
     0
340
0
 46
1.0
 50
0.0
 44
0.0
 45
0.0
 49
-0.3
 74
     4
 75
     0
340
0
 46
1.0
 50
0.0
 44
0.0
 45
0.0
  0
LTYPE
  5
81
330
5
100
AcDbSymbolTableRecord
100
AcDbLinetypeTableRecord
  2
NEW_LINE6
 70
     0
  3

 72
    65
 73
     4
 40
1.2
 49
0.5
 74
     4
 75
     0
340
0
 46
1.0
 50
0.0
 44
0.0
 45
0.0
 49
-0.3
 74
     4
 75
     0
340
0
 46
1.0
 50
0.0
 44
0.0
 45
0.0
 49
0.1
 74
     4
 75
     0
340
0
 46
1.0
 50
0.0
 44
0.0
 45
0.0
 49
-0.3
 74
     4
 75
     0
340
0
 46
1.0
 50
0.0
 44
0.0
 45
0.0
  0
LTYPE
  5
8A
330
5
100
AcDbSymbolTableRecord
100
AcDbLinetypeTableRecord
  2
NEW_LINE7
 70
     0
  3

 72
    65
 73
     4
 40
1.2
 49
0.5
 74
     4
 75
     0
340
0
 46
1.0
 50
0.0
 44
0.0
 45
0.0
 49
-0.3
 74
     4
 75
     0
340
0
 46
1.0
 50
0.0
 44
0.0
 45
0.0
 49
0.1
 74
     4
 75
     0
340
0
 46
1.0
 50
0.0
 44
0.0
 45
0.0
 49
-0.3
 74
     4
 75
     0
340
0
 46
1.0
 50
0.0
 44
0.0
 45
0.0
  0
LTYPE
  5
8C
330
5
100
AcDbSymbolTableRecord
100
AcDbLinetypeTableRecord
  2
NEW_LINE8
 70
     0
  3

 72
    65
 73
     4
 40
1.2
 49
0.5
 74
     4
 75
     0
340
0
 46
1.0
 50
0.0
 44
0.0
 45
0.0
 49
-0.3
 74
     4
 75
     0
340
0
 46
1.0
 50
0.0
 44
0.0
 45
0.0
 49
0.1
 74
     4
 75
     0
340
0
 46
1.0
 50
0.0
 44
0.0
 45
0.0
 49
-0.3
 74
     4
 75
     0
340
0
 46
1.0
 50
0.0
 44
0.0
 45
0.0
  0
LTYPE
  5
8E
330
5
100
AcDbSymbolTableRecord
100
AcDbLinetypeTableRecord
  2
NEW_LINE9
 70
     0
  3

 72
    65
 73
     4
 40
1.2
 49
0.5
 74
     4
 75
     0
340
0
 46
1.0
 50
0.0
 44
0.0
 45
0.0
 49
-0.3
 74
     4
 75
     0
340
0
 46
1.0
 50
0.0
 44
0.0
 45
0.0
 49
0.1
 74
     4
 75
     0
340
0
 46
1.0
 50
0.0
 44
0.0
 45
0.0
 49
-0.3
 74
     4
 75
     0
340
0
 46
1.0
 50
0.0
 44
0.0
 45
0.0
  0
ENDTAB
  0
TABLE
  2
LAYER
  5
2
330
0
100
AcDbSymbolTable
 70
     2
  0
LAYER
  5
10
330
2
100
AcDbSymbolTableRecord
100
AcDbLayerTableRecord
  2
0
 70
     0
 62
     7
  6
CONTINUOUS
  0
LAYER
  5
40
330
2
100
AcDbSymbolTableRecord
100
AcDbLayerTableRecord
  2
ROUND
 70
     0
 62
     7
  6
CONTINUOUS
  0
ENDTAB
  0
TABLE
  2
STYLE
  5
3
330
0
100
AcDbSymbolTable
 70
     1
  0
STYLE
  5
11
330
3
100
AcDbSymbolTableRecord
100
AcDbTextStyleTableRecord
  2
STANDARD
 70
     0
 40
0.0
 41
1.0
 50
0.0
 71
     0
 42
0.2
  3
txt
  4

  0
ENDTAB
  0
TABLE
  2
VIEW
  5
6
330
0
100
AcDbSymbolTable
 70
     0
  0
ENDTAB
  0
TABLE
  2
UCS
  5
7
330
0
100
AcDbSymbolTable
 70
     0
  0
ENDTAB
  0
TABLE
  2
APPID
  5
9
330
0
100
AcDbSymbolTable
 70
     2
  0
APPID
  5
12
330
9
100
AcDbSymbolTableRecord
100
AcDbRegAppTableRecord
  2
ACAD
 70
     0
  0
APPID
  5
3F
330
9
100
AcDbSymbolTableRecord
100
AcDbRegAppTableRecord
  2
ODA
 70
     0
  0
ENDTAB
  0
TABLE
  2
DIMSTYLE
  5
A
330
0
100
AcDbSymbolTable
 70
     1
  0
DIMSTYLE
105
27
330
A
100
AcDbSymbolTableRecord
100
AcDbDimStyleTableRecord
  2
STANDARD
 70
     0
  3

  4

  5

  6

  7

 40
1.0
 41
0.18
 42
0.0625
 43
0.38
 44
0.18
 45
0.0
 46
0.0
 47
0.0
 48
0.0
140
0.18
141
0.09
142
0.0
143
25.4
144
1.0
145
0.0
146
1.0
147
0.09
 71
     0
 72
     0
 73
     1
 74
     1
 75
     0
 76
     0
 77
     0
 78
     0
170
     0
171
     2
172
     0
173
     0
174
     0
175
     0
176
     0
177
     0
178
     0
270
     2
271
     4
272
     4
273
     2
274
     2
340
11
275
     0
280
     0
281
     0
282
     0
283
     1
284
     0
285
     0
286
     0
287
     3
288
     0
  0
ENDTAB
  0
TABLE
  2
BLOCK_RECORD
  5
1
330
0
100
AcDbSymbolTable
 70
     1
  0
BLOCK_RECORD
  5
1F
330
1
100
AcDbSymbolTableRecord
100
AcDbBlockTableRecord
  2
*MODEL_SPACE
  0
BLOCK_RECORD
  5
1B
330
1
100
AcDbSymbolTableRecord
100
AcDbBlockTableRecord
  2
*PAPER_SPACE
  0
ENDTAB
  0
ENDSEC
  0
SECTION
  2
BLOCKS
  0
BLOCK
  5
20
330
1F
100
AcDbEntity
  8
0
100
AcDbBlockBegin
  2
*MODEL_SPACE
 70
     0
 10
0.0
 20
0.0
 30
0.0
  3
*MODEL_SPACE
  1

  0
ENDBLK
  5
21
330
1F
100
AcDbEntity
  8
0
100
AcDbBlockEnd
  0
BLOCK
  5
1C
330
1B
100
AcDbEntity
 67
     1
  8
0
100
AcDbBlockBegin
  2
*PAPER_SPACE
 70
     0
 10
0.0
 20
0.0
 30
0.0
  3
*PAPER_SPACE
  1

  0
ENDBLK
  5
1D
330
1B
100
AcDbEntity
 67
     1
  8
0
100
AcDbBlockEnd
  0
ENDSEC
  0
SECTION
  2
ENTITIES
  0
SPLINE
  5
41
330
1F
100
AcDbEntity
  8
ROUND
  6
NEW_LINE1
 62
   250
100
AcDbSpline
210
0.0
220
0.0
230
1.0
 70
    24
 71
     3
 72
     8
 73
     4
 74
     0
 42
0.0000000001
 43
0.0000000001
 40
0.0
 40
0.0
 40
0.0
 40
0.0
 40
1.0
 40
1.0
 40
1.0
 40
1.0
 10
-27.0698
 20
-10.7429
 30
0.0
 10
-27.0698
 20
-10.7429
 30
0.0
 10
-28.7171
 20
7.9432
 30
0.0
 10
-28.7171
 20
7.9432
 30
0.0
  0
SPLINE
  5
43
330
1F
100
AcDbEntity
  8
ROUND
 62
   250
100
AcDbSpline
210
0.0
220
0.0
230
1.0
 70
    11
 71
     3
 72
    84
 73
    80
 74
     0
 42
0.0000000001
 43
0.0000000001
 40
0.0
 40
0.0
 40
0.0
 40
0.0
 40
0.0476190476190476
 40
0.0476190476190476
 40
0.0476190476190476
 40
0.0476190476190476
 40
0.0952380952380952
 40
0.0952380952380952
 40
0.0952380952380952
 40
0.0952380952380952
 40
0.1428571428571428
 40
0.1428571428571428
 40
0.1428571428571428
 40
0.1428571428571428
 40
0.1904761904761905
 40
0.1904761904761905
 40
0.1904761904761905
 40
0.1904761904761905
 40
0.2380952380952381
 40
0.2380952380952381
 40
0.2380952380952381
 40
0.2380952380952381
 40
0.2857142857142857
 40
0.2857142857142857
 40
0.2857142857142857
 40
0.2857142857142857
 40
0.3333333333333333
 40
0.3333333333333333
 40
0.3333333333333333
 40
0.3333333333333333
 40
0.3809523809523809
 40
0.3809523809523809
 40
0.3809523809523809
 40
0.3809523809523809
 40
0.4285714285714285
 40
0.4285714285714285
 40
0.4285714285714285
 40
0.4285714285714285
 40
0.4761904761904762
 40
0.4761904761904762
 40
0.4761904761904762
 40
0.4761904761904762
 40
0.5238095238095238
 40
0.5238095238095238
 40
0.5238095238095238
 40
0.5238095238095238
 40
0.5714285714285714
 40
0.5714285714285714
 40
0.5714285714285714
 40
0.5714285714285714
 40
0.6190476190476191
 40
0.6190476190476191
 40
0.6190476190476191
 40
0.6190476190476191
 40
0.6666666666666666
 40
0.6666666666666666
 40
0.6666666666666666
 40
0.6666666666666666
 40
0.7142857142857143
 40
0.7142857142857143
 40
0.7142857142857143
 40
0.7142857142857143
 40
0.7619047619047619
 40
0.7619047619047619
 40
0.7619047619047619
 40
0.7619047619047619
 40
0.8095238095238095
 40
0.8095238095238095
 40
0.8095238095238095
 40
0.8095238095238095
 40
0.8571428571428571
 40
0.8571428571428571
 40
0.8571428571428571
 40
0.8571428571428571
 40
0.9047619047619048
 40
0.9047619047619048
 40
0.9047619047619048
 40
0.9047619047619048
 40
1.0
 40
1.0
 40
1.0
 40
1.0
 10
-29.999
 20
-3.0154
 30
0.0
 10
-29.999
 20
-3.0154
 30
0.0
 10
-30.2772
 20
-2.8074
 30
0.0
 10
-30.2772
 20
-2.8074
 30
0.0
 10
-30.2772
 20
-2.8074
 30
0.0
 10
-30.2772
 20
-2.8074
 30
0.0
 10
-30.1739
 20
-2.6615
 30
0.0
 10
-30.1739
 20
-2.6615
 30
0.0
 10
-30.1739
 20
-2.6615
 30
0.0
 10
-30.1739
 20
-2.6615
 30
0.0
 10
-29.881
 20
-2.879
 30
0.0
 10
-29.881
 20
-2.879
 30
0.0
 10
-29.881
 20
-2.879
 30
0.0
 10
-29.7707
 20
-2.79
 30
0.0
 10
-29.6728
 20
-2.7281
 30
0.0
 10
-29.5876
 20
-2.6928
 30
0.0
 10
-29.5876
 20
-2.6928
 30
0.0
 10
-29.4754
 20
-2.6461
 30
0.0
 10
-29.3477
 20
-2.6166
 30
0.0
 10
-29.2053
 20
-2.6041
 30
0.0
 10
-29.2053
 20
-2.6041
 30
0.0
 10
-28.9992
 20
-2.5861
 30
0.0
 10
-28.8118
 20
-2.6117
 30
0.0
 10
-28.6438
 20
-2.6811
 30
0.0
 10
-28.6438
 20
-2.6811
 30
0.0
 10
-28.4753
 20
-2.7503
 30
0.0
 10
-28.3433
 20
-2.8564
 30
0.0
 10
-28.2477
 20
-2.9996
 30
0.0
 10
-28.2477
 20
-2.9996
 30
0.0
 10
-28.1525
 20
-3.1433
 30
0.0
 10
-28.0973
 20
-3.2994
 30
0.0
 10
-28.0825
 20
-3.4685
 30
0.0
 10
-28.0825
 20
-3.4685
 30
0.0
 10
-28.0714
 20
-3.5951
 30
0.0
 10
-28.0791
 20
-3.711
 30
0.0
 10
-28.1058
 20
-3.8167
 30
0.0
 10
-28.1058
 20
-3.8167
 30
0.0
 10
-28.1265
 20
-3.8978
 30
0.0
 10
-28.171
 20
-3.9943
 30
0.0
 10
-28.2396
 20
-4.1066
 30
0.0
 10
-28.2396
 20
-4.1066
 30
0.0
 10
-28.2396
 20
-4.1066
 30
0.0
 10
-27.9612
 20
-4.3145
 30
0.0
 10
-27.9612
 20
-4.3145
 30
0.0
 10
-27.9612
 20
-4.3145
 30
0.0
 10
-27.9612
 20
-4.3145
 30
0.0
 10
-28.0646
 20
-4.4605
 30
0.0
 10
-28.0646
 20
-4.4605
 30
0.0
 10
-28.0646
 20
-4.4605
 30
0.0
 10
-28.0646
 20
-4.4605
 30
0.0
 10
-28.3561
 20
-4.2423
 30
0.0
 10
-28.3561
 20
-4.2423
 30
0.0
 10
-28.3561
 20
-4.2423
 30
0.0
 10
-28.4846
 20
-4.3442
 30
0.0
 10
-28.596
 20
-4.4144
 30
0.0
 10
-28.6899
 20
-4.4528
 30
0.0
 10
-28.6899
 20
-4.4528
 30
0.0
 10
-28.7838
 20
-4.4913
 30
0.0
 10
-28.8987
 20
-4.5169
 30
0.0
 10
-29.0341
 20
-4.5287
 30
0.0
 10
-29.0341
 20
-4.5287
 30
0.0
 10
-29.2407
 20
-4.5468
 30
0.0
 10
-29.4285
 20
-4.5217
 30
0.0
 10
-29.5974
 20
-4.4534
 30
0.0
 10
-29.5974
 20
-4.4534
 30
0.0
 10
-29.7663
 20
-4.3851
 30
0.0
 10
-29.8986
 20
-4.2805
 30
0.0
 10
-29.995
 20
-4.1388
 30
0.0
 10
-29.995
 20
-4.1388
 30
0.0
 10
-30.091
 20
-3.9975
 30
0.0
 10
-30.1472
 20
-3.8357
 30
0.0
 10
-30.1632
 20
-3.6535
 30
0.0
 10
-30.1632
 20
-3.6535
 30
0.0
 10
-30.1739
 20
-3.5307
 30
0.0
 10
-30.1674
 20
-3.422
 30
0.0
 10
-30.1425
 20
-3.3273
 30
0.0
 10
-30.1425
 20
-3.3273
 30
0.0
 10
-30.1183
 20
-3.2326
 30
0.0
 10
-30.0703
 20
-3.1283
 30
0.0
 10
-29.999
 20
-3.0154
 30
0.0
  0
SPLINE
  5
44
330
1F
100
AcDbEntity
  8
ROUND
 62
   250
100
AcDbSpline
210
0.0
220
0.0
230
1.0
 70
    11
 71
     3
 72
    32
 73
    28
 74
     0
 42
0.0000000001
 43
0.0000000001
 40
0.0
 40
0.0
 40
0.0
 40
0.0
 40
0.125
 40
0.125
 40
0.125
 40
0.125
 40
0.25
 40
0.25
 40
0.25
 40
0.25
 40
0.375
 40
0.375
 40
0.375
 40
0.375
 40
0.5
 40
0.5
 40
0.5
 40
0.5
 40
0.625
 40
0.625
 40
0.625
 40
0.625
 40
0.75
 40
0.75
 40
0.75
 40
0.75
 40
1.0
 40
1.0
 40
1.0
 40
1.0
 10
-29.7995
 20
-3.1636
 30
0.0
 10
-29.8594
 20
-3.2558
 30
0.0
 10
-29.8992
 20
-3.3353
 30
0.0
 10
-29.9184
 20
-3.4016
 30
0.0
 10
-29.9184
 20
-3.4016
 30
0.0
 10
-29.9371
 20
-3.4684
 30
0.0
 10
-29.9432
 20
-3.5454
 30
0.0
 10
-29.9356
 20
-3.6322
 30
0.0
 10
-29.9356
 20
-3.6322
 30
0.0
 10
-29.918
 20
-3.8327
 30
0.0
 10
-29.8356
 20
-3.9921
 30
0.0
 10
-29.6882
 20
-4.1114
 30
0.0
 10
-29.6882
 20
-4.1114
 30
0.0
 10
-29.5408
 20
-4.2304
 30
0.0
 10
-29.3323
 20
-4.2782
 30
0.0
 10
-29.0619
 20
-4.2545
 30
0.0
 10
-29.0619
 20
-4.2545
 30
0.0
 10
-28.956
 20
-4.2452
 30
0.0
 10
-28.8627
 20
-4.2267
 30
0.0
 10
-28.7819
 20
-4.1993
 30
0.0
 10
-28.7819
 20
-4.1993
 30
0.0
 10
-28.7218
 20
-4.1794
 30
0.0
 10
-28.6491
 20
-4.1424
 30
0.0
 10
-28.5637
 20
-4.0877
 30
0.0
 10
-28.5637
 20
-4.0877
 30
0.0
 10
-28.5637
 20
-4.0877
 30
0.0
 10
-29.7995
 20
-3.1636
 30
0.0
 10
-29.7995
 20
-3.1636
 30
0.0
  0
SPLINE
  5
45
330
1F
100
AcDbEntity
  8
ROUND
 62
   250
100
AcDbSpline
210
0.0
220
0.0
230
1.0
 70
    11
 71
     3
 72
    28
 73
    24
 74
     0
 42
0.0000000001
 43
0.0000000001
 40
0.0
 40
0.0
 40
0.0
 40
0.0
 40
0.1428571428571428
 40
0.1428571428571428
 40
0.1428571428571428
 40
0.1428571428571428
 40
0.2857142857142857
 40
0.2857142857142857
 40
0.2857142857142857
 40
0.2857142857142857
 40
0.4285714285714285
 40
0.4285714285714285
 40
0.4285714285714285
 40
0.4285714285714285
 40
0.5714285714285714
 40
0.5714285714285714
 40
0.5714285714285714
 40
0.5714285714285714
 40
0.7142857142857143
 40
0.7142857142857143
 40
0.7142857142857143
 40
0.7142857142857143
 40
1.0
 40
1.0
 40
1.0
 40
1.0
 10
-29.6678
 20
-3.0388
 30
0.0
 10
-29.6678
 20
-3.0388
 30
0.0
 10
-28.4366
 20
-3.959
 30
0.0
 10
-28.4366
 20
-3.959
 30
0.0
 10
-28.4366
 20
-3.959
 30
0.0
 10
-28.3851
 20
-3.8837
 30
0.0
 10
-28.3505
 20
-3.815
 30
0.0
 10
-28.3328
 20
-3.7534
 30
0.0
 10
-28.3328
 20
-3.7534
 30
0.0
 10
-28.3091
 20
-3.6731
 30
0.0
 10
-28.3015
 20
-3.5874
 30
0.0
 10
-28.3095
 20
-3.4969
 30
0.0
 10
-28.3095
 20
-3.4969
 30
0.0
 10
-28.3269
 20
-3.2973
 30
0.0
 10
-28.4115
 20
-3.139
 30
0.0
 10
-28.564
 20
-3.0211
 30
0.0
 10
-28.564
 20
-3.0211
 30
0.0
 10
-28.7164
 20
-2.9037
 30
0.0
 10
-28.9199
 20
-2.8558
 30
0.0
 10
-29.1743
 20
-2.8781
 30
0.0
 10
-29.1743
 20
-2.8781
 30
0.0
 10
-29.3645
 20
-2.8947
 30
0.0
 10
-29.5293
 20
-2.9483
 30
0.0
 10
-29.6678
 20
-3.0388
 30
0.0
  0
SPLINE
  5
46
330
1F
100
AcDbEntity
  8
ROUND
 62
   250
100
AcDbSpline
210
0.0
220
0.0
230
1.0
 70
    11
 71
     3
 72
    92
 73
    88
 74
     0
 42
0.0000000001
 43
0.0000000001
 40
0.0
 40
0.0
 40
0.0
 40
0.0
 40
0.0434782608695652
 40
0.0434782608695652
 40
0.0434782608695652
 40
0.0434782608695652
 40
0.0869565217391304
 40
0.0869565217391304
 40
0.0869565217391304
 40
0.0869565217391304
 40
0.1304347826086956
 40
0.1304347826086956
 40
0.1304347826086956
 40
0.1304347826086956
 40
0.1739130434782609
 40
0.1739130434782609
 40
0.1739130434782609
 40
0.1739130434782609
 40
0.2173913043478261
 40
0.2173913043478261
 40
0.2173913043478261
 40
0.2173913043478261
 40
0.2608695652173913
 40
0.2608695652173913
 40
0.2608695652173913
 40
0.2608695652173913
 40
0.3043478260869565
 40
0.3043478260869565
 40
0.3043478260869565
 40
0.3043478260869565
 40
0.3478260869565217
 40
0.3478260869565217
 40
0.3478260869565217
 40
0.3478260869565217
 40
0.391304347826087
 40
0.391304347826087
 40
0.391304347826087
 40
0.391304347826087
 40
0.4347826086956522
 40
0.4347826086956522
 40
0.4347826086956522
 40
0.4347826086956522
 40
0.4782608695652174
 40
0.4782608695652174
 40
0.4782608695652174
 40
0.4782608695652174
 40
0.5217391304347826
 40
0.5217391304347826
 40
0.5217391304347826
 40
0.5217391304347826
 40
0.5652173913043478
 40
0.5652173913043478
 40
0.5652173913043478
 40
0.5652173913043478
 40
0.6086956521739131
 40
0.6086956521739131
 40
0.6086956521739131
 40
0.6086956521739131
 40
0.6521739130434783
 40
0.6521739130434783
 40
0.6521739130434783
 40
0.6521739130434783
 40
0.6956521739130435
 40
0.6956521739130435
 40
0.6956521739130435
 40
0.6956521739130435
 40
0.7391304347826086
 40
0.7391304347826086
 40
0.7391304347826086
 40
0.7391304347826086
 40
0.782608695652174
 40
0.782608695652174
 40
0.782608695652174
 40
0.782608695652174
 40
0.8260869565217391
 40
0.8260869565217391
 40
0.8260869565217391
 40
0.8260869565217391
 40
0.8695652173913043
 40
0.8695652173913043
 40
0.8695652173913043
 40
0.8695652173913043
 40
0.9130434782608695
 40
0.9130434782608695
 40
0.9130434782608695
 40
0.9130434782608695
 40
1.0
 40
1.0
 40
1.0
 40
1.0
 10
-28.7491
 20
-2.314
 30
0.0
 10
-28.7491
 20
-2.314
 30
0.0
 10
-28.7939
 20
-2.0563
 30
0.0
 10
-28.7939
 20
-2.0563
 30
0.0
 10
-28.7939
 20
-2.0563
 30
0.0
 10
-28.669
 20
-2.026
 30
0.0
 10
-28.5783
 20
-1.9732
 30
0.0
 10
-28.5206
 20
-1.8978
 30
0.0
 10
-28.5206
 20
-1.8978
 30
0.0
 10
-28.463
 20
-1.822
 30
0.0
 10
-28.4385
 20
-1.7348
 30
0.0
 10
-28.4472
 20
-1.636
 30
0.0
 10
-28.4472
 20
-1.636
 30
0.0
 10
-28.4576
 20
-1.5169
 30
0.0
 10
-28.5114
 20
-1.4201
 30
0.0
 10
-28.6081
 20
-1.346
 30
0.0
 10
-28.6081
 20
-1.346
 30
0.0
 10
-28.7052
 20
-1.2714
 30
0.0
 10
-28.8279
 20
-1.2405
 30
0.0
 10
-28.9759
 20
-1.2535
 30
0.0
 10
-28.9759
 20
-1.2535
 30
0.0
 10
-29.117
 20
-1.2658
 30
0.0
 10
-29.2246
 20
-1.3149
 30
0.0
 10
-29.2992
 20
-1.4012
 30
0.0
 10
-29.2992
 20
-1.4012
 30
0.0
 10
-29.3738
 20
-1.4876
 30
0.0
 10
-29.4055
 20
-1.5946
 30
0.0
 10
-29.3943
 20
-1.723
 30
0.0
 10
-29.3943
 20
-1.723
 30
0.0
 10
-29.3873
 20
-1.8027
 30
0.0
 10
-29.3628
 20
-1.8728
 30
0.0
 10
-29.3211
 20
-1.9339
 30
0.0
 10
-29.3211
 20
-1.9339
 30
0.0
 10
-29.2794
 20
-1.9949
 30
0.0
 10
-29.2282
 20
-2.0409
 30
0.0
 10
-29.1673
 20
-2.0724
 30
0.0
 10
-29.1673
 20
-2.0724
 30
0.0
 10
-29.1673
 20
-2.0724
 30
0.0
 10
-29.177
 20
-2.307
 30
0.0
 10
-29.177
 20
-2.307
 30
0.0
 10
-29.177
 20
-2.307
 30
0.0
 10
-29.177
 20
-2.307
 30
0.0
 10
-30.2278
 20
-2.2025
 30
0.0
 10
-30.2278
 20
-2.2025
 30
0.0
 10
-30.2278
 20
-2.2025
 30
0.0
 10
-30.2278
 20
-2.2025
 30
0.0
 10
-30.3153
 20
-1.2016
 30
0.0
 10
-30.3153
 20
-1.2016
 30
0.0
 10
-30.3153
 20
-1.2016
 30
0.0
 10
-30.3153
 20
-1.2016
 30
0.0
 10
-30.0791
 20
-1.181
 30
0.0
 10
-30.0791
 20
-1.181
 30
0.0
 10
-30.0791
 20
-1.181
 30
0.0
 10
-30.0791
 20
-1.181
 30
0.0
 10
-30.0089
 20
-1.9841
 30
0.0
 10
-30.0089
 20
-1.9841
 30
0.0
 10
-30.0089
 20
-1.9841
 30
0.0
 10
-30.0089
 20
-1.9841
 30
0.0
 10
-29.4586
 20
-2.0455
 30
0.0
 10
-29.4586
 20
-2.0455
 30
0.0
 10
-29.4586
 20
-2.0455
 30
0.0
 10
-29.5536
 20
-1.932
 30
0.0
 10
-29.6068
 20
-1.8087
 30
0.0
 10
-29.6184
 20
-1.6761
 30
0.0
 10
-29.6184
 20
-1.6761
 30
0.0
 10
-29.6338
 20
-1.5004
 30
0.0
 10
-29.5859
 20
-1.347
 30
0.0
 10
-29.4746
 20
-1.2154
 30
0.0
 10
-29.4746
 20
-1.2154
 30
0.0
 10
-29.3634
 20
-1.0839
 30
0.0
 10
-29.2122
 20
-1.0098
 30
0.0
 10
-29.021
 20
-0.993
 30
0.0
 10
-29.021
 20
-0.993
 30
0.0
 10
-28.8387
 20
-0.9771
 30
0.0
 10
-28.6765
 20
-1.0167
 30
0.0
 10
-28.5347
 20
-1.111
 30
0.0
 10
-28.5347
 20
-1.111
 30
0.0
 10
-28.3608
 20
-1.2261
 30
0.0
 10
-28.2639
 20
-1.3952
 30
0.0
 10
-28.2444
 20
-1.6182
 30
0.0
 10
-28.2444
 20
-1.6182
 30
0.0
 10
-28.2283
 20
-1.8014
 30
0.0
 10
-28.2663
 20
-1.9553
 30
0.0
 10
-28.3587
 20
-2.08
 30
0.0
 10
-28.3587
 20
-2.08
 30
0.0
 10
-28.4513
 20
-2.2048
 30
0.0
 10
-28.5814
 20
-2.2827
 30
0.0
 10
-28.7491
 20
-2.314
 30
0.0
  0
SPLINE
  5
47
330
1F
100
AcDbEntity
  8
ROUND
 62
   250
100
AcDbSpline
210
0.0
220
0.0
230
1.0
 70
    11
 71
     3
 72
    52
 73
    48
 74
     0
 42
0.0000000001
 43
0.0000000001
 40
0.0
 40
0.0
 40
0.0
 40
0.0
 40
0.0769230769230769
 40
0.0769230769230769
 40
0.0769230769230769
 40
0.0769230769230769
 40
0.1538461538461539
 40
0.1538461538461539
 40
0.1538461538461539
 40
0.1538461538461539
 40
0.2307692307692308
 40
0.2307692307692308
 40
0.2307692307692308
 40
0.2307692307692308
 40
0.3076923076923077
 40
0.3076923076923077
 40
0.3076923076923077
 40
0.3076923076923077
 40
0.3846153846153846
 40
0.3846153846153846
 40
0.3846153846153846
 40
0.3846153846153846
 40
0.4615384615384616
 40
0.4615384615384616
 40
0.4615384615384616
 40
0.4615384615384616
 40
0.5384615384615384
 40
0.5384615384615384
 40
0.5384615384615384
 40
0.5384615384615384
 40
0.6153846153846154
 40
0.6153846153846154
 40
0.6153846153846154
 40
0.6153846153846154
 40
0.6923076923076923
 40
0.6923076923076923
 40
0.6923076923076923
 40
0.6923076923076923
 40
0.7692307692307693
 40
0.7692307692307693
 40
0.7692307692307693
 40
0.7692307692307693
 40
0.8461538461538461
 40
0.8461538461538461
 40
0.8461538461538461
 40
0.8461538461538461
 40
1.0
 40
1.0
 40
1.0
 40
1.0
 10
-29.3512
 20
-0.791
 30
0.0
 10
-29.5892
 20
-0.8119
 30
0.0
 10
-29.7831
 20
-0.8042
 30
0.0
 10
-29.9321
 20
-0.7677
 30
0.0
 10
-29.9321
 20
-0.7677
 30
0.0
 10
-30.0816
 20
-0.7317
 30
0.0
 10
-30.2
 20
-0.6683
 30
0.0
 10
-30.2872
 20
-0.5787
 30
0.0
 10
-30.2872
 20
-0.5787
 30
0.0
 10
-30.3744
 20
-0.4891
 30
0.0
 10
-30.4243
 20
-0.3712
 30
0.0
 10
-30.4371
 20
-0.225
 30
0.0
 10
-30.4371
 20
-0.225
 30
0.0
 10
-30.4466
 20
-0.1167
 30
0.0
 10
-30.4329
 20
-0.0202
 30
0.0
 10
-30.3964
 20
0.0651
 30
0.0
 10
-30.3964
 20
0.0651
 30
0.0
 10
-30.3605
 20
0.1505
 30
0.0
 10
-30.3035
 20
0.223
 30
0.0
 10
-30.2261
 20
0.2836
 30
0.0
 10
-30.2261
 20
0.2836
 30
0.0
 10
-30.1488
 20
0.3437
 30
0.0
 10
-30.0526
 20
0.3941
 30
0.0
 10
-29.9377
 20
0.4344
 30
0.0
 10
-29.9377
 20
0.4344
 30
0.0
 10
-29.8227
 20
0.4752
 30
0.0
 10
-29.6656
 20
0.504
 30
0.0
 10
-29.466
 20
0.5215
 30
0.0
 10
-29.466
 20
0.5215
 30
0.0
 10
-29.2299
 20
0.5421
 30
0.0
 10
-29.0375
 20
0.5344
 30
0.0
 10
-28.888
 20
0.4988
 30
0.0
 10
-28.888
 20
0.4988
 30
0.0
 10
-28.7385
 20
0.4628
 30
0.0
 10
-28.6202
 20
0.4
 30
0.0
 10
-28.5325
 20
0.3104
 30
0.0
 10
-28.5325
 20
0.3104
 30
0.0
 10
-28.4449
 20
0.2208
 30
0.0
 10
-28.3949
 20
0.1024
 30
0.0
 10
-28.382
 20
-0.0452
 30
0.0
 10
-28.382
 20
-0.0452
 30
0.0
 10
-28.365
 20
-0.2392
 30
0.0
 10
-28.421
 20
-0.3976
 30
0.0
 10
-28.5505
 20
-0.5203
 30
0.0
 10
-28.5505
 20
-0.5203
 30
0.0
 10
-28.7062
 20
-0.6675
 30
0.0
 10
-28.9735
 20
-0.758
 30
0.0
 10
-29.3512
 20
-0.791
 30
0.0
  0
SPLINE
  5
48
330
1F
100
AcDbEntity
  8
ROUND
 62
   250
100
AcDbSpline
210
0.0
220
0.0
230
1.0
 70
    11
 71
     3
 72
    36
 73
    32
 74
     0
 42
0.0000000001
 43
0.0000000001
 40
0.0
 40
0.0
 40
0.0
 40
0.0
 40
0.1111111111111111
 40
0.1111111111111111
 40
0.1111111111111111
 40
0.1111111111111111
 40
0.2222222222222222
 40
0.2222222222222222
 40
0.2222222222222222
 40
0.2222222222222222
 40
0.3333333333333333
 40
0.3333333333333333
 40
0.3333333333333333
 40
0.3333333333333333
 40
0.4444444444444444
 40
0.4444444444444444
 40
0.4444444444444444
 40
0.4444444444444444
 40
0.5555555555555556
 40
0.5555555555555556
 40
0.5555555555555556
 40
0.5555555555555556
 40
0.6666666666666666
 40
0.6666666666666666
 40
0.6666666666666666
 40
0.6666666666666666
 40
0.7777777777777778
 40
0.7777777777777778
 40
0.7777777777777778
 40
0.7777777777777778
 40
1.0
 40
1.0
 40
1.0
 40
1.0
 10
-29.3734
 20
-0.537
 30
0.0
 10
-29.043
 20
-0.5081
 30
0.0
 10
-28.8267
 20
-0.45
 30
0.0
 10
-28.7239
 20
-0.3631
 30
0.0
 10
-28.7239
 20
-0.3631
 30
0.0
 10
-28.6214
 20
-0.2763
 30
0.0
 10
-28.5749
 20
-0.1763
 30
0.0
 10
-28.5848
 20
-0.063
 30
0.0
 10
-28.5848
 20
-0.063
 30
0.0
 10
-28.5948
 20
0.0509
 30
0.0
 10
-28.6584
 20
0.1412
 30
0.0
 10
-28.7748
 20
0.2089
 30
0.0
 10
-28.7748
 20
0.2089
 30
0.0
 10
-28.8913
 20
0.2766
 30
0.0
 10
-29.1144
 20
0.2963
 30
0.0
 10
-29.4438
 20
0.2675
 30
0.0
 10
-29.4438
 20
0.2675
 30
0.0
 10
-29.7751
 20
0.2385
 30
0.0
 10
-29.992
 20
0.1803
 30
0.0
 10
-30.0939
 20
0.0935
 30
0.0
 10
-30.0939
 20
0.0935
 30
0.0
 10
-30.1963
 20
0.0066
 30
0.0
 10
-30.2422
 20
-0.0941
 30
0.0
 10
-30.2321
 20
-0.2094
 30
0.0
 10
-30.2321
 20
-0.2094
 30
0.0
 10
-30.2221
 20
-0.3233
 30
0.0
 10
-30.166
 20
-0.4095
 30
0.0
 10
-30.064
 20
-0.469
 30
0.0
 10
-30.064
 20
-0.469
 30
0.0
 10
-29.9343
 20
-0.5431
 30
0.0
 10
-29.7037
 20
-0.5659
 30
0.0
 10
-29.3734
 20
-0.537
 30
0.0
  0
SPLINE
  5
49
330
1F
100
AcDbEntity
  8
ROUND
 62
   250
100
AcDbSpline
210
0.0
220
0.0
230
1.0
 70
    11
 71
     3
 72
    20
 73
    16
 74
     0
 42
0.0000000001
 43
0.0000000001
 40
0.0
 40
0.0
 40
0.0
 40
0.0
 40
0.2
 40
0.2
 40
0.2
 40
0.2
 40
0.4
 40
0.4
 40
0.4
 40
0.4
 40
0.6
 40
0.6
 40
0.6
 40
0.6
 40
1.0
 40
1.0
 40
1.0
 40
1.0
 10
-27.6741
 20
-9.2583
 30
0.0
 10
-27.6741
 20
-9.2583
 30
0.0
 10
-27.5138
 20
-6.2328
 30
0.0
 10
-27.5138
 20
-6.2328
 30
0.0
 10
-27.5138
 20
-6.2328
 30
0.0
 10
-27.5138
 20
-6.2328
 30
0.0
 10
-27.4201
 20
-6.2246
 30
0.0
 10
-27.4201
 20
-6.2246
 30
0.0
 10
-27.4201
 20
-6.2246
 30
0.0
 10
-27.4201
 20
-6.2246
 30
0.0
 10
-26.7088
 20
-9.1739
 30
0.0
 10
-26.7088
 20
-9.1739
 30
0.0
 10
-26.7088
 20
-9.1739
 30
0.0
 10
-26.7088
 20
-9.1739
 30
0.0
 10
-27.6741
 20
-9.2583
 30
0.0
 10
-27.6741
 20
-9.2583
 30
0.0
  0
SPLINE
  5
4A
330
1F
100
AcDbEntity
  8
ROUND
 62
   250
100
AcDbSpline
210
0.0
220
0.0
230
1.0
 70
    11
 71
     3
 72
    20
 73
    16
 74
     0
 42
0.0000000001
 43
0.0000000001
 40
0.0
 40
0.0
 40
0.0
 40
0.0
 40
0.2
 40
0.2
 40
0.2
 40
0.2
 40
0.4
 40
0.4
 40
0.4
 40
0.4
 40
0.6
 40
0.6
 40
0.6
 40
0.6
 40
1.0
 40
1.0
 40
1.0
 40
1.0
 10
-28.0473
 20
6.3145
 30
0.0
 10
-28.0473
 20
6.3145
 30
0.0
 10
-28.2076
 20
3.289
 30
0.0
 10
-28.2076
 20
3.289
 30
0.0
 10
-28.2076
 20
3.289
 30
0.0
 10
-28.2076
 20
3.289
 30
0.0
 10
-28.3013
 20
3.2808
 30
0.0
 10
-28.3013
 20
3.2808
 30
0.0
 10
-28.3013
 20
3.2808
 30
0.0
 10
-28.3013
 20
3.2808
 30
0.0
 10
-29.0126
 20
6.23
 30
0.0
 10
-29.0126
 20
6.23
 30
0.0
 10
-29.0126
 20
6.23
 30
0.0
 10
-29.0126
 20
6.23
 30
0.0
 10
-28.0473
 20
6.3145
 30
0.0
 10
-28.0473
 20
6.3145
 30
0.0
  0
SPLINE
  5
4B
330
1F
100
AcDbEntity
  8
ROUND
  6
NEW_LINE2
 62
   250
100
AcDbSpline
210
0.0
220
0.0
230
1.0
 70
    24
 71
     3
 72
     8
 73
     4
 74
     0
 42
0.0000000001
 43
0.0000000001
 40
0.0
 40
0.0
 40
0.0
 40
0.0
 40
1.0
 40
1.0
 40
1.0
 40
1.0
 10
-28.178
 20
-6.1643
 30
0.0
 10
-28.178
 20
-6.1643
 30
0.0
 10
-23.5821
 20
-5.7622
 30
0.0
 10
-23.5821
 20
-5.7622
 30
0.0
  0
SPLINE
  5
4D
330
1F
100
AcDbEntity
  8
ROUND
  6
NEW_LINE3
 62
   250
100
AcDbSpline
210
0.0
220
0.0
230
1.0
 70
    24
 71
     3
 72
     8
 73
     4
 74
     0
 42
0.0000000001
 43
0.0000000001
 40
0.0
 40
0.0
 40
0.0
 40
0.0
 40
1.0
 40
1.0
 40
1.0
 40
1.0
 10
-28.8358
 20
3.1126
 30
0.0
 10
-28.8358
 20
3.1126
 30
0.0
 10
-24.117
 20
3.5254
 30
0.0
 10
-24.117
 20
3.5254
 30
0.0
  0
SPLINE
  5
4F
330
1F
100
AcDbEntity
  8
ROUND
 62
   250
100
AcDbSpline
210
0.0
220
0.0
230
1.0
 70
    24
 71
     3
 72
     8
 73
     4
 74
     0
 42
0.0000000001
 43
0.0000000001
 40
0.0
 40
0.0
 40
0.0
 40
0.0
 40
1.0
 40
1.0
 40
1.0
 40
1.0
 10
12.1736
 20
9.2036
 30
0.0
 10
12.1736
 20
9.2036
 30
0.0
 10
30.4465
 20
9.2036
 30
0.0
 10
30.4465
 20
9.2036
 30
0.0
  0
SPLINE
  5
50
330
1F
100
AcDbEntity
  8
ROUND
 62
   250
100
AcDbSpline
210
0.0
220
0.0
230
1.0
 70
    11
 71
     3
 72
   120
 73
   116
 74
     0
 42
0.0000000001
 43
0.0000000001
 40
0.0
 40
0.0
 40
0.0
 40
0.0
 40
0.0333333333333333
 40
0.0333333333333333
 40
0.0333333333333333
 40
0.0333333333333333
 40
0.0666666666666667
 40
0.0666666666666667
 40
0.0666666666666667
 40
0.0666666666666667
 40
0.1
 40
0.1
 40
0.1
 40
0.1
 40
0.1333333333333333
 40
0.1333333333333333
 40
0.1333333333333333
 40
0.1333333333333333
 40
0.1666666666666667
 40
0.1666666666666667
 40
0.1666666666666667
 40
0.1666666666666667
 40
0.2
 40
0.2
 40
0.2
 40
0.2
 40
0.2333333333333333
 40
0.2333333333333333
 40
0.2333333333333333
 40
0.2333333333333333
 40
0.2666666666666667
 40
0.2666666666666667
 40
0.2666666666666667
 40
0.2666666666666667
 40
0.3
 40
0.3
 40
0.3
 40
0.3
 40
0.3333333333333333
 40
0.3333333333333333
 40
0.3333333333333333
 40
0.3333333333333333
 40
0.3666666666666666
 40
0.3666666666666666
 40
0.3666666666666666
 40
0.3666666666666666
 40
0.4
 40
0.4
 40
0.4
 40
0.4
 40
0.4333333333333333
 40
0.4333333333333333
 40
0.4333333333333333
 40
0.4333333333333333
 40
0.4666666666666667
 40
0.4666666666666667
 40
0.4666666666666667
 40
0.4666666666666667
 40
0.5
 40
0.5
 40
0.5
 40
0.5
 40
0.5333333333333333
 40
0.5333333333333333
 40
0.5333333333333333
 40
0.5333333333333333
 40
0.5666666666666667
 40
0.5666666666666667
 40
0.5666666666666667
 40
0.5666666666666667
 40
0.6
 40
0.6
 40
0.6
 40
0.6
 40
0.6333333333333333
 40
0.6333333333333333
 40
0.6333333333333333
 40
0.6333333333333333
 40
0.6666666666666666
 40
0.6666666666666666
 40
0.6666666666666666
 40
0.6666666666666666
 40
0.7
 40
0.7
 40
0.7
 40
0.7
 40
0.7333333333333333
 40
0.7333333333333333
 40
0.7333333333333333
 40
0.7333333333333333
 40
0.7666666666666667
 40
0.7666666666666667
 40
0.7666666666666667
 40
0.7666666666666667
 40
0.8
 40
0.8
 40
0.8
 40
0.8
 40
0.8333333333333334
 40
0.8333333333333334
 40
0.8333333333333334
 40
0.8333333333333334
 40
0.8666666666666667
 40
0.8666666666666667
 40
0.8666666666666667
 40
0.8666666666666667
 40
0.9
 40
0.9
 40
0.9
 40
0.9
 40
0.9333333333333333
 40
0.9333333333333333
 40
0.9333333333333333
 40
0.9333333333333333
 40
1.0
 40
1.0
 40
1.0
 40
1.0
 10
18.3726
 20
11.1848
 30
0.0
 10
18.3726
 20
11.1848
 30
0.0
 10
18.3726
 20
11.4214
 30
0.0
 10
18.3726
 20
11.4214
 30
0.0
 10
18.3726
 20
11.4214
 30
0.0
 10
18.3726
 20
11.4214
 30
0.0
 10
19.2282
 20
11.4228
 30
0.0
 10
19.2282
 20
11.4228
 30
0.0
 10
19.2282
 20
11.4228
 30
0.0
 10
19.2282
 20
11.4228
 30
0.0
 10
19.2282
 20
10.6735
 30
0.0
 10
19.2282
 20
10.6735
 30
0.0
 10
19.2282
 20
10.6735
 30
0.0
 10
19.097
 20
10.5686
 30
0.0
 10
18.9615
 20
10.49
 30
0.0
 10
18.8218
 20
10.4369
 30
0.0
 10
18.8218
 20
10.4369
 30
0.0
 10
18.6821
 20
10.3842
 30
0.0
 10
18.5387
 20
10.3579
 30
0.0
 10
18.3919
 20
10.3579
 30
0.0
 10
18.3919
 20
10.3579
 30
0.0
 10
18.1934
 20
10.3579
 30
0.0
 10
18.0128
 20
10.4002
 30
0.0
 10
17.851
 20
10.4853
 30
0.0
 10
17.851
 20
10.4853
 30
0.0
 10
17.6887
 20
10.57
 30
0.0
 10
17.5664
 20
10.6932
 30
0.0
 10
17.4836
 20
10.8536
 30
0.0
 10
17.4836
 20
10.8536
 30
0.0
 10
17.4008
 20
11.0145
 30
0.0
 10
17.3594
 20
11.1942
 30
0.0
 10
17.3594
 20
11.3927
 30
0.0
 10
17.3594
 20
11.3927
 30
0.0
 10
17.3594
 20
11.5893
 30
0.0
 10
17.4008
 20
11.7727
 30
0.0
 10
17.4832
 20
11.943
 30
0.0
 10
17.4832
 20
11.943
 30
0.0
 10
17.565
 20
12.1137
 30
0.0
 10
17.6835
 20
12.2403
 30
0.0
 10
17.8378
 20
12.3231
 30
0.0
 10
17.8378
 20
12.3231
 30
0.0
 10
17.9921
 20
12.4054
 30
0.0
 10
18.1699
 20
12.4468
 30
0.0
 10
18.3712
 20
12.4468
 30
0.0
 10
18.3712
 20
12.4468
 30
0.0
 10
18.517
 20
12.4468
 30
0.0
 10
18.6492
 20
12.4232
 30
0.0
 10
18.7673
 20
12.3757
 30
0.0
 10
18.7673
 20
12.3757
 30
0.0
 10
18.8853
 20
12.3287
 30
0.0
 10
18.978
 20
12.2628
 30
0.0
 10
19.0448
 20
12.1782
 30
0.0
 10
19.0448
 20
12.1782
 30
0.0
 10
19.112
 20
12.0935
 30
0.0
 10
19.1628
 20
11.9835
 30
0.0
 10
19.1981
 20
11.8475
 30
0.0
 10
19.1981
 20
11.8475
 30
0.0
 10
19.1981
 20
11.8475
 30
0.0
 10
18.9568
 20
11.7812
 30
0.0
 10
18.9568
 20
11.7812
 30
0.0
 10
18.9568
 20
11.7812
 30
0.0
 10
18.9262
 20
11.8842
 30
0.0
 10
18.8886
 20
11.9651
 30
0.0
 10
18.8439
 20
12.0239
 30
0.0
 10
18.8439
 20
12.0239
 30
0.0
 10
18.7988
 20
12.0827
 30
0.0
 10
18.7343
 20
12.1297
 30
0.0
 10
18.6506
 20
12.165
 30
0.0
 10
18.6506
 20
12.165
 30
0.0
 10
18.5673
 20
12.2003
 30
0.0
 10
18.4742
 20
12.2182
 30
0.0
 10
18.3726
 20
12.2182
 30
0.0
 10
18.3726
 20
12.2182
 30
0.0
 10
18.2503
 20
12.2182
 30
0.0
 10
18.1445
 20
12.1993
 30
0.0
 10
18.0556
 20
12.1622
 30
0.0
 10
18.0556
 20
12.1622
 30
0.0
 10
17.9662
 20
12.125
 30
0.0
 10
17.8947
 20
12.0761
 30
0.0
 10
17.8397
 20
12.0154
 30
0.0
 10
17.8397
 20
12.0154
 30
0.0
 10
17.7851
 20
11.9548
 30
0.0
 10
17.7428
 20
11.8884
 30
0.0
 10
17.7122
 20
11.8155
 30
0.0
 10
17.7122
 20
11.8155
 30
0.0
 10
17.661
 20
11.6909
 30
0.0
 10
17.6351
 20
11.5554
 30
0.0
 10
17.6351
 20
11.4091
 30
0.0
 10
17.6351
 20
11.4091
 30
0.0
 10
17.6351
 20
11.229
 30
0.0
 10
17.6661
 20
11.0785
 30
0.0
 10
17.7282
 20
10.9571
 30
0.0
 10
17.7282
 20
10.9571
 30
0.0
 10
17.7903
 20
10.8358
 30
0.0
 10
17.8806
 20
10.7459
 30
0.0
 10
17.9991
 20
10.6871
 30
0.0
 10
17.9991
 20
10.6871
 30
0.0
 10
18.1177
 20
10.6283
 30
0.0
 10
18.2433
 20
10.5987
 30
0.0
 10
18.3764
 20
10.5987
 30
0.0
 10
18.3764
 20
10.5987
 30
0.0
 10
18.4926
 20
10.5987
 30
0.0
 10
18.6054
 20
10.6213
 30
0.0
 10
18.7155
 20
10.666
 30
0.0
 10
18.7155
 20
10.666
 30
0.0
 10
18.8261
 20
10.7102
 30
0.0
 10
18.9093
 20
10.7577
 30
0.0
 10
18.9662
 20
10.8085
 30
0.0
 10
18.9662
 20
10.8085
 30
0.0
 10
18.9662
 20
10.8085
 30
0.0
 10
18.9662
 20
11.1848
 30
0.0
 10
18.9662
 20
11.1848
 30
0.0
 10
18.9662
 20
11.1848
 30
0.0
 10
18.9662
 20
11.1848
 30
0.0
 10
18.3726
 20
11.1848
 30
0.0
 10
18.3726
 20
11.1848
 30
0.0
  0
SPLINE
  5
51
330
1F
100
AcDbEntity
  8
ROUND
 62
   250
100
AcDbSpline
210
0.0
220
0.0
230
1.0
 70
    11
 71
     3
 72
    80
 73
    76
 74
     0
 42
0.0000000001
 43
0.0000000001
 40
0.0
 40
0.0
 40
0.0
 40
0.0
 40
0.05
 40
0.05
 40
0.05
 40
0.05
 40
0.1
 40
0.1
 40
0.1
 40
0.1
 40
0.15
 40
0.15
 40
0.15
 40
0.15
 40
0.2
 40
0.2
 40
0.2
 40
0.2
 40
0.25
 40
0.25
 40
0.25
 40
0.25
 40
0.3
 40
0.3
 40
0.3
 40
0.3
 40
0.35
 40
0.35
 40
0.35
 40
0.35
 40
0.4
 40
0.4
 40
0.4
 40
0.4
 40
0.45
 40
0.45
 40
0.45
 40
0.45
 40
0.5
 40
0.5
 40
0.5
 40
0.5
 40
0.55
 40
0.55
 40
0.55
 40
0.55
 40
0.6
 40
0.6
 40
0.6
 40
0.6
 40
0.65
 40
0.65
 40
0.65
 40
0.65
 40
0.7
 40
0.7
 40
0.7
 40
0.7
 40
0.75
 40
0.75
 40
0.75
 40
0.75
 40
0.8
 40
0.8
 40
0.8
 40
0.8
 40
0.85
 40
0.85
 40
0.85
 40
0.85
 40
0.9
 40
0.9
 40
0.9
 40
0.9
 40
1.0
 40
1.0
 40
1.0
 40
1.0
 10
21.5927
 20
11.9176
 30
0.0
 10
21.5927
 20
11.9176
 30
0.0
 10
21.3463
 20
11.8983
 30
0.0
 10
21.3463
 20
11.8983
 30
0.0
 10
21.3463
 20
11.8983
 30
0.0
 10
21.3242
 20
11.9957
 30
0.0
 10
21.2931
 20
12.0667
 30
0.0
 10
21.2527
 20
12.1104
 30
0.0
 10
21.2527
 20
12.1104
 30
0.0
 10
21.1854
 20
12.1815
 30
0.0
 10
21.1026
 20
12.2168
 30
0.0
 10
21.0043
 20
12.2168
 30
0.0
 10
21.0043
 20
12.2168
 30
0.0
 10
20.9253
 20
12.2168
 30
0.0
 10
20.8562
 20
12.1946
 30
0.0
 10
20.7964
 20
12.1504
 30
0.0
 10
20.7964
 20
12.1504
 30
0.0
 10
20.7183
 20
12.0935
 30
0.0
 10
20.6567
 20
12.0103
 30
0.0
 10
20.6116
 20
11.9011
 30
0.0
 10
20.6116
 20
11.9011
 30
0.0
 10
20.5669
 20
11.792
 30
0.0
 10
20.5434
 20
11.6363
 30
0.0
 10
20.5415
 20
11.4341
 30
0.0
 10
20.5415
 20
11.4341
 30
0.0
 10
20.6012
 20
11.5248
 30
0.0
 10
20.6741
 20
11.5926
 30
0.0
 10
20.7607
 20
11.6368
 30
0.0
 10
20.7607
 20
11.6368
 30
0.0
 10
20.8467
 20
11.6805
 30
0.0
 10
20.9375
 20
11.7026
 30
0.0
 10
21.0321
 20
11.7026
 30
0.0
 10
21.0321
 20
11.7026
 30
0.0
 10
21.1976
 20
11.7026
 30
0.0
 10
21.3383
 20
11.642
 30
0.0
 10
21.4545
 20
11.5201
 30
0.0
 10
21.4545
 20
11.5201
 30
0.0
 10
21.5706
 20
11.3983
 30
0.0
 10
21.629
 20
11.2412
 30
0.0
 10
21.629
 20
11.0484
 30
0.0
 10
21.629
 20
11.0484
 30
0.0
 10
21.629
 20
10.9214
 30
0.0
 10
21.6012
 20
10.8038
 30
0.0
 10
21.5466
 20
10.6946
 30
0.0
 10
21.5466
 20
10.6946
 30
0.0
 10
21.4921
 20
10.586
 30
0.0
 10
21.4168
 20
10.5023
 30
0.0
 10
21.3213
 20
10.4444
 30
0.0
 10
21.3213
 20
10.4444
 30
0.0
 10
21.2259
 20
10.3866
 30
0.0
 10
21.1177
 20
10.3579
 30
0.0
 10
20.9963
 20
10.3579
 30
0.0
 10
20.9963
 20
10.3579
 30
0.0
 10
20.7894
 20
10.3579
 30
0.0
 10
20.621
 20
10.4336
 30
0.0
 10
20.4907
 20
10.586
 30
0.0
 10
20.4907
 20
10.586
 30
0.0
 10
20.3599
 20
10.7379
 30
0.0
 10
20.295
 20
10.9886
 30
0.0
 10
20.295
 20
11.3376
 30
0.0
 10
20.295
 20
11.3376
 30
0.0
 10
20.295
 20
11.728
 30
0.0
 10
20.367
 20
12.0117
 30
0.0
 10
20.5114
 20
12.189
 30
0.0
 10
20.5114
 20
12.189
 30
0.0
 10
20.637
 20
12.3433
 30
0.0
 10
20.8063
 20
12.4209
 30
0.0
 10
21.0198
 20
12.4209
 30
0.0
 10
21.0198
 20
12.4209
 30
0.0
 10
21.1784
 20
12.4209
 30
0.0
 10
21.3086
 20
12.3762
 30
0.0
 10
21.4102
 20
12.2868
 30
0.0
 10
21.4102
 20
12.2868
 30
0.0
 10
21.5118
 20
12.1979
 30
0.0
 10
21.5725
 20
12.0747
 30
0.0
 10
21.5927
 20
11.9176
 30
0.0
  0
SPLINE
  5
52
330
1F
100
AcDbEntity
  8
ROUND
 62
   250
100
AcDbSpline
210
0.0
220
0.0
230
1.0
 70
    11
 71
     3
 72
    40
 73
    36
 74
     0
 42
0.0000000001
 43
0.0000000001
 40
0.0
 40
0.0
 40
0.0
 40
0.0
 40
0.1
 40
0.1
 40
0.1
 40
0.1
 40
0.2
 40
0.2
 40
0.2
 40
0.2
 40
0.3
 40
0.3
 40
0.3
 40
0.3
 40
0.4
 40
0.4
 40
0.4
 40
0.4
 40
0.5
 40
0.5
 40
0.5
 40
0.5
 40
0.6
 40
0.6
 40
0.6
 40
0.6
 40
0.7
 40
0.7
 40
0.7
 40
0.7
 40
0.8
 40
0.8
 40
0.8
 40
0.8
 40
1.0
 40
1.0
 40
1.0
 40
1.0
 10
20.58
 20
11.047
 30
0.0
 10
20.58
 20
10.9613
 30
0.0
 10
20.5984
 20
10.8795
 30
0.0
 10
20.6346
 20
10.8014
 30
0.0
 10
20.6346
 20
10.8014
 30
0.0
 10
20.6708
 20
10.7233
 30
0.0
 10
20.7216
 20
10.6641
 30
0.0
 10
20.7865
 20
10.6232
 30
0.0
 10
20.7865
 20
10.6232
 30
0.0
 10
20.8519
 20
10.5822
 30
0.0
 10
20.9206
 20
10.5615
 30
0.0
 10
20.9921
 20
10.5615
 30
0.0
 10
20.9921
 20
10.5615
 30
0.0
 10
21.097
 20
10.5615
 30
0.0
 10
21.1868
 20
10.6039
 30
0.0
 10
21.2621
 20
10.6885
 30
0.0
 10
21.2621
 20
10.6885
 30
0.0
 10
21.3373
 20
10.7732
 30
0.0
 10
21.375
 20
10.888
 30
0.0
 10
21.375
 20
11.0328
 30
0.0
 10
21.375
 20
11.0328
 30
0.0
 10
21.375
 20
11.1725
 30
0.0
 10
21.3378
 20
11.2826
 30
0.0
 10
21.2635
 20
11.363
 30
0.0
 10
21.2635
 20
11.363
 30
0.0
 10
21.1892
 20
11.4435
 30
0.0
 10
21.0956
 20
11.4835
 30
0.0
 10
20.9827
 20
11.4835
 30
0.0
 10
20.9827
 20
11.4835
 30
0.0
 10
20.8703
 20
11.4835
 30
0.0
 10
20.7752
 20
11.4435
 30
0.0
 10
20.6972
 20
11.363
 30
0.0
 10
20.6972
 20
11.363
 30
0.0
 10
20.6191
 20
11.2826
 30
0.0
 10
20.58
 20
11.1772
 30
0.0
 10
20.58
 20
11.047
 30
0.0
  0
SPLINE
  5
53
330
1F
100
AcDbEntity
  8
ROUND
 62
   250
100
AcDbSpline
210
0.0
220
0.0
230
1.0
 70
    11
 71
     3
 72
    20
 73
    16
 74
     0
 42
0.0000000001
 43
0.0000000001
 40
0.0
 40
0.0
 40
0.0
 40
0.0
 40
0.2
 40
0.2
 40
0.2
 40
0.2
 40
0.4
 40
0.4
 40
0.4
 40
0.4
 40
0.6
 40
0.6
 40
0.6
 40
0.6
 40
1.0
 40
1.0
 40
1.0
 40
1.0
 10
21.7583
 20
10.3579
 30
0.0
 10
21.7583
 20
10.3579
 30
0.0
 10
22.3439
 20
12.4468
 30
0.0
 10
22.3439
 20
12.4468
 30
0.0
 10
22.3439
 20
12.4468
 30
0.0
 10
22.3439
 20
12.4468
 30
0.0
 10
22.5424
 20
12.4468
 30
0.0
 10
22.5424
 20
12.4468
 30
0.0
 10
22.5424
 20
12.4468
 30
0.0
 10
22.5424
 20
12.4468
 30
0.0
 10
21.9582
 20
10.3579
 30
0.0
 10
21.9582
 20
10.3579
 30
0.0
 10
21.9582
 20
10.3579
 30
0.0
 10
21.9582
 20
10.3579
 30
0.0
 10
21.7583
 20
10.3579
 30
0.0
 10
21.7583
 20
10.3579
 30
0.0
  0
SPLINE
  5
54
330
1F
100
AcDbEntity
  8
ROUND
 62
   250
100
AcDbSpline
210
0.0
220
0.0
230
1.0
 70
    11
 71
     3
 72
    48
 73
    44
 74
     0
 42
0.0000000001
 43
0.0000000001
 40
0.0
 40
0.0
 40
0.0
 40
0.0
 40
0.0833333333333333
 40
0.0833333333333333
 40
0.0833333333333333
 40
0.0833333333333333
 40
0.1666666666666667
 40
0.1666666666666667
 40
0.1666666666666667
 40
0.1666666666666667
 40
0.25
 40
0.25
 40
0.25
 40
0.25
 40
0.3333333333333333
 40
0.3333333333333333
 40
0.3333333333333333
 40
0.3333333333333333
 40
0.4166666666666667
 40
0.4166666666666667
 40
0.4166666666666667
 40
0.4166666666666667
 40
0.5
 40
0.5
 40
0.5
 40
0.5
 40
0.5833333333333334
 40
0.5833333333333334
 40
0.5833333333333334
 40
0.5833333333333334
 40
0.6666666666666666
 40
0.6666666666666666
 40
0.6666666666666666
 40
0.6666666666666666
 40
0.75
 40
0.75
 40
0.75
 40
0.75
 40
0.8333333333333334
 40
0.8333333333333334
 40
0.8333333333333334
 40
0.8333333333333334
 40
1.0
 40
1.0
 40
1.0
 40
1.0
 10
23.4544
 20
10.3922
 30
0.0
 10
23.4544
 20
10.3922
 30
0.0
 10
23.4544
 20
10.8757
 30
0.0
 10
23.4544
 20
10.8757
 30
0.0
 10
23.4544
 20
10.8757
 30
0.0
 10
23.4544
 20
10.8757
 30
0.0
 10
22.5781
 20
10.8757
 30
0.0
 10
22.5781
 20
10.8757
 30
0.0
 10
22.5781
 20
10.8757
 30
0.0
 10
22.5781
 20
10.8757
 30
0.0
 10
22.5781
 20
11.1034
 30
0.0
 10
22.5781
 20
11.1034
 30
0.0
 10
22.5781
 20
11.1034
 30
0.0
 10
22.5781
 20
11.1034
 30
0.0
 10
23.5001
 20
12.4124
 30
0.0
 10
23.5001
 20
12.4124
 30
0.0
 10
23.5001
 20
12.4124
 30
0.0
 10
23.5001
 20
12.4124
 30
0.0
 10
23.7028
 20
12.4124
 30
0.0
 10
23.7028
 20
12.4124
 30
0.0
 10
23.7028
 20
12.4124
 30
0.0
 10
23.7028
 20
12.4124
 30
0.0
 10
23.7028
 20
11.1034
 30
0.0
 10
23.7028
 20
11.1034
 30
0.0
 10
23.7028
 20
11.1034
 30
0.0
 10
23.7028
 20
11.1034
 30
0.0
 10
23.9756
 20
11.1034
 30
0.0
 10
23.9756
 20
11.1034
 30
0.0
 10
23.9756
 20
11.1034
 30
0.0
 10
23.9756
 20
11.1034
 30
0.0
 10
23.9756
 20
10.8757
 30
0.0
 10
23.9756
 20
10.8757
 30
0.0
 10
23.9756
 20
10.8757
 30
0.0
 10
23.9756
 20
10.8757
 30
0.0
 10
23.7028
 20
10.8757
 30
0.0
 10
23.7028
 20
10.8757
 30
0.0
 10
23.7028
 20
10.8757
 30
0.0
 10
23.7028
 20
10.8757
 30
0.0
 10
23.7028
 20
10.3922
 30
0.0
 10
23.7028
 20
10.3922
 30
0.0
 10
23.7028
 20
10.3922
 30
0.0
 10
23.7028
 20
10.3922
 30
0.0
 10
23.4544
 20
10.3922
 30
0.0
 10
23.4544
 20
10.3922
 30
0.0
  0
SPLINE
  5
55
330
1F
100
AcDbEntity
  8
ROUND
 62
   250
100
AcDbSpline
210
0.0
220
0.0
230
1.0
 70
    11
 71
     3
 72
    16
 73
    12
 74
     0
 42
0.0000000001
 43
0.0000000001
 40
0.0
 40
0.0
 40
0.0
 40
0.0
 40
0.25
 40
0.25
 40
0.25
 40
0.25
 40
0.5
 40
0.5
 40
0.5
 40
0.5
 40
1.0
 40
1.0
 40
1.0
 40
1.0
 10
23.4544
 20
11.1034
 30
0.0
 10
23.4544
 20
11.1034
 30
0.0
 10
23.4544
 20
12.014
 30
0.0
 10
23.4544
 20
12.014
 30
0.0
 10
23.4544
 20
12.014
 30
0.0
 10
23.4544
 20
12.014
 30
0.0
 10
22.8223
 20
11.1034
 30
0.0
 10
22.8223
 20
11.1034
 30
0.0
 10
22.8223
 20
11.1034
 30
0.0
 10
22.8223
 20
11.1034
 30
0.0
 10
23.4544
 20
11.1034
 30
0.0
 10
23.4544
 20
11.1034
 30
0.0
  0
SPLINE
  5
56
330
1F
100
AcDbEntity
  8
ROUND
 62
   250
100
AcDbSpline
210
0.0
220
0.0
230
1.0
 70
    11
 71
     3
 72
    28
 73
    24
 74
     0
 42
0.0000000001
 43
0.0000000001
 40
0.0
 40
0.0
 40
0.0
 40
0.0
 40
0.1428571428571428
 40
0.1428571428571428
 40
0.1428571428571428
 40
0.1428571428571428
 40
0.2857142857142857
 40
0.2857142857142857
 40
0.2857142857142857
 40
0.2857142857142857
 40
0.4285714285714285
 40
0.4285714285714285
 40
0.4285714285714285
 40
0.4285714285714285
 40
0.5714285714285714
 40
0.5714285714285714
 40
0.5714285714285714
 40
0.5714285714285714
 40
0.7142857142857143
 40
0.7142857142857143
 40
0.7142857142857143
 40
0.7142857142857143
 40
1.0
 40
1.0
 40
1.0
 40
1.0
 10
24.3105
 20
11.697
 30
0.0
 10
24.3105
 20
11.697
 30
0.0
 10
24.2414
 20
12.0818
 30
0.0
 10
24.2414
 20
12.0818
 30
0.0
 10
24.2414
 20
12.0818
 30
0.0
 10
24.2414
 20
12.0818
 30
0.0
 10
24.2414
 20
12.4124
 30
0.0
 10
24.2414
 20
12.4124
 30
0.0
 10
24.2414
 20
12.4124
 30
0.0
 10
24.2414
 20
12.4124
 30
0.0
 10
24.524
 20
12.4124
 30
0.0
 10
24.524
 20
12.4124
 30
0.0
 10
24.524
 20
12.4124
 30
0.0
 10
24.524
 20
12.4124
 30
0.0
 10
24.524
 20
12.0818
 30
0.0
 10
24.524
 20
12.0818
 30
0.0
 10
24.524
 20
12.0818
 30
0.0
 10
24.524
 20
12.0818
 30
0.0
 10
24.462
 20
11.697
 30
0.0
 10
24.462
 20
11.697
 30
0.0
 10
24.462
 20
11.697
 30
0.0
 10
24.462
 20
11.697
 30
0.0
 10
24.3105
 20
11.697
 30
0.0
 10
24.3105
 20
11.697
 30
0.0
  0
SPLINE
  5
57
330
1F
100
AcDbEntity
  8
ROUND
 62
   250
100
AcDbSpline
210
0.0
220
0.0
230
1.0
 70
    11
 71
     3
 72
    28
 73
    24
 74
     0
 42
0.0000000001
 43
0.0000000001
 40
0.0
 40
0.0
 40
0.0
 40
0.0
 40
0.1428571428571428
 40
0.1428571428571428
 40
0.1428571428571428
 40
0.1428571428571428
 40
0.2857142857142857
 40
0.2857142857142857
 40
0.2857142857142857
 40
0.2857142857142857
 40
0.4285714285714285
 40
0.4285714285714285
 40
0.4285714285714285
 40
0.4285714285714285
 40
0.5714285714285714
 40
0.5714285714285714
 40
0.5714285714285714
 40
0.5714285714285714
 40
0.7142857142857143
 40
0.7142857142857143
 40
0.7142857142857143
 40
0.7142857142857143
 40
1.0
 40
1.0
 40
1.0
 40
1.0
 10
24.7668
 20
11.697
 30
0.0
 10
24.7668
 20
11.697
 30
0.0
 10
24.699
 20
12.0818
 30
0.0
 10
24.699
 20
12.0818
 30
0.0
 10
24.699
 20
12.0818
 30
0.0
 10
24.699
 20
12.0818
 30
0.0
 10
24.699
 20
12.4124
 30
0.0
 10
24.699
 20
12.4124
 30
0.0
 10
24.699
 20
12.4124
 30
0.0
 10
24.699
 20
12.4124
 30
0.0
 10
24.9817
 20
12.4124
 30
0.0
 10
24.9817
 20
12.4124
 30
0.0
 10
24.9817
 20
12.4124
 30
0.0
 10
24.9817
 20
12.4124
 30
0.0
 10
24.9817
 20
12.0818
 30
0.0
 10
24.9817
 20
12.0818
 30
0.0
 10
24.9817
 20
12.0818
 30
0.0
 10
24.9817
 20
12.0818
 30
0.0
 10
24.9154
 20
11.697
 30
0.0
 10
24.9154
 20
11.697
 30
0.0
 10
24.9154
 20
11.697
 30
0.0
 10
24.9154
 20
11.697
 30
0.0
 10
24.7668
 20
11.697
 30
0.0
 10
24.7668
 20
11.697
 30
0.0
  0
SPLINE
  5
58
330
1F
100
AcDbEntity
  8
ROUND
 62
   250
100
AcDbSpline
210
0.0
220
0.0
230
1.0
 70
    11
 71
     3
 72
    20
 73
    16
 74
     0
 42
0.0000000001
 43
0.0000000001
 40
0.0
 40
0.0
 40
0.0
 40
0.0
 40
0.2
 40
0.2
 40
0.2
 40
0.2
 40
0.4
 40
0.4
 40
0.4
 40
0.4
 40
0.6
 40
0.6
 40
0.6
 40
0.6
 40
1.0
 40
1.0
 40
1.0
 40
1.0
 10
13.4766
 20
9.688
 30
0.0
 10
13.4766
 20
9.688
 30
0.0
 10
16.4766
 20
9.2646
 30
0.0
 10
16.4766
 20
9.2646
 30
0.0
 10
16.4766
 20
9.2646
 30
0.0
 10
16.4766
 20
9.2646
 30
0.0
 10
16.4766
 20
9.1706
 30
0.0
 10
16.4766
 20
9.1706
 30
0.0
 10
16.4766
 20
9.1706
 30
0.0
 10
16.4766
 20
9.1706
 30
0.0
 10
13.4766
 20
8.719
 30
0.0
 10
13.4766
 20
8.719
 30
0.0
 10
13.4766
 20
8.719
 30
0.0
 10
13.4766
 20
8.719
 30
0.0
 10
13.4766
 20
9.688
 30
0.0
 10
13.4766
 20
9.688
 30
0.0
  0
SPLINE
  5
59
330
1F
100
AcDbEntity
  8
ROUND
 62
   250
100
AcDbSpline
210
0.0
220
0.0
230
1.0
 70
    11
 71
     3
 72
    20
 73
    16
 74
     0
 42
0.0000000001
 43
0.0000000001
 40
0.0
 40
0.0
 40
0.0
 40
0.0
 40
0.2
 40
0.2
 40
0.2
 40
0.2
 40
0.4
 40
0.4
 40
0.4
 40
0.4
 40
0.6
 40
0.6
 40
0.6
 40
0.6
 40
1.0
 40
1.0
 40
1.0
 40
1.0
 10
28.1507
 20
8.7278
 30
0.0
 10
28.1507
 20
8.7278
 30
0.0
 10
25.1506
 20
9.1512
 30
0.0
 10
25.1506
 20
9.1512
 30
0.0
 10
25.1506
 20
9.1512
 30
0.0
 10
25.1506
 20
9.1512
 30
0.0
 10
25.1506
 20
9.2452
 30
0.0
 10
25.1506
 20
9.2452
 30
0.0
 10
25.1506
 20
9.2452
 30
0.0
 10
25.1506
 20
9.2452
 30
0.0
 10
28.1507
 20
9.6968
 30
0.0
 10
28.1507
 20
9.6968
 30
0.0
 10
28.1507
 20
9.6968
 30
0.0
 10
28.1507
 20
9.6968
 30
0.0
 10
28.1507
 20
8.7278
 30
0.0
 10
28.1507
 20
8.7278
 30
0.0
  0
SPLINE
  5
5A
330
1F
100
AcDbEntity
  8
ROUND
 62
   250
100
AcDbSpline
210
0.0
220
0.0
230
1.0
 70
    24
 71
     3
 72
     8
 73
     4
 74
     0
 42
0.0000000001
 43
0.0000000001
 40
0.0
 40
0.0
 40
0.0
 40
0.0
 40
1.0
 40
1.0
 40
1.0
 40
1.0
 10
13.6747
 20
-12.0244
 30
0.0
 10
13.6747
 20
-12.0244
 30
0.0
 10
13.6747
 20
4.8746
 30
0.0
 10
13.6747
 20
4.8746
 30
0.0
  0
SPLINE
  5
5B
330
1F
100
AcDbEntity
  8
ROUND
 62
   250
100
AcDbSpline
210
0.0
220
0.0
230
1.0
 70
    11
 71
     3
 72
    92
 73
    88
 74
     0
 42
0.0000000001
 43
0.0000000001
 40
0.0
 40
0.0
 40
0.0
 40
0.0
 40
0.0434782608695652
 40
0.0434782608695652
 40
0.0434782608695652
 40
0.0434782608695652
 40
0.0869565217391304
 40
0.0869565217391304
 40
0.0869565217391304
 40
0.0869565217391304
 40
0.1304347826086956
 40
0.1304347826086956
 40
0.1304347826086956
 40
0.1304347826086956
 40
0.1739130434782609
 40
0.1739130434782609
 40
0.1739130434782609
 40
0.1739130434782609
 40
0.2173913043478261
 40
0.2173913043478261
 40
0.2173913043478261
 40
0.2173913043478261
 40
0.2608695652173913
 40
0.2608695652173913
 40
0.2608695652173913
 40
0.2608695652173913
 40
0.3043478260869565
 40
0.3043478260869565
 40
0.3043478260869565
 40
0.3043478260869565
 40
0.3478260869565217
 40
0.3478260869565217
 40
0.3478260869565217
 40
0.3478260869565217
 40
0.391304347826087
 40
0.391304347826087
 40
0.391304347826087
 40
0.391304347826087
 40
0.4347826086956522
 40
0.4347826086956522
 40
0.4347826086956522
 40
0.4347826086956522
 40
0.4782608695652174
 40
0.4782608695652174
 40
0.4782608695652174
 40
0.4782608695652174
 40
0.5217391304347826
 40
0.5217391304347826
 40
0.5217391304347826
 40
0.5217391304347826
 40
0.5652173913043478
 40
0.5652173913043478
 40
0.5652173913043478
 40
0.5652173913043478
 40
0.6086956521739131
 40
0.6086956521739131
 40
0.6086956521739131
 40
0.6086956521739131
 40
0.6521739130434783
 40
0.6521739130434783
 40
0.6521739130434783
 40
0.6521739130434783
 40
0.6956521739130435
 40
0.6956521739130435
 40
0.6956521739130435
 40
0.6956521739130435
 40
0.7391304347826086
 40
0.7391304347826086
 40
0.7391304347826086
 40
0.7391304347826086
 40
0.782608695652174
 40
0.782608695652174
 40
0.782608695652174
 40
0.782608695652174
 40
0.8260869565217391
 40
0.8260869565217391
 40
0.8260869565217391
 40
0.8260869565217391
 40
0.8695652173913043
 40
0.8695652173913043
 40
0.8695652173913043
 40
0.8695652173913043
 40
0.9130434782608695
 40
0.9130434782608695
 40
0.9130434782608695
 40
0.9130434782608695
 40
1.0
 40
1.0
 40
1.0
 40
1.0
 10
12.7877
 20
-4.3381
 30
0.0
 10
12.7877
 20
-4.3381
 30
0.0
 10
12.7656
 20
-4.0996
 30
0.0
 10
12.7656
 20
-4.0996
 30
0.0
 10
12.7656
 20
-4.0996
 30
0.0
 10
12.8776
 20
-4.0794
 30
0.0
 10
12.9589
 20
-4.0408
 30
0.0
 10
13.0097
 20
-3.9839
 30
0.0
 10
13.0097
 20
-3.9839
 30
0.0
 10
13.0601
 20
-3.927
 30
0.0
 10
13.0855
 20
-3.8541
 30
0.0
 10
13.0855
 20
-3.7647
 30
0.0
 10
13.0855
 20
-3.7647
 30
0.0
 10
13.0855
 20
-3.6885
 30
0.0
 10
13.0681
 20
-3.6218
 30
0.0
 10
13.0328
 20
-3.5644
 30
0.0
 10
13.0328
 20
-3.5644
 30
0.0
 10
12.998
 20
-3.507
 30
0.0
 10
12.9514
 20
-3.4599
 30
0.0
 10
12.8931
 20
-3.4233
 30
0.0
 10
12.8931
 20
-3.4233
 30
0.0
 10
12.8348
 20
-3.3861
 30
0.0
 10
12.7557
 20
-3.3555
 30
0.0
 10
12.657
 20
-3.3306
 30
0.0
 10
12.657
 20
-3.3306
 30
0.0
 10
12.5577
 20
-3.3061
 30
0.0
 10
12.4566
 20
-3.2934
 30
0.0
 10
12.3536
 20
-3.2934
 30
0.0
 10
12.3536
 20
-3.2934
 30
0.0
 10
12.3428
 20
-3.2934
 30
0.0
 10
12.3258
 20
-3.2939
 30
0.0
 10
12.3042
 20
-3.2948
 30
0.0
 10
12.3042
 20
-3.2948
 30
0.0
 10
12.3827
 20
-3.3447
 30
0.0
 10
12.4472
 20
-3.4124
 30
0.0
 10
12.4961
 20
-3.498
 30
0.0
 10
12.4961
 20
-3.498
 30
0.0
 10
12.5455
 20
-3.5841
 30
0.0
 10
12.5699
 20
-3.6773
 30
0.0
 10
12.5699
 20
-3.777
 30
0.0
 10
12.5699
 20
-3.777
 30
0.0
 10
12.5699
 20
-3.9444
 30
0.0
 10
12.5093
 20
-4.086
 30
0.0
 10
12.3879
 20
-4.2017
 30
0.0
 10
12.3879
 20
-4.2017
 30
0.0
 10
12.2666
 20
-4.3174
 30
0.0
 10
12.1071
 20
-4.3753
 30
0.0
 10
11.9086
 20
-4.3753
 30
0.0
 10
11.9086
 20
-4.3753
 30
0.0
 10
11.7035
 20
-4.3753
 30
0.0
 10
11.5389
 20
-4.3151
 30
0.0
 10
11.4138
 20
-4.1942
 30
0.0
 10
11.4138
 20
-4.1942
 30
0.0
 10
11.2887
 20
-4.0733
 30
0.0
 10
11.2261
 20
-3.9218
 30
0.0
 10
11.2261
 20
-3.7398
 30
0.0
 10
11.2261
 20
-3.7398
 30
0.0
 10
11.2261
 20
-3.6086
 30
0.0
 10
11.2619
 20
-3.4886
 30
0.0
 10
11.3324
 20
-3.3795
 30
0.0
 10
11.3324
 20
-3.3795
 30
0.0
 10
11.403
 20
-3.2709
 30
0.0
 10
11.5041
 20
-3.1881
 30
0.0
 10
11.6349
 20
-3.1316
 30
0.0
 10
11.6349
 20
-3.1316
 30
0.0
 10
11.7656
 20
-3.0752
 30
0.0
 10
11.9552
 20
-3.047
 30
0.0
 10
12.2035
 20
-3.047
 30
0.0
 10
12.2035
 20
-3.047
 30
0.0
 10
12.4613
 20
-3.047
 30
0.0
 10
12.6668
 20
-3.0747
 30
0.0
 10
12.8202
 20
-3.1307
 30
0.0
 10
12.8202
 20
-3.1307
 30
0.0
 10
12.9731
 20
-3.1871
 30
0.0
 10
13.0892
 20
-3.2704
 30
0.0
 10
13.1692
 20
-3.3809
 30
0.0
 10
13.1692
 20
-3.3809
 30
0.0
 10
13.2492
 20
-3.4919
 30
0.0
 10
13.2891
 20
-3.6213
 30
0.0
 10
13.2891
 20
-3.7704
 30
0.0
 10
13.2891
 20
-3.7704
 30
0.0
 10
13.2891
 20
-3.9284
 30
0.0
 10
13.2454
 20
-4.0573
 30
0.0
 10
13.1574
 20
-4.1575
 30
0.0
 10
13.1574
 20
-4.1575
 30
0.0
 10
13.0699
 20
-4.2577
 30
0.0
 10
12.9467
 20
-4.3179
 30
0.0
 10
12.7877
 20
-4.3381
 30
0.0
  0
SPLINE
  5
5C
330
1F
100
AcDbEntity
  8
ROUND
 62
   250
100
AcDbSpline
210
0.0
220
0.0
230
1.0
 70
    11
 71
     3
 72
    36
 73
    32
 74
     0
 42
0.0000000001
 43
0.0000000001
 40
0.0
 40
0.0
 40
0.0
 40
0.0
 40
0.1111111111111111
 40
0.1111111111111111
 40
0.1111111111111111
 40
0.1111111111111111
 40
0.2222222222222222
 40
0.2222222222222222
 40
0.2222222222222222
 40
0.2222222222222222
 40
0.3333333333333333
 40
0.3333333333333333
 40
0.3333333333333333
 40
0.3333333333333333
 40
0.4444444444444444
 40
0.4444444444444444
 40
0.4444444444444444
 40
0.4444444444444444
 40
0.5555555555555556
 40
0.5555555555555556
 40
0.5555555555555556
 40
0.5555555555555556
 40
0.6666666666666666
 40
0.6666666666666666
 40
0.6666666666666666
 40
0.6666666666666666
 40
0.7777777777777778
 40
0.7777777777777778
 40
0.7777777777777778
 40
0.7777777777777778
 40
1.0
 40
1.0
 40
1.0
 40
1.0
 10
11.8959
 20
-3.3226
 30
0.0
 10
11.7539
 20
-3.3226
 30
0.0
 10
11.6405
 20
-3.3602
 30
0.0
 10
11.5572
 20
-3.436
 30
0.0
 10
11.5572
 20
-3.436
 30
0.0
 10
11.4735
 20
-3.5122
 30
0.0
 10
11.4317
 20
-3.6029
 30
0.0
 10
11.4317
 20
-3.7097
 30
0.0
 10
11.4317
 20
-3.7097
 30
0.0
 10
11.4317
 20
-3.8198
 30
0.0
 10
11.4768
 20
-3.9157
 30
0.0
 10
11.5667
 20
-3.9976
 30
0.0
 10
11.5667
 20
-3.9976
 30
0.0
 10
11.657
 20
-4.0794
 30
0.0
 10
11.7736
 20
-4.1203
 30
0.0
 10
11.9166
 20
-4.1203
 30
0.0
 10
11.9166
 20
-4.1203
 30
0.0
 10
12.0455
 20
-4.1203
 30
0.0
 10
12.1499
 20
-4.0813
 30
0.0
 10
12.2303
 20
-4.0037
 30
0.0
 10
12.2303
 20
-4.0037
 30
0.0
 10
12.3108
 20
-3.9261
 30
0.0
 10
12.3508
 20
-3.8306
 30
0.0
 10
12.3508
 20
-3.7168
 30
0.0
 10
12.3508
 20
-3.7168
 30
0.0
 10
12.3508
 20
-3.6015
 30
0.0
 10
12.3108
 20
-3.5075
 30
0.0
 10
12.2303
 20
-3.4336
 30
0.0
 10
12.2303
 20
-3.4336
 30
0.0
 10
12.1499
 20
-3.3593
 30
0.0
 10
12.0384
 20
-3.3226
 30
0.0
 10
11.8959
 20
-3.3226
 30
0.0
  0
SPLINE
  5
5D
330
1F
100
AcDbEntity
  8
ROUND
 62
   250
100
AcDbSpline
210
0.0
220
0.0
230
1.0
 70
    11
 71
     3
 72
    92
 73
    88
 74
     0
 42
0.0000000001
 43
0.0000000001
 40
0.0
 40
0.0
 40
0.0
 40
0.0
 40
0.0434782608695652
 40
0.0434782608695652
 40
0.0434782608695652
 40
0.0434782608695652
 40
0.0869565217391304
 40
0.0869565217391304
 40
0.0869565217391304
 40
0.0869565217391304
 40
0.1304347826086956
 40
0.1304347826086956
 40
0.1304347826086956
 40
0.1304347826086956
 40
0.1739130434782609
 40
0.1739130434782609
 40
0.1739130434782609
 40
0.1739130434782609
 40
0.2173913043478261
 40
0.2173913043478261
 40
0.2173913043478261
 40
0.2173913043478261
 40
0.2608695652173913
 40
0.2608695652173913
 40
0.2608695652173913
 40
0.2608695652173913
 40
0.3043478260869565
 40
0.3043478260869565
 40
0.3043478260869565
 40
0.3043478260869565
 40
0.3478260869565217
 40
0.3478260869565217
 40
0.3478260869565217
 40
0.3478260869565217
 40
0.391304347826087
 40
0.391304347826087
 40
0.391304347826087
 40
0.391304347826087
 40
0.4347826086956522
 40
0.4347826086956522
 40
0.4347826086956522
 40
0.4347826086956522
 40
0.4782608695652174
 40
0.4782608695652174
 40
0.4782608695652174
 40
0.4782608695652174
 40
0.5217391304347826
 40
0.5217391304347826
 40
0.5217391304347826
 40
0.5217391304347826
 40
0.5652173913043478
 40
0.5652173913043478
 40
0.5652173913043478
 40
0.5652173913043478
 40
0.6086956521739131
 40
0.6086956521739131
 40
0.6086956521739131
 40
0.6086956521739131
 40
0.6521739130434783
 40
0.6521739130434783
 40
0.6521739130434783
 40
0.6521739130434783
 40
0.6956521739130435
 40
0.6956521739130435
 40
0.6956521739130435
 40
0.6956521739130435
 40
0.7391304347826086
 40
0.7391304347826086
 40
0.7391304347826086
 40
0.7391304347826086
 40
0.782608695652174
 40
0.782608695652174
 40
0.782608695652174
 40
0.782608695652174
 40
0.8260869565217391
 40
0.8260869565217391
 40
0.8260869565217391
 40
0.8260869565217391
 40
0.8695652173913043
 40
0.8695652173913043
 40
0.8695652173913043
 40
0.8695652173913043
 40
0.9130434782608695
 40
0.9130434782608695
 40
0.9130434782608695
 40
0.9130434782608695
 40
1.0
 40
1.0
 40
1.0
 40
1.0
 10
12.7256
 20
-2.8057
 30
0.0
 10
12.7256
 20
-2.8057
 30
0.0
 10
12.7035
 20
-2.5451
 30
0.0
 10
12.7035
 20
-2.5451
 30
0.0
 10
12.7035
 20
-2.5451
 30
0.0
 10
12.8305
 20
-2.5258
 30
0.0
 10
12.9255
 20
-2.4811
 30
0.0
 10
12.9895
 20
-2.411
 30
0.0
 10
12.9895
 20
-2.411
 30
0.0
 10
13.0535
 20
-2.3405
 30
0.0
 10
13.0855
 20
-2.2558
 30
0.0
 10
13.0855
 20
-2.1566
 30
0.0
 10
13.0855
 20
-2.1566
 30
0.0
 10
13.0855
 20
-2.0371
 30
0.0
 10
13.0403
 20
-1.936
 30
0.0
 10
12.9505
 20
-1.8537
 30
0.0
 10
12.9505
 20
-1.8537
 30
0.0
 10
12.8602
 20
-1.7709
 30
0.0
 10
12.7407
 20
-1.7295
 30
0.0
 10
12.5921
 20
-1.7295
 30
0.0
 10
12.5921
 20
-1.7295
 30
0.0
 10
12.4505
 20
-1.7295
 30
0.0
 10
12.339
 20
-1.769
 30
0.0
 10
12.2572
 20
-1.8485
 30
0.0
 10
12.2572
 20
-1.8485
 30
0.0
 10
12.1753
 20
-1.928
 30
0.0
 10
12.1344
 20
-2.0319
 30
0.0
 10
12.1344
 20
-2.1608
 30
0.0
 10
12.1344
 20
-2.1608
 30
0.0
 10
12.1344
 20
-2.2408
 30
0.0
 10
12.1527
 20
-2.3127
 30
0.0
 10
12.1889
 20
-2.3772
 30
0.0
 10
12.1889
 20
-2.3772
 30
0.0
 10
12.2252
 20
-2.4416
 30
0.0
 10
12.2722
 20
-2.4919
 30
0.0
 10
12.3301
 20
-2.5286
 30
0.0
 10
12.3301
 20
-2.5286
 30
0.0
 10
12.3301
 20
-2.5286
 30
0.0
 10
12.3
 20
-2.7615
 30
0.0
 10
12.3
 20
-2.7615
 30
0.0
 10
12.3
 20
-2.7615
 30
0.0
 10
12.3
 20
-2.7615
 30
0.0
 10
11.2623
 20
-2.5658
 30
0.0
 10
11.2623
 20
-2.5658
 30
0.0
 10
11.2623
 20
-2.5658
 30
0.0
 10
11.2623
 20
-2.5658
 30
0.0
 10
11.2623
 20
-1.5611
 30
0.0
 10
11.2623
 20
-1.5611
 30
0.0
 10
11.2623
 20
-1.5611
 30
0.0
 10
11.2623
 20
-1.5611
 30
0.0
 10
11.4994
 20
-1.5611
 30
0.0
 10
11.4994
 20
-1.5611
 30
0.0
 10
11.4994
 20
-1.5611
 30
0.0
 10
11.4994
 20
-1.5611
 30
0.0
 10
11.4994
 20
-2.3673
 30
0.0
 10
11.4994
 20
-2.3673
 30
0.0
 10
11.4994
 20
-2.3673
 30
0.0
 10
11.4994
 20
-2.3673
 30
0.0
 10
12.0422
 20
-2.4764
 30
0.0
 10
12.0422
 20
-2.4764
 30
0.0
 10
12.0422
 20
-2.4764
 30
0.0
 10
11.9575
 20
-2.3551
 30
0.0
 10
11.9152
 20
-2.2276
 30
0.0
 10
11.9152
 20
-2.0945
 30
0.0
 10
11.9152
 20
-2.0945
 30
0.0
 10
11.9152
 20
-1.9181
 30
0.0
 10
11.9763
 20
-1.7695
 30
0.0
 10
12.0986
 20
-1.6481
 30
0.0
 10
12.0986
 20
-1.6481
 30
0.0
 10
12.2209
 20
-1.5268
 30
0.0
 10
12.378
 20
-1.4661
 30
0.0
 10
12.5699
 20
-1.4661
 30
0.0
 10
12.5699
 20
-1.4661
 30
0.0
 10
12.7529
 20
-1.4661
 30
0.0
 10
12.911
 20
-1.5197
 30
0.0
 10
13.0441
 20
-1.626
 30
0.0
 10
13.0441
 20
-1.626
 30
0.0
 10
13.2073
 20
-1.7558
 30
0.0
 10
13.2891
 20
-1.9327
 30
0.0
 10
13.2891
 20
-2.1566
 30
0.0
 10
13.2891
 20
-2.1566
 30
0.0
 10
13.2891
 20
-2.3405
 30
0.0
 10
13.2379
 20
-2.4905
 30
0.0
 10
13.1349
 20
-2.6067
 30
0.0
 10
13.1349
 20
-2.6067
 30
0.0
 10
13.0318
 20
-2.7229
 30
0.0
 10
12.8954
 20
-2.7892
 30
0.0
 10
12.7256
 20
-2.8057
 30
0.0
  0
SPLINE
  5
5E
330
1F
100
AcDbEntity
  8
ROUND
 62
   250
100
AcDbSpline
210
0.0
220
0.0
230
1.0
 70
    11
 71
     3
 72
    20
 73
    16
 74
     0
 42
0.0000000001
 43
0.0000000001
 40
0.0
 40
0.0
 40
0.0
 40
0.0
 40
0.2
 40
0.2
 40
0.2
 40
0.2
 40
0.4
 40
0.4
 40
0.4
 40
0.4
 40
0.6
 40
0.6
 40
0.6
 40
0.6
 40
1.0
 40
1.0
 40
1.0
 40
1.0
 10
13.1902
 20
2.0444
 30
0.0
 10
13.1902
 20
2.0444
 30
0.0
 10
13.6136
 20
5.0444
 30
0.0
 10
13.6136
 20
5.0444
 30
0.0
 10
13.6136
 20
5.0444
 30
0.0
 10
13.6136
 20
5.0444
 30
0.0
 10
13.7076
 20
5.0444
 30
0.0
 10
13.7076
 20
5.0444
 30
0.0
 10
13.7076
 20
5.0444
 30
0.0
 10
13.7076
 20
5.0444
 30
0.0
 10
14.1592
 20
2.0444
 30
0.0
 10
14.1592
 20
2.0444
 30
0.0
 10
14.1592
 20
2.0444
 30
0.0
 10
14.1592
 20
2.0444
 30
0.0
 10
13.1902
 20
2.0444
 30
0.0
 10
13.1902
 20
2.0444
 30
0.0
  0
SPLINE
  5
5F
330
1F
100
AcDbEntity
  8
ROUND
 62
   250
100
AcDbSpline
210
0.0
220
0.0
230
1.0
 70
    11
 71
     3
 72
    20
 73
    16
 74
     0
 42
0.0000000001
 43
0.0000000001
 40
0.0
 40
0.0
 40
0.0
 40
0.0
 40
0.2
 40
0.2
 40
0.2
 40
0.2
 40
0.4
 40
0.4
 40
0.4
 40
0.4
 40
0.6
 40
0.6
 40
0.6
 40
0.6
 40
1.0
 40
1.0
 40
1.0
 40
1.0
 10
14.1117
 20
-9.3488
 30
0.0
 10
14.1117
 20
-9.3488
 30
0.0
 10
13.6883
 20
-12.3489
 30
0.0
 10
13.6883
 20
-12.3489
 30
0.0
 10
13.6883
 20
-12.3489
 30
0.0
 10
13.6883
 20
-12.3489
 30
0.0
 10
13.5942
 20
-12.3489
 30
0.0
 10
13.5942
 20
-12.3489
 30
0.0
 10
13.5942
 20
-12.3489
 30
0.0
 10
13.5942
 20
-12.3489
 30
0.0
 10
13.1427
 20
-9.3488
 30
0.0
 10
13.1427
 20
-9.3488
 30
0.0
 10
13.1427
 20
-9.3488
 30
0.0
 10
13.1427
 20
-9.3488
 30
0.0
 10
14.1117
 20
-9.3488
 30
0.0
 10
14.1117
 20
-9.3488
 30
0.0
  0
SPLINE
  5
60
330
1F
100
AcDbEntity
  8
ROUND
 62
   250
100
AcDbSpline
210
0.0
220
0.0
230
1.0
 70
    24
 71
     3
 72
     8
 73
     4
 74
     0
 42
0.0000000001
 43
0.0000000001
 40
0.0
 40
0.0
 40
0.0
 40
0.0
 40
1.0
 40
1.0
 40
1.0
 40
1.0
 10
14.4802
 20
5.1729
 30
0.0
 10
14.4802
 20
5.1729
 30
0.0
 10
6.6274
 20
5.1729
 30
0.0
 10
6.6274
 20
5.1729
 30
0.0
  0
SPLINE
  5
61
330
1F
100
AcDbEntity
  8
ROUND
 62
   250
100
AcDbSpline
210
0.0
220
0.0
230
1.0
 70
     8
 71
     3
 72
    16
 73
    12
 74
     0
 42
0.0000000001
 43
0.0000000001
 40
0.0
 40
0.0
 40
0.0
 40
0.0
 40
0.25
 40
0.25
 40
0.25
 40
0.25
 40
0.5
 40
0.5
 40
0.5
 40
0.5
 40
1.0
 40
1.0
 40
1.0
 40
1.0
 10
-1.0619
 20
-2.9527
 30
0.0
 10
-1.0619
 20
-2.9527
 30
0.0
 10
-1.0619
 20
-5.4339
 30
0.0
 10
-1.0619
 20
-5.4339
 30
0.0
 10
-1.0619
 20
-5.4339
 30
0.0
 10
-1.0619
 20
-5.4339
 30
0.0
 10
9.2573
 20
-5.4412
 30
0.0
 10
9.2573
 20
-5.4412
 30
0.0
 10
9.2573
 20
-5.4412
 30
0.0
 10
9.2573
 20
-5.4412
 30
0.0
 10
9.2573
 20
-2.9272
 30
0.0
 10
9.2573
 20
-2.9272
 30
0.0
  0
SPLINE
  5
62
330
1F
100
AcDbEntity
  8
ROUND
 62
   250
100
AcDbSpline
210
0.0
220
0.0
230
1.0
 70
     8
 71
     3
 72
   124
 73
   120
 74
     0
 42
0.0000000001
 43
0.0000000001
 40
0.0
 40
0.0
 40
0.0
 40
0.0
 40
0.032258064516129
 40
0.032258064516129
 40
0.032258064516129
 40
0.032258064516129
 40
0.0645161290322581
 40
0.0645161290322581
 40
0.0645161290322581
 40
0.0645161290322581
 40
0.0967741935483871
 40
0.0967741935483871
 40
0.0967741935483871
 40
0.0967741935483871
 40
0.1290322580645161
 40
0.1290322580645161
 40
0.1290322580645161
 40
0.1290322580645161
 40
0.1612903225806452
 40
0.1612903225806452
 40
0.1612903225806452
 40
0.1612903225806452
 40
0.1935483870967742
 40
0.1935483870967742
 40
0.1935483870967742
 40
0.1935483870967742
 40
0.2258064516129032
 40
0.2258064516129032
 40
0.2258064516129032
 40
0.2258064516129032
 40
0.2580645161290323
 40
0.2580645161290323
 40
0.2580645161290323
 40
0.2580645161290323
 40
0.2903225806451613
 40
0.2903225806451613
 40
0.2903225806451613
 40
0.2903225806451613
 40
0.3225806451612903
 40
0.3225806451612903
 40
0.3225806451612903
 40
0.3225806451612903
 40
0.3548387096774194
 40
0.3548387096774194
 40
0.3548387096774194
 40
0.3548387096774194
 40
0.3870967741935484
 40
0.3870967741935484
 40
0.3870967741935484
 40
0.3870967741935484
 40
0.4193548387096774
 40
0.4193548387096774
 40
0.4193548387096774
 40
0.4193548387096774
 40
0.4516129032258064
 40
0.4516129032258064
 40
0.4516129032258064
 40
0.4516129032258064
 40
0.4838709677419355
 40
0.4838709677419355
 40
0.4838709677419355
 40
0.4838709677419355
 40
0.5161290322580645
 40
0.5161290322580645
 40
0.5161290322580645
 40
0.5161290322580645
 40
0.5483870967741935
 40
0.5483870967741935
 40
0.5483870967741935
 40
0.5483870967741935
 40
0.5806451612903226
 40
0.5806451612903226
 40
0.5806451612903226
 40
0.5806451612903226
 40
0.6129032258064516
 40
0.6129032258064516
 40
0.6129032258064516
 40
0.6129032258064516
 40
0.6451612903225806
 40
0.6451612903225806
 40
0.6451612903225806
 40
0.6451612903225806
 40
0.6774193548387096
 40
0.6774193548387096
 40
0.6774193548387096
 40
0.6774193548387096
 40
0.7096774193548387
 40
0.7096774193548387
 40
0.7096774193548387
 40
0.7096774193548387
 40
0.7419354838709677
 40
0.7419354838709677
 40
0.7419354838709677
 40
0.7419354838709677
 40
0.7741935483870968
 40
0.7741935483870968
 40
0.7741935483870968
 40
0.7741935483870968
 40
0.8064516129032258
 40
0.8064516129032258
 40
0.8064516129032258
 40
0.8064516129032258
 40
0.8387096774193549
 40
0.8387096774193549
 40
0.8387096774193549
 40
0.8387096774193549
 40
0.8709677419354839
 40
0.8709677419354839
 40
0.8709677419354839
 40
0.8709677419354839
 40
0.9032258064516129
 40
0.9032258064516129
 40
0.9032258064516129
 40
0.9032258064516129
 40
0.9354838709677419
 40
0.9354838709677419
 40
0.9354838709677419
 40
0.9354838709677419
 40
1.0
 40
1.0
 40
1.0
 40
1.0
 10
9.2049
 20
-3.3071
 30
0.0
 10
9.2049
 20
-3.3071
 30
0.0
 10
9.2049
 20
-4.9022
 30
0.0
 10
9.2049
 20
-4.9022
 30
0.0
 10
9.2049
 20
-4.9022
 30
0.0
 10
9.2049
 20
-4.9022
 30
0.0
 10
8.0038
 20
-4.8996
 30
0.0
 10
8.0038
 20
-4.8996
 30
0.0
 10
8.0038
 20
-4.8996
 30
0.0
 10
8.0038
 20
-4.8996
 30
0.0
 10
7.9893
 20
-3.1985
 30
0.0
 10
7.9893
 20
-3.1985
 30
0.0
 10
7.9893
 20
-3.1985
 30
0.0
 10
7.9893
 20
-3.1985
 30
0.0
 10
7.9169
 20
-3.075
 30
0.0
 10
7.9169
 20
-3.075
 30
0.0
 10
7.9169
 20
-3.075
 30
0.0
 10
7.9169
 20
-3.075
 30
0.0
 10
7.7723
 20
-2.9515
 30
0.0
 10
7.7723
 20
-2.9515
 30
0.0
 10
7.7723
 20
-2.9515
 30
0.0
 10
7.7723
 20
-2.9515
 30
0.0
 10
7.642
 20
-2.9515
 30
0.0
 10
7.642
 20
-2.9515
 30
0.0
 10
7.642
 20
-2.9515
 30
0.0
 10
7.642
 20
-2.9515
 30
0.0
 10
7.5552
 20
-3.0201
 30
0.0
 10
7.5552
 20
-3.0201
 30
0.0
 10
7.5552
 20
-3.0201
 30
0.0
 10
7.5552
 20
-3.0201
 30
0.0
 10
7.4684
 20
-3.1025
 30
0.0
 10
7.4684
 20
-3.1025
 30
0.0
 10
7.4684
 20
-3.1025
 30
0.0
 10
7.4684
 20
-3.1025
 30
0.0
 10
7.4539
 20
-3.2945
 30
0.0
 10
7.4539
 20
-3.2945
 30
0.0
 10
7.4539
 20
-3.2945
 30
0.0
 10
7.4539
 20
-3.2945
 30
0.0
 10
7.4395
 20
-4.8721
 30
0.0
 10
7.4395
 20
-4.8721
 30
0.0
 10
7.4395
 20
-4.8721
 30
0.0
 10
7.4395
 20
-4.8721
 30
0.0
 10
4.43
 20
-4.8996
 30
0.0
 10
4.43
 20
-4.8996
 30
0.0
 10
4.43
 20
-4.8996
 30
0.0
 10
4.43
 20
-4.8996
 30
0.0
 10
4.4445
 20
-3.3082
 30
0.0
 10
4.4445
 20
-3.3082
 30
0.0
 10
4.4445
 20
-3.3082
 30
0.0
 10
4.4445
 20
-3.3082
 30
0.0
 10
4.4011
 20
-3.1573
 30
0.0
 10
4.4011
 20
-3.1573
 30
0.0
 10
4.4011
 20
-3.1573
 30
0.0
 10
4.4011
 20
-3.1573
 30
0.0
 10
4.3143
 20
-3.0339
 30
0.0
 10
4.3143
 20
-3.0339
 30
0.0
 10
4.3143
 20
-3.0339
 30
0.0
 10
4.3143
 20
-3.0339
 30
0.0
 10
4.1696
 20
-2.9653
 30
0.0
 10
4.1696
 20
-2.9653
 30
0.0
 10
4.1696
 20
-2.9653
 30
0.0
 10
4.1696
 20
-2.9653
 30
0.0
 10
3.996
 20
-2.9653
 30
0.0
 10
3.996
 20
-2.9653
 30
0.0
 10
3.996
 20
-2.9653
 30
0.0
 10
3.996
 20
-2.9653
 30
0.0
 10
3.8657
 20
-3.0201
 30
0.0
 10
3.8657
 20
-3.0201
 30
0.0
 10
3.8657
 20
-3.0201
 30
0.0
 10
3.8657
 20
-3.0201
 30
0.0
 10
3.7645
 20
-3.1299
 30
0.0
 10
3.7645
 20
-3.1299
 30
0.0
 10
3.7645
 20
-3.1299
 30
0.0
 10
3.7645
 20
-3.1299
 30
0.0
 10
3.7211
 20
-3.2671
 30
0.0
 10
3.7211
 20
-3.2671
 30
0.0
 10
3.7211
 20
-3.2671
 30
0.0
 10
3.7211
 20
-3.2671
 30
0.0
 10
3.7355
 20
-4.8859
 30
0.0
 10
3.7355
 20
-4.8859
 30
0.0
 10
3.7355
 20
-4.8859
 30
0.0
 10
3.7355
 20
-4.8859
 30
0.0
 10
0.7116
 20
-4.8996
 30
0.0
 10
0.7116
 20
-4.8996
 30
0.0
 10
0.7116
 20
-4.8996
 30
0.0
 10
0.7116
 20
-4.8996
 30
0.0
 10
0.7078
 20
-3.2409
 30
0.0
 10
0.7078
 20
-3.2409
 30
0.0
 10
0.7078
 20
-3.2409
 30
0.0
 10
0.7078
 20
-3.2409
 30
0.0
 10
0.6533
 20
-3.0656
 30
0.0
 10
0.6533
 20
-3.0656
 30
0.0
 10
0.6533
 20
-3.0656
 30
0.0
 10
0.6533
 20
-3.0656
 30
0.0
 10
0.5007
 20
-2.9521
 30
0.0
 10
0.5007
 20
-2.9521
 30
0.0
 10
0.5007
 20
-2.9521
 30
0.0
 10
0.5007
 20
-2.9521
 30
0.0
 10
0.3809
 20
-2.9521
 30
0.0
 10
0.3809
 20
-2.9521
 30
0.0
 10
0.3809
 20
-2.9521
 30
0.0
 10
0.3809
 20
-2.9521
 30
0.0
 10
0.2719
 20
-3.0037
 30
0.0
 10
0.2719
 20
-3.0037
 30
0.0
 10
0.2719
 20
-3.0037
 30
0.0
 10
0.2719
 20
-3.0037
 30
0.0
 10
0.2065
 20
-3.1687
 30
0.0
 10
0.2065
 20
-3.1687
 30
0.0
 10
0.2065
 20
-3.1687
 30
0.0
 10
0.2065
 20
-3.1687
 30
0.0
 10
0.1847
 20
-3.2822
 30
0.0
 10
0.1847
 20
-3.2822
 30
0.0
 10
0.1847
 20
-3.2822
 30
0.0
 10
0.1847
 20
-3.2822
 30
0.0
 10
0.1847
 20
-4.9013
 30
0.0
 10
0.1847
 20
-4.9013
 30
0.0
 10
0.1847
 20
-4.9013
 30
0.0
 10
0.1847
 20
-4.9013
 30
0.0
 10
-1.0796
 20
-4.9013
 30
0.0
 10
-1.0796
 20
-4.9013
 30
0.0
  0
SPLINE
  5
63
330
1F
100
AcDbEntity
  8
ROUND
 62
   250
100
AcDbSpline
210
0.0
220
0.0
230
1.0
 70
     8
 71
     3
 72
    36
 73
    32
 74
     0
 42
0.0000000001
 43
0.0000000001
 40
0.0
 40
0.0
 40
0.0
 40
0.0
 40
0.1111111111111111
 40
0.1111111111111111
 40
0.1111111111111111
 40
0.1111111111111111
 40
0.2222222222222222
 40
0.2222222222222222
 40
0.2222222222222222
 40
0.2222222222222222
 40
0.3333333333333333
 40
0.3333333333333333
 40
0.3333333333333333
 40
0.3333333333333333
 40
0.4444444444444444
 40
0.4444444444444444
 40
0.4444444444444444
 40
0.4444444444444444
 40
0.5555555555555556
 40
0.5555555555555556
 40
0.5555555555555556
 40
0.5555555555555556
 40
0.6666666666666666
 40
0.6666666666666666
 40
0.6666666666666666
 40
0.6666666666666666
 40
0.7777777777777778
 40
0.7777777777777778
 40
0.7777777777777778
 40
0.7777777777777778
 40
1.0
 40
1.0
 40
1.0
 40
1.0
 10
-0.9706
 20
-4.9069
 30
0.0
 10
-0.9706
 20
-4.9069
 30
0.0
 10
-0.9686
 20
-2.7055
 30
0.0
 10
-0.9686
 20
-2.5097
 30
0.0
 10
-0.9686
 20
-2.5097
 30
0.0
 10
-0.9686
 20
-2.314
 30
0.0
 10
-0.8009
 20
-2.1552
 30
0.0
 10
-0.5945
 20
-2.1552
 30
0.0
 10
-0.5945
 20
-2.1552
 30
0.0
 10
-0.3881
 20
-2.1552
 30
0.0
 10
8.7493
 20
-2.1485
 30
0.0
 10
8.7493
 20
-2.1485
 30
0.0
 10
8.7493
 20
-2.1485
 30
0.0
 10
8.7493
 20
-2.1485
 30
0.0
 10
8.8971
 20
-2.1994
 30
0.0
 10
8.8971
 20
-2.1994
 30
0.0
 10
8.8971
 20
-2.1994
 30
0.0
 10
8.8971
 20
-2.1994
 30
0.0
 10
9.0272
 20
-2.2635
 30
0.0
 10
9.0272
 20
-2.2635
 30
0.0
 10
9.0272
 20
-2.2635
 30
0.0
 10
9.0272
 20
-2.2635
 30
0.0
 10
9.1053
 20
-2.3671
 30
0.0
 10
9.1053
 20
-2.3671
 30
0.0
 10
9.1053
 20
-2.3671
 30
0.0
 10
9.1053
 20
-2.3671
 30
0.0
 10
9.1261
 20
-2.4806
 30
0.0
 10
9.1261
 20
-2.4806
 30
0.0
 10
9.1261
 20
-2.4806
 30
0.0
 10
9.1261
 20
-2.4806
 30
0.0
 10
9.1209
 20
-4.9132
 30
0.0
 10
9.1209
 20
-4.9132
 30
0.0
  0
SPLINE
  5
64
330
1F
100
AcDbEntity
  8
ROUND
 62
   250
100
AcDbSpline
210
0.0
220
0.0
230
1.0
 70
     8
 71
     3
 72
    16
 73
    12
 74
     0
 42
0.0000000001
 43
0.0000000001
 40
0.0
 40
0.0
 40
0.0
 40
0.0
 40
0.25
 40
0.25
 40
0.25
 40
0.25
 40
0.5
 40
0.5
 40
0.5
 40
0.5
 40
1.0
 40
1.0
 40
1.0
 40
1.0
 10
25.9251
 20
-5.6063
 30
0.0
 10
25.9251
 20
-5.6063
 30
0.0
 10
25.9251
 20
-3.1251
 30
0.0
 10
25.9251
 20
-3.1251
 30
0.0
 10
25.9251
 20
-3.1251
 30
0.0
 10
25.9251
 20
-3.1251
 30
0.0
 10
15.6059
 20
-3.1178
 30
0.0
 10
15.6059
 20
-3.1178
 30
0.0
 10
15.6059
 20
-3.1178
 30
0.0
 10
15.6059
 20
-3.1178
 30
0.0
 10
15.6059
 20
-5.6318
 30
0.0
 10
15.6059
 20
-5.6318
 30
0.0
  0
SPLINE
  5
65
330
1F
100
AcDbEntity
  8
ROUND
 62
   250
100
AcDbSpline
210
0.0
220
0.0
230
1.0
 70
     8
 71
     3
 72
   124
 73
   120
 74
     0
 42
0.0000000001
 43
0.0000000001
 40
0.0
 40
0.0
 40
0.0
 40
0.0
 40
0.032258064516129
 40
0.032258064516129
 40
0.032258064516129
 40
0.032258064516129
 40
0.0645161290322581
 40
0.0645161290322581
 40
0.0645161290322581
 40
0.0645161290322581
 40
0.0967741935483871
 40
0.0967741935483871
 40
0.0967741935483871
 40
0.0967741935483871
 40
0.1290322580645161
 40
0.1290322580645161
 40
0.1290322580645161
 40
0.1290322580645161
 40
0.1612903225806452
 40
0.1612903225806452
 40
0.1612903225806452
 40
0.1612903225806452
 40
0.1935483870967742
 40
0.1935483870967742
 40
0.1935483870967742
 40
0.1935483870967742
 40
0.2258064516129032
 40
0.2258064516129032
 40
0.2258064516129032
 40
0.2258064516129032
 40
0.2580645161290323
 40
0.2580645161290323
 40
0.2580645161290323
 40
0.2580645161290323
 40
0.2903225806451613
 40
0.2903225806451613
 40
0.2903225806451613
 40
0.2903225806451613
 40
0.3225806451612903
 40
0.3225806451612903
 40
0.3225806451612903
 40
0.3225806451612903
 40
0.3548387096774194
 40
0.3548387096774194
 40
0.3548387096774194
 40
0.3548387096774194
 40
0.3870967741935484
 40
0.3870967741935484
 40
0.3870967741935484
 40
0.3870967741935484
 40
0.4193548387096774
 40
0.4193548387096774
 40
0.4193548387096774
 40
0.4193548387096774
 40
0.4516129032258064
 40
0.4516129032258064
 40
0.4516129032258064
 40
0.4516129032258064
 40
0.4838709677419355
 40
0.4838709677419355
 40
0.4838709677419355
 40
0.4838709677419355
 40
0.5161290322580645
 40
0.5161290322580645
 40
0.5161290322580645
 40
0.5161290322580645
 40
0.5483870967741935
 40
0.5483870967741935
 40
0.5483870967741935
 40
0.5483870967741935
 40
0.5806451612903226
 40
0.5806451612903226
 40
0.5806451612903226
 40
0.5806451612903226
 40
0.6129032258064516
 40
0.6129032258064516
 40
0.6129032258064516
 40
0.6129032258064516
 40
0.6451612903225806
 40
0.6451612903225806
 40
0.6451612903225806
 40
0.6451612903225806
 40
0.6774193548387096
 40
0.6774193548387096
 40
0.6774193548387096
 40
0.6774193548387096
 40
0.7096774193548387
 40
0.7096774193548387
 40
0.7096774193548387
 40
0.7096774193548387
 40
0.7419354838709677
 40
0.7419354838709677
 40
0.7419354838709677
 40
0.7419354838709677
 40
0.7741935483870968
 40
0.7741935483870968
 40
0.7741935483870968
 40
0.7741935483870968
 40
0.8064516129032258
 40
0.8064516129032258
 40
0.8064516129032258
 40
0.8064516129032258
 40
0.8387096774193549
 40
0.8387096774193549
 40
0.8387096774193549
 40
0.8387096774193549
 40
0.8709677419354839
 40
0.8709677419354839
 40
0.8709677419354839
 40
0.8709677419354839
 40
0.9032258064516129
 40
0.9032258064516129
 40
0.9032258064516129
 40
0.9032258064516129
 40
0.9354838709677419
 40
0.9354838709677419
 40
0.9354838709677419
 40
0.9354838709677419
 40
1.0
 40
1.0
 40
1.0
 40
1.0
 10
15.6583
 20
-5.2519
 30
0.0
 10
15.6583
 20
-5.2519
 30
0.0
 10
15.6583
 20
-3.6568
 30
0.0
 10
15.6583
 20
-3.6568
 30
0.0
 10
15.6583
 20
-3.6568
 30
0.0
 10
15.6583
 20
-3.6568
 30
0.0
 10
16.8594
 20
-3.6594
 30
0.0
 10
16.8594
 20
-3.6594
 30
0.0
 10
16.8594
 20
-3.6594
 30
0.0
 10
16.8594
 20
-3.6594
 30
0.0
 10
16.8739
 20
-5.3605
 30
0.0
 10
16.8739
 20
-5.3605
 30
0.0
 10
16.8739
 20
-5.3605
 30
0.0
 10
16.8739
 20
-5.3605
 30
0.0
 10
16.9463
 20
-5.484
 30
0.0
 10
16.9463
 20
-5.484
 30
0.0
 10
16.9463
 20
-5.484
 30
0.0
 10
16.9463
 20
-5.484
 30
0.0
 10
17.0909
 20
-5.6075
 30
0.0
 10
17.0909
 20
-5.6075
 30
0.0
 10
17.0909
 20
-5.6075
 30
0.0
 10
17.0909
 20
-5.6075
 30
0.0
 10
17.2212
 20
-5.6075
 30
0.0
 10
17.2212
 20
-5.6075
 30
0.0
 10
17.2212
 20
-5.6075
 30
0.0
 10
17.2212
 20
-5.6075
 30
0.0
 10
17.308
 20
-5.5389
 30
0.0
 10
17.308
 20
-5.5389
 30
0.0
 10
17.308
 20
-5.5389
 30
0.0
 10
17.308
 20
-5.5389
 30
0.0
 10
17.3948
 20
-5.4565
 30
0.0
 10
17.3948
 20
-5.4565
 30
0.0
 10
17.3948
 20
-5.4565
 30
0.0
 10
17.3948
 20
-5.4565
 30
0.0
 10
17.4093
 20
-5.2645
 30
0.0
 10
17.4093
 20
-5.2645
 30
0.0
 10
17.4093
 20
-5.2645
 30
0.0
 10
17.4093
 20
-5.2645
 30
0.0
 10
17.4237
 20
-3.6869
 30
0.0
 10
17.4237
 20
-3.6869
 30
0.0
 10
17.4237
 20
-3.6869
 30
0.0
 10
17.4237
 20
-3.6869
 30
0.0
 10
20.4332
 20
-3.6594
 30
0.0
 10
20.4332
 20
-3.6594
 30
0.0
 10
20.4332
 20
-3.6594
 30
0.0
 10
20.4332
 20
-3.6594
 30
0.0
 10
20.4187
 20
-5.2508
 30
0.0
 10
20.4187
 20
-5.2508
 30
0.0
 10
20.4187
 20
-5.2508
 30
0.0
 10
20.4187
 20
-5.2508
 30
0.0
 10
20.4621
 20
-5.4017
 30
0.0
 10
20.4621
 20
-5.4017
 30
0.0
 10
20.4621
 20
-5.4017
 30
0.0
 10
20.4621
 20
-5.4017
 30
0.0
 10
20.5489
 20
-5.5251
 30
0.0
 10
20.5489
 20
-5.5251
 30
0.0
 10
20.5489
 20
-5.5251
 30
0.0
 10
20.5489
 20
-5.5251
 30
0.0
 10
20.6936
 20
-5.5937
 30
0.0
 10
20.6936
 20
-5.5937
 30
0.0
 10
20.6936
 20
-5.5937
 30
0.0
 10
20.6936
 20
-5.5937
 30
0.0
 10
20.8672
 20
-5.5937
 30
0.0
 10
20.8672
 20
-5.5937
 30
0.0
 10
20.8672
 20
-5.5937
 30
0.0
 10
20.8672
 20
-5.5937
 30
0.0
 10
20.9975
 20
-5.5389
 30
0.0
 10
20.9975
 20
-5.5389
 30
0.0
 10
20.9975
 20
-5.5389
 30
0.0
 10
20.9975
 20
-5.5389
 30
0.0
 10
21.0987
 20
-5.4291
 30
0.0
 10
21.0987
 20
-5.4291
 30
0.0
 10
21.0987
 20
-5.4291
 30
0.0
 10
21.0987
 20
-5.4291
 30
0.0
 10
21.1421
 20
-5.2919
 30
0.0
 10
21.1421
 20
-5.2919
 30
0.0
 10
21.1421
 20
-5.2919
 30
0.0
 10
21.1421
 20
-5.2919
 30
0.0
 10
21.1277
 20
-3.6731
 30
0.0
 10
21.1277
 20
-3.6731
 30
0.0
 10
21.1277
 20
-3.6731
 30
0.0
 10
21.1277
 20
-3.6731
 30
0.0
 10
24.1516
 20
-3.6594
 30
0.0
 10
24.1516
 20
-3.6594
 30
0.0
 10
24.1516
 20
-3.6594
 30
0.0
 10
24.1516
 20
-3.6594
 30
0.0
 10
24.1554
 20
-5.3181
 30
0.0
 10
24.1554
 20
-5.3181
 30
0.0
 10
24.1554
 20
-5.3181
 30
0.0
 10
24.1554
 20
-5.3181
 30
0.0
 10
24.2099
 20
-5.4934
 30
0.0
 10
24.2099
 20
-5.4934
 30
0.0
 10
24.2099
 20
-5.4934
 30
0.0
 10
24.2099
 20
-5.4934
 30
0.0
 10
24.3625
 20
-5.6069
 30
0.0
 10
24.3625
 20
-5.6069
 30
0.0
 10
24.3625
 20
-5.6069
 30
0.0
 10
24.3625
 20
-5.6069
 30
0.0
 10
24.4823
 20
-5.6069
 30
0.0
 10
24.4823
 20
-5.6069
 30
0.0
 10
24.4823
 20
-5.6069
 30
0.0
 10
24.4823
 20
-5.6069
 30
0.0
 10
24.5913
 20
-5.5553
 30
0.0
 10
24.5913
 20
-5.5553
 30
0.0
 10
24.5913
 20
-5.5553
 30
0.0
 10
24.5913
 20
-5.5553
 30
0.0
 10
24.6567
 20
-5.3903
 30
0.0
 10
24.6567
 20
-5.3903
 30
0.0
 10
24.6567
 20
-5.3903
 30
0.0
 10
24.6567
 20
-5.3903
 30
0.0
 10
24.6785
 20
-5.2768
 30
0.0
 10
24.6785
 20
-5.2768
 30
0.0
 10
24.6785
 20
-5.2768
 30
0.0
 10
24.6785
 20
-5.2768
 30
0.0
 10
24.6785
 20
-3.6577
 30
0.0
 10
24.6785
 20
-3.6577
 30
0.0
 10
24.6785
 20
-3.6577
 30
0.0
 10
24.6785
 20
-3.6577
 30
0.0
 10
25.9428
 20
-3.6577
 30
0.0
 10
25.9428
 20
-3.6577
 30
0.0
  0
SPLINE
  5
66
330
1F
100
AcDbEntity
  8
ROUND
 62
   250
100
AcDbSpline
210
0.0
220
0.0
230
1.0
 70
     8
 71
     3
 72
    36
 73
    32
 74
     0
 42
0.0000000001
 43
0.0000000001
 40
0.0
 40
0.0
 40
0.0
 40
0.0
 40
0.1111111111111111
 40
0.1111111111111111
 40
0.1111111111111111
 40
0.1111111111111111
 40
0.2222222222222222
 40
0.2222222222222222
 40
0.2222222222222222
 40
0.2222222222222222
 40
0.3333333333333333
 40
0.3333333333333333
 40
0.3333333333333333
 40
0.3333333333333333
 40
0.4444444444444444
 40
0.4444444444444444
 40
0.4444444444444444
 40
0.4444444444444444
 40
0.5555555555555556
 40
0.5555555555555556
 40
0.5555555555555556
 40
0.5555555555555556
 40
0.6666666666666666
 40
0.6666666666666666
 40
0.6666666666666666
 40
0.6666666666666666
 40
0.7777777777777778
 40
0.7777777777777778
 40
0.7777777777777778
 40
0.7777777777777778
 40
1.0
 40
1.0
 40
1.0
 40
1.0
 10
25.8338
 20
-3.6521
 30
0.0
 10
25.8338
 20
-3.6521
 30
0.0
 10
25.8318
 20
-5.8535
 30
0.0
 10
25.8318
 20
-6.0493
 30
0.0
 10
25.8318
 20
-6.0493
 30
0.0
 10
25.8318
 20
-6.245
 30
0.0
 10
25.6641
 20
-6.4038
 30
0.0
 10
25.4577
 20
-6.4038
 30
0.0
 10
25.4577
 20
-6.4038
 30
0.0
 10
25.2513
 20
-6.4038
 30
0.0
 10
16.1139
 20
-6.4105
 30
0.0
 10
16.1139
 20
-6.4105
 30
0.0
 10
16.1139
 20
-6.4105
 30
0.0
 10
16.1139
 20
-6.4105
 30
0.0
 10
15.9661
 20
-6.3596
 30
0.0
 10
15.9661
 20
-6.3596
 30
0.0
 10
15.9661
 20
-6.3596
 30
0.0
 10
15.9661
 20
-6.3596
 30
0.0
 10
15.836
 20
-6.2955
 30
0.0
 10
15.836
 20
-6.2955
 30
0.0
 10
15.836
 20
-6.2955
 30
0.0
 10
15.836
 20
-6.2955
 30
0.0
 10
15.7579
 20
-6.1919
 30
0.0
 10
15.7579
 20
-6.1919
 30
0.0
 10
15.7579
 20
-6.1919
 30
0.0
 10
15.7579
 20
-6.1919
 30
0.0
 10
15.7371
 20
-6.0784
 30
0.0
 10
15.7371
 20
-6.0784
 30
0.0
 10
15.7371
 20
-6.0784
 30
0.0
 10
15.7371
 20
-6.0784
 30
0.0
 10
15.7423
 20
-3.6458
 30
0.0
 10
15.7423
 20
-3.6458
 30
0.0
  0
SPLINE
  5
67
330
1F
100
AcDbEntity
  8
ROUND
 62
   250
100
AcDbSpline
210
0.0
220
0.0
230
1.0
 70
     8
 71
     3
 72
    80
 73
    76
 74
     0
 42
0.0000000001
 43
0.0000000001
 40
0.0
 40
0.0
 40
0.0
 40
0.0
 40
0.05
 40
0.05
 40
0.05
 40
0.05
 40
0.1
 40
0.1
 40
0.1
 40
0.1
 40
0.15
 40
0.15
 40
0.15
 40
0.15
 40
0.2
 40
0.2
 40
0.2
 40
0.2
 40
0.25
 40
0.25
 40
0.25
 40
0.25
 40
0.3
 40
0.3
 40
0.3
 40
0.3
 40
0.35
 40
0.35
 40
0.35
 40
0.35
 40
0.4
 40
0.4
 40
0.4
 40
0.4
 40
0.45
 40
0.45
 40
0.45
 40
0.45
 40
0.5
 40
0.5
 40
0.5
 40
0.5
 40
0.55
 40
0.55
 40
0.55
 40
0.55
 40
0.6
 40
0.6
 40
0.6
 40
0.6
 40
0.65
 40
0.65
 40
0.65
 40
0.65
 40
0.7
 40
0.7
 40
0.7
 40
0.7
 40
0.75
 40
0.75
 40
0.75
 40
0.75
 40
0.8
 40
0.8
 40
0.8
 40
0.8
 40
0.85
 40
0.85
 40
0.85
 40
0.85
 40
0.9
 40
0.9
 40
0.9
 40
0.9
 40
1.0
 40
1.0
 40
1.0
 40
1.0
 10
-0.6083
 20
-9.3253
 30
0.0
 10
-0.6083
 20
-9.3253
 30
0.0
 10
-0.6083
 20
-9.7164
 30
0.0
 10
-0.6083
 20
-9.7164
 30
0.0
 10
-0.6083
 20
-9.7164
 30
0.0
 10
-0.6083
 20
-9.7164
 30
0.0
 10
-0.5551
 20
-10.0186
 30
0.0
 10
-0.5551
 20
-10.0186
 30
0.0
 10
-0.5551
 20
-10.0186
 30
0.0
 10
-0.5551
 20
-10.0186
 30
0.0
 10
-0.4841
 20
-10.4452
 30
0.0
 10
-0.4841
 20
-10.4452
 30
0.0
 10
-0.4841
 20
-10.4452
 30
0.0
 10
-0.4841
 20
-10.4452
 30
0.0
 10
-0.2358
 20
-11.0496
 30
0.0
 10
-0.2358
 20
-11.0496
 30
0.0
 10
-0.2358
 20
-11.0496
 30
0.0
 10
-0.2358
 20
-11.0496
 30
0.0
 10
0.1368
 20
-11.5296
 30
0.0
 10
0.1368
 20
-11.5296
 30
0.0
 10
0.1368
 20
-11.5296
 30
0.0
 10
0.1368
 20
-11.5296
 30
0.0
 10
0.6158
 20
-11.974
 30
0.0
 10
0.6158
 20
-11.974
 30
0.0
 10
0.6158
 20
-11.974
 30
0.0
 10
0.6158
 20
-11.974
 30
0.0
 10
1.1303
 20
-12.2051
 30
0.0
 10
1.1303
 20
-12.2051
 30
0.0
 10
1.1303
 20
-12.2051
 30
0.0
 10
1.1303
 20
-12.2051
 30
0.0
 10
1.627
 20
-12.4007
 30
0.0
 10
1.627
 20
-12.4007
 30
0.0
 10
1.627
 20
-12.4007
 30
0.0
 10
1.627
 20
-12.4007
 30
0.0
 10
2.2053
 20
-12.4468
 30
0.0
 10
2.2053
 20
-12.4468
 30
0.0
 10
2.2053
 20
-12.4468
 30
0.0
 10
2.2053
 20
-12.4468
 30
0.0
 10
22.5966
 20
-12.4468
 30
0.0
 10
22.5966
 20
-12.4468
 30
0.0
 10
22.5966
 20
-12.4468
 30
0.0
 10
22.5966
 20
-12.4468
 30
0.0
 10
23.1656
 20
-12.387
 30
0.0
 10
23.1656
 20
-12.387
 30
0.0
 10
23.1656
 20
-12.387
 30
0.0
 10
23.1656
 20
-12.387
 30
0.0
 10
23.6756
 20
-12.217
 30
0.0
 10
23.6756
 20
-12.217
 30
0.0
 10
23.6756
 20
-12.217
 30
0.0
 10
23.6756
 20
-12.217
 30
0.0
 10
24.1006
 20
-12.013
 30
0.0
 10
24.1006
 20
-12.013
 30
0.0
 10
24.1006
 20
-12.013
 30
0.0
 10
24.1006
 20
-12.013
 30
0.0
 10
24.5256
 20
-11.69
 30
0.0
 10
24.5256
 20
-11.69
 30
0.0
 10
24.5256
 20
-11.69
 30
0.0
 10
24.5256
 20
-11.69
 30
0.0
 10
24.9166
 20
-11.248
 30
0.0
 10
24.9166
 20
-11.248
 30
0.0
 10
24.9166
 20
-11.248
 30
0.0
 10
24.9166
 20
-11.248
 30
0.0
 10
25.1716
 20
-10.721
 30
0.0
 10
25.1716
 20
-10.721
 30
0.0
 10
25.1716
 20
-10.721
 30
0.0
 10
25.1716
 20
-10.721
 30
0.0
 10
25.3076
 20
-10.228
 30
0.0
 10
25.3076
 20
-10.228
 30
0.0
 10
25.3076
 20
-10.228
 30
0.0
 10
25.3076
 20
-10.228
 30
0.0
 10
25.3586
 20
-9.735
 30
0.0
 10
25.3586
 20
-9.735
 30
0.0
 10
25.3586
 20
-9.735
 30
0.0
 10
25.3586
 20
-9.735
 30
0.0
 10
25.3586
 20
-9.31
 30
0.0
 10
25.3586
 20
-9.31
 30
0.0
  0
SPLINE
  5
68
330
1F
100
AcDbEntity
  8
ROUND
 62
   250
100
AcDbSpline
210
0.0
220
0.0
230
1.0
 70
     8
 71
     3
 72
    16
 73
    12
 74
     0
 42
0.0000000001
 43
0.0000000001
 40
0.0
 40
0.0
 40
0.0
 40
0.0
 40
0.25
 40
0.25
 40
0.25
 40
0.25
 40
0.5
 40
0.5
 40
0.5
 40
0.5
 40
1.0
 40
1.0
 40
1.0
 40
1.0
 10
17.0354
 20
-1.1204
 30
0.0
 10
17.0354
 20
-1.1204
 30
0.0
 10
17.0354
 20
-0.3789
 30
0.0
 10
17.0354
 20
-0.3789
 30
0.0
 10
17.0354
 20
-0.3789
 30
0.0
 10
17.0354
 20
-0.3789
 30
0.0
 10
24.4551
 20
-0.3806
 30
0.0
 10
24.4551
 20
-0.3806
 30
0.0
 10
24.4551
 20
-0.3806
 30
0.0
 10
24.4551
 20
-0.3806
 30
0.0
 10
24.4551
 20
-1.2124
 30
0.0
 10
24.4551
 20
-1.2124
 30
0.0
  0
SPLINE
  5
69
330
1F
100
AcDbEntity
  8
ROUND
 62
   250
100
AcDbSpline
210
0.0
220
0.0
230
1.0
 70
     8
 71
     3
 72
    24
 73
    20
 74
     0
 42
0.0000000001
 43
0.0000000001
 40
0.0
 40
0.0
 40
0.0
 40
0.0
 40
0.1666666666666667
 40
0.1666666666666667
 40
0.1666666666666667
 40
0.1666666666666667
 40
0.3333333333333333
 40
0.3333333333333333
 40
0.3333333333333333
 40
0.3333333333333333
 40
0.5
 40
0.5
 40
0.5
 40
0.5
 40
0.6666666666666666
 40
0.6666666666666666
 40
0.6666666666666666
 40
0.6666666666666666
 40
1.0
 40
1.0
 40
1.0
 40
1.0
 10
16.7582
 20
-2.2494
 30
0.0
 10
16.7582
 20
-2.2494
 30
0.0
 10
16.7573
 20
-2.6034
 30
0.0
 10
16.7573
 20
-2.6034
 30
0.0
 10
16.7573
 20
-2.6034
 30
0.0
 10
16.7573
 20
-2.6034
 30
0.0
 10
17.0355
 20
-2.6034
 30
0.0
 10
17.0355
 20
-2.6034
 30
0.0
 10
17.0355
 20
-2.6034
 30
0.0
 10
17.0355
 20
-2.6034
 30
0.0
 10
24.4503
 20
-2.6034
 30
0.0
 10
24.4503
 20
-2.6034
 30
0.0
 10
24.4503
 20
-2.6034
 30
0.0
 10
24.4503
 20
-2.6034
 30
0.0
 10
24.7285
 20
-2.6034
 30
0.0
 10
24.7285
 20
-2.6034
 30
0.0
 10
24.7285
 20
-2.6034
 30
0.0
 10
24.7285
 20
-2.6034
 30
0.0
 10
24.7233
 20
-2.1922
 30
0.0
 10
24.7233
 20
-2.1922
 30
0.0
  0
SPLINE
  5
6A
330
1F
100
AcDbEntity
  8
ROUND
 62
   250
100
AcDbSpline
210
0.0
220
0.0
230
1.0
 70
     8
 71
     3
 72
    16
 73
    12
 74
     0
 42
0.0000000001
 43
0.0000000001
 40
0.0
 40
0.0
 40
0.0
 40
0.0
 40
0.25
 40
0.25
 40
0.25
 40
0.25
 40
0.5
 40
0.5
 40
0.5
 40
0.5
 40
1.0
 40
1.0
 40
1.0
 40
1.0
 10
25.3764
 20
-8.4818
 30
0.0
 10
25.3605
 20
-8.044
 30
0.0
 10
25.1521
 20
-7.6359
 30
0.0
 10
24.8069
 20
-7.3665
 30
0.0
 10
24.8069
 20
-7.3665
 30
0.0
 10
24.4617
 20
-7.0971
 30
0.0
 10
24.3902
 20
-6.8244
 30
0.0
 10
24.3902
 20
-6.8244
 30
0.0
 10
24.3902
 20
-6.8244
 30
0.0
 10
24.3902
 20
-6.8244
 30
0.0
 10
24.3153
 20
-6.3825
 30
0.0
 10
24.3153
 20
-6.3825
 30
0.0
  0
SPLINE
  5
6B
330
1F
100
AcDbEntity
  8
ROUND
 62
   250
100
AcDbSpline
210
0.0
220
0.0
230
1.0
 70
     8
 71
     3
 72
     8
 73
     4
 74
     0
 42
0.0000000001
 43
0.0000000001
 40
0.0
 40
0.0
 40
0.0
 40
0.0
 40
1.0
 40
1.0
 40
1.0
 40
1.0
 10
16.1086
 20
-7.0523
 30
0.0
 10
16.5489
 20
-7.0523
 30
0.0
 10
16.9283
 20
-6.7425
 30
0.0
 10
17.0168
 20
-6.3109
 30
0.0
  0
SPLINE
  5
6C
330
1F
100
AcDbEntity
  8
ROUND
 62
   250
100
AcDbSpline
210
0.0
220
0.0
230
1.0
 70
     8
 71
     3
 72
    52
 73
    48
 74
     0
 42
0.0000000001
 43
0.0000000001
 40
0.0
 40
0.0
 40
0.0
 40
0.0
 40
0.0769230769230769
 40
0.0769230769230769
 40
0.0769230769230769
 40
0.0769230769230769
 40
0.1538461538461539
 40
0.1538461538461539
 40
0.1538461538461539
 40
0.1538461538461539
 40
0.2307692307692308
 40
0.2307692307692308
 40
0.2307692307692308
 40
0.2307692307692308
 40
0.3076923076923077
 40
0.3076923076923077
 40
0.3076923076923077
 40
0.3076923076923077
 40
0.3846153846153846
 40
0.3846153846153846
 40
0.3846153846153846
 40
0.3846153846153846
 40
0.4615384615384616
 40
0.4615384615384616
 40
0.4615384615384616
 40
0.4615384615384616
 40
0.5384615384615384
 40
0.5384615384615384
 40
0.5384615384615384
 40
0.5384615384615384
 40
0.6153846153846154
 40
0.6153846153846154
 40
0.6153846153846154
 40
0.6153846153846154
 40
0.6923076923076923
 40
0.6923076923076923
 40
0.6923076923076923
 40
0.6923076923076923
 40
0.7692307692307693
 40
0.7692307692307693
 40
0.7692307692307693
 40
0.7692307692307693
 40
0.8461538461538461
 40
0.8461538461538461
 40
0.8461538461538461
 40
0.8461538461538461
 40
1.0
 40
1.0
 40
1.0
 40
1.0
 10
-0.2376
 20
-7.5648
 30
0.0
 10
-0.2376
 20
-7.5648
 30
0.0
 10
3.9435
 20
-7.5648
 30
0.0
 10
3.9435
 20
-7.5648
 30
0.0
 10
3.9435
 20
-7.5648
 30
0.0
 10
3.9435
 20
-7.5648
 30
0.0
 10
4.4852
 20
-7.5817
 30
0.0
 10
4.4852
 20
-7.5817
 30
0.0
 10
4.4852
 20
-7.5817
 30
0.0
 10
4.4852
 20
-7.5817
 30
0.0
 10
5.2977
 20
-7.463
 30
0.0
 10
5.2977
 20
-7.463
 30
0.0
 10
5.2977
 20
-7.463
 30
0.0
 10
5.2977
 20
-7.463
 30
0.0
 10
6.1102
 20
-7.3103
 30
0.0
 10
6.1102
 20
-7.3103
 30
0.0
 10
6.1102
 20
-7.3103
 30
0.0
 10
6.1102
 20
-7.3103
 30
0.0
 10
7.4137
 20
-7.0898
 30
0.0
 10
7.4137
 20
-7.0898
 30
0.0
 10
7.4137
 20
-7.0898
 30
0.0
 10
7.4137
 20
-7.0898
 30
0.0
 10
7.8877
 20
-7.0524
 30
0.0
 10
7.8877
 20
-7.0524
 30
0.0
 10
7.8877
 20
-7.0524
 30
0.0
 10
7.8877
 20
-7.0524
 30
0.0
 10
17.3449
 20
-7.0524
 30
0.0
 10
17.3449
 20
-7.0524
 30
0.0
 10
17.3449
 20
-7.0524
 30
0.0
 10
17.3449
 20
-7.0524
 30
0.0
 10
18.1337
 20
-7.1029
 30
0.0
 10
18.1337
 20
-7.1029
 30
0.0
 10
18.1337
 20
-7.1029
 30
0.0
 10
18.1337
 20
-7.1029
 30
0.0
 10
19.1827
 20
-7.2323
 30
0.0
 10
19.1827
 20
-7.2323
 30
0.0
 10
19.1827
 20
-7.2323
 30
0.0
 10
19.1827
 20
-7.2323
 30
0.0
 10
20.1025
 20
-7.3617
 30
0.0
 10
20.1025
 20
-7.3617
 30
0.0
 10
20.1025
 20
-7.3617
 30
0.0
 10
20.1025
 20
-7.3617
 30
0.0
 10
21.0062
 20
-7.3617
 30
0.0
 10
21.0062
 20
-7.3617
 30
0.0
 10
21.0062
 20
-7.3617
 30
0.0
 10
21.0062
 20
-7.3617
 30
0.0
 10
24.7825
 20
-7.3455
 30
0.0
 10
24.7825
 20
-7.3455
 30
0.0
  0
SPLINE
  5
6D
330
1F
100
AcDbEntity
  8
ROUND
 62
   250
100
AcDbSpline
210
0.0
220
0.0
230
1.0
 70
     8
 71
     3
 72
    44
 73
    40
 74
     0
 42
0.0000000001
 43
0.0000000001
 40
0.0
 40
0.0
 40
0.0
 40
0.0
 40
0.0909090909090909
 40
0.0909090909090909
 40
0.0909090909090909
 40
0.0909090909090909
 40
0.1818181818181818
 40
0.1818181818181818
 40
0.1818181818181818
 40
0.1818181818181818
 40
0.2727272727272727
 40
0.2727272727272727
 40
0.2727272727272727
 40
0.2727272727272727
 40
0.3636363636363636
 40
0.3636363636363636
 40
0.3636363636363636
 40
0.3636363636363636
 40
0.4545454545454545
 40
0.4545454545454545
 40
0.4545454545454545
 40
0.4545454545454545
 40
0.5454545454545454
 40
0.5454545454545454
 40
0.5454545454545454
 40
0.5454545454545454
 40
0.6363636363636364
 40
0.6363636363636364
 40
0.6363636363636364
 40
0.6363636363636364
 40
0.7272727272727273
 40
0.7272727272727273
 40
0.7272727272727273
 40
0.7272727272727273
 40
0.8181818181818182
 40
0.8181818181818182
 40
0.8181818181818182
 40
0.8181818181818182
 40
1.0
 40
1.0
 40
1.0
 40
1.0
 10
8.4865
 20
-5.3764
 30
0.0
 10
8.4865
 20
-5.3764
 30
0.0
 10
8.5081
 20
-5.5901
 30
0.0
 10
8.5081
 20
-5.5901
 30
0.0
 10
8.5081
 20
-5.5901
 30
0.0
 10
8.5081
 20
-5.5901
 30
0.0
 10
8.091
 20
-5.9401
 30
0.0
 10
8.091
 20
-5.9401
 30
0.0
 10
8.091
 20
-5.9401
 30
0.0
 10
8.091
 20
-5.9401
 30
0.0
 10
8.0967
 20
-6.2493
 30
0.0
 10
8.0967
 20
-6.2493
 30
0.0
 10
8.0967
 20
-6.2493
 30
0.0
 10
8.0967
 20
-6.2493
 30
0.0
 10
8.1426
 20
-6.4331
 30
0.0
 10
8.1426
 20
-6.4331
 30
0.0
 10
8.1426
 20
-6.4331
 30
0.0
 10
8.1426
 20
-6.4331
 30
0.0
 10
8.2343
 20
-6.6054
 30
0.0
 10
8.2343
 20
-6.6054
 30
0.0
 10
8.2343
 20
-6.6054
 30
0.0
 10
8.2343
 20
-6.6054
 30
0.0
 10
8.3604
 20
-6.7776
 30
0.0
 10
8.3604
 20
-6.7776
 30
0.0
 10
8.3604
 20
-6.7776
 30
0.0
 10
8.3604
 20
-6.7776
 30
0.0
 10
8.4635
 20
-6.881
 30
0.0
 10
8.4635
 20
-6.881
 30
0.0
 10
8.4635
 20
-6.881
 30
0.0
 10
8.4635
 20
-6.881
 30
0.0
 10
8.6355
 20
-6.9614
 30
0.0
 10
8.6355
 20
-6.9614
 30
0.0
 10
8.6355
 20
-6.9614
 30
0.0
 10
8.6355
 20
-6.9614
 30
0.0
 10
8.8303
 20
-7.0418
 30
0.0
 10
8.8303
 20
-7.0418
 30
0.0
 10
8.8303
 20
-7.0418
 30
0.0
 10
8.8303
 20
-7.0418
 30
0.0
 10
9.0023
 20
-7.0533
 30
0.0
 10
9.0023
 20
-7.0533
 30
0.0
  0
SPLINE
  5
6E
330
1F
100
AcDbEntity
  8
ROUND
 62
   250
100
AcDbSpline
210
0.0
220
0.0
230
1.0
 70
     8
 71
     3
 72
    28
 73
    24
 74
     0
 42
0.0000000001
 43
0.0000000001
 40
0.0
 40
0.0
 40
0.0
 40
0.0
 40
0.1428571428571428
 40
0.1428571428571428
 40
0.1428571428571428
 40
0.1428571428571428
 40
0.2857142857142857
 40
0.2857142857142857
 40
0.2857142857142857
 40
0.2857142857142857
 40
0.4285714285714285
 40
0.4285714285714285
 40
0.4285714285714285
 40
0.4285714285714285
 40
0.5714285714285714
 40
0.5714285714285714
 40
0.5714285714285714
 40
0.5714285714285714
 40
0.7142857142857143
 40
0.7142857142857143
 40
0.7142857142857143
 40
0.7142857142857143
 40
1.0
 40
1.0
 40
1.0
 40
1.0
 10
-0.5743
 20
-8.4818
 30
0.0
 10
-0.5619
 20
-8.1393
 30
0.0
 10
-0.4313
 20
-7.8116
 30
0.0
 10
-0.2045
 20
-7.5545
 30
0.0
 10
-0.2045
 20
-7.5545
 30
0.0
 10
0.0223
 20
-7.2974
 30
0.0
 10
0.0156
 20
-7.247
 30
0.0
 10
0.0156
 20
-7.247
 30
0.0
 10
0.0156
 20
-7.247
 30
0.0
 10
0.0156
 20
-7.247
 30
0.0
 10
0.0415
 20
-6.951
 30
0.0
 10
0.0415
 20
-6.951
 30
0.0
 10
0.0415
 20
-6.951
 30
0.0
 10
0.0415
 20
-6.951
 30
0.0
 10
0.0544
 20
-5.9471
 30
0.0
 10
0.0544
 20
-5.9471
 30
0.0
 10
0.0544
 20
-5.9471
 30
0.0
 10
0.0544
 20
-5.9471
 30
0.0
 10
-0.4337
 20
-5.6124
 30
0.0
 10
-0.4337
 20
-5.6124
 30
0.0
 10
-0.4337
 20
-5.6124
 30
0.0
 10
-0.4337
 20
-5.6124
 30
0.0
 10
-0.4337
 20
-5.4193
 30
0.0
 10
-0.4337
 20
-5.4193
 30
0.0
  0
SPLINE
  5
6F
330
1F
100
AcDbEntity
  8
ROUND
 62
   250
100
AcDbSpline
210
0.0
220
0.0
230
1.0
 70
    11
 71
     3
 72
    36
 73
    32
 74
     0
 42
0.0000000001
 43
0.0000000001
 40
0.0
 40
0.0
 40
0.0
 40
0.0
 40
0.1111111111111111
 40
0.1111111111111111
 40
0.1111111111111111
 40
0.1111111111111111
 40
0.2222222222222222
 40
0.2222222222222222
 40
0.2222222222222222
 40
0.2222222222222222
 40
0.3333333333333333
 40
0.3333333333333333
 40
0.3333333333333333
 40
0.3333333333333333
 40
0.4444444444444444
 40
0.4444444444444444
 40
0.4444444444444444
 40
0.4444444444444444
 40
0.5555555555555556
 40
0.5555555555555556
 40
0.5555555555555556
 40
0.5555555555555556
 40
0.6666666666666666
 40
0.6666666666666666
 40
0.6666666666666666
 40
0.6666666666666666
 40
0.7777777777777778
 40
0.7777777777777778
 40
0.7777777777777778
 40
0.7777777777777778
 40
1.0
 40
1.0
 40
1.0
 40
1.0
 10
-0.8277
 20
-8.499
 30
0.0
 10
-0.8277
 20
-8.499
 30
0.0
 10
25.6011
 20
-8.499
 30
0.0
 10
25.6011
 20
-8.499
 30
0.0
 10
25.6011
 20
-8.499
 30
0.0
 10
25.6799
 20
-8.499
 30
0.0
 10
25.7442
 20
-8.5633
 30
0.0
 10
25.7442
 20
-8.6421
 30
0.0
 10
25.7442
 20
-8.6421
 30
0.0
 10
25.7442
 20
-8.6421
 30
0.0
 10
25.7442
 20
-9.1505
 30
0.0
 10
25.7442
 20
-9.1505
 30
0.0
 10
25.7442
 20
-9.1505
 30
0.0
 10
25.7442
 20
-9.2293
 30
0.0
 10
25.6799
 20
-9.2936
 30
0.0
 10
25.6011
 20
-9.2936
 30
0.0
 10
25.6011
 20
-9.2936
 30
0.0
 10
25.6011
 20
-9.2936
 30
0.0
 10
-0.8277
 20
-9.2936
 30
0.0
 10
-0.8277
 20
-9.2936
 30
0.0
 10
-0.8277
 20
-9.2936
 30
0.0
 10
-0.9065
 20
-9.2936
 30
0.0
 10
-0.9708
 20
-9.2293
 30
0.0
 10
-0.9708
 20
-9.1505
 30
0.0
 10
-0.9708
 20
-9.1505
 30
0.0
 10
-0.9708
 20
-9.1505
 30
0.0
 10
-0.9708
 20
-8.6421
 30
0.0
 10
-0.9708
 20
-8.6421
 30
0.0
 10
-0.9708
 20
-8.6421
 30
0.0
 10
-0.9708
 20
-8.5633
 30
0.0
 10
-0.9065
 20
-8.499
 30
0.0
 10
-0.8277
 20
-8.499
 30
0.0
  0
SPLINE
  5
70
330
1F
100
AcDbEntity
  8
ROUND
 62
   250
100
AcDbSpline
210
0.0
220
0.0
230
1.0
 70
    27
 71
     3
 72
    12
 73
     8
 74
     0
 42
0.0000000001
 43
0.0000000001
 40
0.0
 40
0.0
 40
0.0
 40
0.0
 40
0.3333333333333333
 40
0.3333333333333333
 40
0.3333333333333333
 40
0.3333333333333333
 40
1.0
 40
1.0
 40
1.0
 40
1.0
 10
24.4503
 20
-2.6034
 30
0.0
 10
24.4503
 20
-2.6034
 30
0.0
 10
24.4503
 20
-3.1595
 30
0.0
 10
24.4503
 20
-3.1595
 30
0.0
 10
24.4503
 20
-3.1595
 30
0.0
 10
24.4503
 20
-3.1595
 30
0.0
 10
24.4503
 20
-2.6034
 30
0.0
 10
24.4503
 20
-2.6034
 30
0.0
  0
SPLINE
  5
71
330
1F
100
AcDbEntity
  8
ROUND
 62
   250
100
AcDbSpline
210
0.0
220
0.0
230
1.0
 70
    27
 71
     3
 72
    12
 73
     8
 74
     0
 42
0.0000000001
 43
0.0000000001
 40
0.0
 40
0.0
 40
0.0
 40
0.0
 40
0.3333333333333333
 40
0.3333333333333333
 40
0.3333333333333333
 40
0.3333333333333333
 40
1.0
 40
1.0
 40
1.0
 40
1.0
 10
17.0355
 20
-2.6034
 30
0.0
 10
17.0355
 20
-2.6034
 30
0.0
 10
17.0355
 20
-3.1595
 30
0.0
 10
17.0355
 20
-3.1595
 30
0.0
 10
17.0355
 20
-3.1595
 30
0.0
 10
17.0355
 20
-3.1595
 30
0.0
 10
17.0355
 20
-2.6034
 30
0.0
 10
17.0355
 20
-2.6034
 30
0.0
  0
SPLINE
  5
72
330
1F
100
AcDbEntity
  8
ROUND
 62
   250
100
AcDbSpline
210
0.0
220
0.0
230
1.0
 70
    27
 71
     3
 72
    12
 73
     8
 74
     0
 42
0.0000000001
 43
0.0000000001
 40
0.0
 40
0.0
 40
0.0
 40
0.0
 40
0.3333333333333333
 40
0.3333333333333333
 40
0.3333333333333333
 40
0.3333333333333333
 40
1.0
 40
1.0
 40
1.0
 40
1.0
 10
8.0909
 20
-5.9402
 30
0.0
 10
8.0909
 20
-5.9402
 30
0.0
 10
0.027
 20
-5.9402
 30
0.0
 10
0.027
 20
-5.9402
 30
0.0
 10
0.027
 20
-5.9402
 30
0.0
 10
0.027
 20
-5.9402
 30
0.0
 10
8.0909
 20
-5.9402
 30
0.0
 10
8.0909
 20
-5.9402
 30
0.0
  0
SPLINE
  5
73
330
1F
100
AcDbEntity
  8
ROUND
  6
NEW_LINE4
 62
   250
100
AcDbSpline
210
0.0
220
0.0
230
1.0
 70
    24
 71
     3
 72
     8
 73
     4
 74
     0
 42
0.0000000001
 43
0.0000000001
 40
0.0
 40
0.0
 40
0.0
 40
0.0
 40
1.0
 40
1.0
 40
1.0
 40
1.0
 10
-6.6642
 20
-8.3287
 30
0.0
 10
-6.6642
 20
-8.3287
 30
0.0
 10
-8.1344
 20
8.3483
 30
0.0
 10
-8.1344
 20
8.3483
 30
0.0
  0
SPLINE
  5
75
330
1F
100
AcDbEntity
  8
ROUND
 62
   250
100
AcDbSpline
210
0.0
220
0.0
230
1.0
 70
    11
 71
     3
 72
    84
 73
    80
 74
     0
 42
0.0000000001
 43
0.0000000001
 40
0.0
 40
0.0
 40
0.0
 40
0.0
 40
0.0476190476190476
 40
0.0476190476190476
 40
0.0476190476190476
 40
0.0476190476190476
 40
0.0952380952380952
 40
0.0952380952380952
 40
0.0952380952380952
 40
0.0952380952380952
 40
0.1428571428571428
 40
0.1428571428571428
 40
0.1428571428571428
 40
0.1428571428571428
 40
0.1904761904761905
 40
0.1904761904761905
 40
0.1904761904761905
 40
0.1904761904761905
 40
0.2380952380952381
 40
0.2380952380952381
 40
0.2380952380952381
 40
0.2380952380952381
 40
0.2857142857142857
 40
0.2857142857142857
 40
0.2857142857142857
 40
0.2857142857142857
 40
0.3333333333333333
 40
0.3333333333333333
 40
0.3333333333333333
 40
0.3333333333333333
 40
0.3809523809523809
 40
0.3809523809523809
 40
0.3809523809523809
 40
0.3809523809523809
 40
0.4285714285714285
 40
0.4285714285714285
 40
0.4285714285714285
 40
0.4285714285714285
 40
0.4761904761904762
 40
0.4761904761904762
 40
0.4761904761904762
 40
0.4761904761904762
 40
0.5238095238095238
 40
0.5238095238095238
 40
0.5238095238095238
 40
0.5238095238095238
 40
0.5714285714285714
 40
0.5714285714285714
 40
0.5714285714285714
 40
0.5714285714285714
 40
0.6190476190476191
 40
0.6190476190476191
 40
0.6190476190476191
 40
0.6190476190476191
 40
0.6666666666666666
 40
0.6666666666666666
 40
0.6666666666666666
 40
0.6666666666666666
 40
0.7142857142857143
 40
0.7142857142857143
 40
0.7142857142857143
 40
0.7142857142857143
 40
0.7619047619047619
 40
0.7619047619047619
 40
0.7619047619047619
 40
0.7619047619047619
 40
0.8095238095238095
 40
0.8095238095238095
 40
0.8095238095238095
 40
0.8095238095238095
 40
0.8571428571428571
 40
0.8571428571428571
 40
0.8571428571428571
 40
0.8571428571428571
 40
0.9047619047619048
 40
0.9047619047619048
 40
0.9047619047619048
 40
0.9047619047619048
 40
1.0
 40
1.0
 40
1.0
 40
1.0
 10
-9.8545
 20
-0.4456
 30
0.0
 10
-9.8545
 20
-0.4456
 30
0.0
 10
-10.1327
 20
-0.2376
 30
0.0
 10
-10.1327
 20
-0.2376
 30
0.0
 10
-10.1327
 20
-0.2376
 30
0.0
 10
-10.1327
 20
-0.2376
 30
0.0
 10
-10.0294
 20
-0.0917
 30
0.0
 10
-10.0294
 20
-0.0917
 30
0.0
 10
-10.0294
 20
-0.0917
 30
0.0
 10
-10.0294
 20
-0.0917
 30
0.0
 10
-9.7365
 20
-0.3092
 30
0.0
 10
-9.7365
 20
-0.3092
 30
0.0
 10
-9.7365
 20
-0.3092
 30
0.0
 10
-9.6262
 20
-0.2202
 30
0.0
 10
-9.5283
 20
-0.1583
 30
0.0
 10
-9.4431
 20
-0.123
 30
0.0
 10
-9.4431
 20
-0.123
 30
0.0
 10
-9.3309
 20
-0.0763
 30
0.0
 10
-9.2032
 20
-0.0468
 30
0.0
 10
-9.0608
 20
-0.0343
 30
0.0
 10
-9.0608
 20
-0.0343
 30
0.0
 10
-8.8547
 20
-0.0163
 30
0.0
 10
-8.6673
 20
-0.0419
 30
0.0
 10
-8.4993
 20
-0.1113
 30
0.0
 10
-8.4993
 20
-0.1113
 30
0.0
 10
-8.3308
 20
-0.1805
 30
0.0
 10
-8.1988
 20
-0.2866
 30
0.0
 10
-8.1032
 20
-0.4298
 30
0.0
 10
-8.1032
 20
-0.4298
 30
0.0
 10
-8.008
 20
-0.5735
 30
0.0
 10
-7.9528
 20
-0.7296
 30
0.0
 10
-7.938
 20
-0.8987
 30
0.0
 10
-7.938
 20
-0.8987
 30
0.0
 10
-7.9269
 20
-1.0253
 30
0.0
 10
-7.9346
 20
-1.1412
 30
0.0
 10
-7.9613
 20
-1.2469
 30
0.0
 10
-7.9613
 20
-1.2469
 30
0.0
 10
-7.982
 20
-1.328
 30
0.0
 10
-8.0265
 20
-1.4245
 30
0.0
 10
-8.0951
 20
-1.5368
 30
0.0
 10
-8.0951
 20
-1.5368
 30
0.0
 10
-8.0951
 20
-1.5368
 30
0.0
 10
-7.8167
 20
-1.7447
 30
0.0
 10
-7.8167
 20
-1.7447
 30
0.0
 10
-7.8167
 20
-1.7447
 30
0.0
 10
-7.8167
 20
-1.7447
 30
0.0
 10
-7.9201
 20
-1.8907
 30
0.0
 10
-7.9201
 20
-1.8907
 30
0.0
 10
-7.9201
 20
-1.8907
 30
0.0
 10
-7.9201
 20
-1.8907
 30
0.0
 10
-8.2116
 20
-1.6725
 30
0.0
 10
-8.2116
 20
-1.6725
 30
0.0
 10
-8.2116
 20
-1.6725
 30
0.0
 10
-8.3401
 20
-1.7744
 30
0.0
 10
-8.4515
 20
-1.8446
 30
0.0
 10
-8.5454
 20
-1.883
 30
0.0
 10
-8.5454
 20
-1.883
 30
0.0
 10
-8.6393
 20
-1.9215
 30
0.0
 10
-8.7542
 20
-1.9471
 30
0.0
 10
-8.8896
 20
-1.9589
 30
0.0
 10
-8.8896
 20
-1.9589
 30
0.0
 10
-9.0962
 20
-1.977
 30
0.0
 10
-9.284
 20
-1.9519
 30
0.0
 10
-9.4529
 20
-1.8836
 30
0.0
 10
-9.4529
 20
-1.8836
 30
0.0
 10
-9.6218
 20
-1.8153
 30
0.0
 10
-9.7541
 20
-1.7107
 30
0.0
 10
-9.8505
 20
-1.569
 30
0.0
 10
-9.8505
 20
-1.569
 30
0.0
 10
-9.9465
 20
-1.4277
 30
0.0
 10
-10.0027
 20
-1.2659
 30
0.0
 10
-10.0187
 20
-1.0837
 30
0.0
 10
-10.0187
 20
-1.0837
 30
0.0
 10
-10.0294
 20
-0.9609
 30
0.0
 10
-10.0229
 20
-0.8522
 30
0.0
 10
-9.998
 20
-0.7575
 30
0.0
 10
-9.998
 20
-0.7575
 30
0.0
 10
-9.9738
 20
-0.6628
 30
0.0
 10
-9.9258
 20
-0.5585
 30
0.0
 10
-9.8545
 20
-0.4456
 30
0.0
  0
SPLINE
  5
76
330
1F
100
AcDbEntity
  8
ROUND
 62
   250
100
AcDbSpline
210
0.0
220
0.0
230
1.0
 70
    11
 71
     3
 72
    32
 73
    28
 74
     0
 42
0.0000000001
 43
0.0000000001
 40
0.0
 40
0.0
 40
0.0
 40
0.0
 40
0.125
 40
0.125
 40
0.125
 40
0.125
 40
0.25
 40
0.25
 40
0.25
 40
0.25
 40
0.375
 40
0.375
 40
0.375
 40
0.375
 40
0.5
 40
0.5
 40
0.5
 40
0.5
 40
0.625
 40
0.625
 40
0.625
 40
0.625
 40
0.75
 40
0.75
 40
0.75
 40
0.75
 40
1.0
 40
1.0
 40
1.0
 40
1.0
 10
-9.655
 20
-0.5938
 30
0.0
 10
-9.7149
 20
-0.686
 30
0.0
 10
-9.7547
 20
-0.7655
 30
0.0
 10
-9.7739
 20
-0.8318
 30
0.0
 10
-9.7739
 20
-0.8318
 30
0.0
 10
-9.7926
 20
-0.8986
 30
0.0
 10
-9.7987
 20
-0.9756
 30
0.0
 10
-9.7911
 20
-1.0624
 30
0.0
 10
-9.7911
 20
-1.0624
 30
0.0
 10
-9.7735
 20
-1.2629
 30
0.0
 10
-9.6911
 20
-1.4223
 30
0.0
 10
-9.5437
 20
-1.5416
 30
0.0
 10
-9.5437
 20
-1.5416
 30
0.0
 10
-9.3963
 20
-1.6606
 30
0.0
 10
-9.1878
 20
-1.7084
 30
0.0
 10
-8.9174
 20
-1.6847
 30
0.0
 10
-8.9174
 20
-1.6847
 30
0.0
 10
-8.8115
 20
-1.6754
 30
0.0
 10
-8.7182
 20
-1.6569
 30
0.0
 10
-8.6374
 20
-1.6295
 30
0.0
 10
-8.6374
 20
-1.6295
 30
0.0
 10
-8.5773
 20
-1.6096
 30
0.0
 10
-8.5046
 20
-1.5726
 30
0.0
 10
-8.4192
 20
-1.5179
 30
0.0
 10
-8.4192
 20
-1.5179
 30
0.0
 10
-8.4192
 20
-1.5179
 30
0.0
 10
-9.655
 20
-0.5938
 30
0.0
 10
-9.655
 20
-0.5938
 30
0.0
  0
SPLINE
  5
77
330
1F
100
AcDbEntity
  8
ROUND
 62
   250
100
AcDbSpline
210
0.0
220
0.0
230
1.0
 70
    11
 71
     3
 72
    28
 73
    24
 74
     0
 42
0.0000000001
 43
0.0000000001
 40
0.0
 40
0.0
 40
0.0
 40
0.0
 40
0.1428571428571428
 40
0.1428571428571428
 40
0.1428571428571428
 40
0.1428571428571428
 40
0.2857142857142857
 40
0.2857142857142857
 40
0.2857142857142857
 40
0.2857142857142857
 40
0.4285714285714285
 40
0.4285714285714285
 40
0.4285714285714285
 40
0.4285714285714285
 40
0.5714285714285714
 40
0.5714285714285714
 40
0.5714285714285714
 40
0.5714285714285714
 40
0.7142857142857143
 40
0.7142857142857143
 40
0.7142857142857143
 40
0.7142857142857143
 40
1.0
 40
1.0
 40
1.0
 40
1.0
 10
-9.5233
 20
-0.469
 30
0.0
 10
-9.5233
 20
-0.469
 30
0.0
 10
-8.2921
 20
-1.3892
 30
0.0
 10
-8.2921
 20
-1.3892
 30
0.0
 10
-8.2921
 20
-1.3892
 30
0.0
 10
-8.2406
 20
-1.3139
 30
0.0
 10
-8.206
 20
-1.2452
 30
0.0
 10
-8.1883
 20
-1.1836
 30
0.0
 10
-8.1883
 20
-1.1836
 30
0.0
 10
-8.1646
 20
-1.1033
 30
0.0
 10
-8.157
 20
-1.0176
 30
0.0
 10
-8.165
 20
-0.9271
 30
0.0
 10
-8.165
 20
-0.9271
 30
0.0
 10
-8.1824
 20
-0.7275
 30
0.0
 10
-8.267
 20
-0.5692
 30
0.0
 10
-8.4195
 20
-0.4513
 30
0.0
 10
-8.4195
 20
-0.4513
 30
0.0
 10
-8.5719
 20
-0.3339
 30
0.0
 10
-8.7754
 20
-0.286
 30
0.0
 10
-9.0298
 20
-0.3083
 30
0.0
 10
-9.0298
 20
-0.3083
 30
0.0
 10
-9.22
 20
-0.3249
 30
0.0
 10
-9.3848
 20
-0.3785
 30
0.0
 10
-9.5233
 20
-0.469
 30
0.0
  0
SPLINE
  5
78
330
1F
100
AcDbEntity
  8
ROUND
 62
   250
100
AcDbSpline
210
0.0
220
0.0
230
1.0
 70
    11
 71
     3
 72
    48
 73
    44
 74
     0
 42
0.0000000001
 43
0.0000000001
 40
0.0
 40
0.0
 40
0.0
 40
0.0
 40
0.0833333333333333
 40
0.0833333333333333
 40
0.0833333333333333
 40
0.0833333333333333
 40
0.1666666666666667
 40
0.1666666666666667
 40
0.1666666666666667
 40
0.1666666666666667
 40
0.25
 40
0.25
 40
0.25
 40
0.25
 40
0.3333333333333333
 40
0.3333333333333333
 40
0.3333333333333333
 40
0.3333333333333333
 40
0.4166666666666667
 40
0.4166666666666667
 40
0.4166666666666667
 40
0.4166666666666667
 40
0.5
 40
0.5
 40
0.5
 40
0.5
 40
0.5833333333333334
 40
0.5833333333333334
 40
0.5833333333333334
 40
0.5833333333333334
 40
0.6666666666666666
 40
0.6666666666666666
 40
0.6666666666666666
 40
0.6666666666666666
 40
0.75
 40
0.75
 40
0.75
 40
0.75
 40
0.8333333333333334
 40
0.8333333333333334
 40
0.8333333333333334
 40
0.8333333333333334
 40
1.0
 40
1.0
 40
1.0
 40
1.0
 10
-8.1467
 20
1.0938
 30
0.0
 10
-8.1467
 20
1.0938
 30
0.0
 10
-8.6284
 20
1.0517
 30
0.0
 10
-8.6284
 20
1.0517
 30
0.0
 10
-8.6284
 20
1.0517
 30
0.0
 10
-8.6284
 20
1.0517
 30
0.0
 10
-8.552
 20
0.1787
 30
0.0
 10
-8.552
 20
0.1787
 30
0.0
 10
-8.552
 20
0.1787
 30
0.0
 10
-8.552
 20
0.1787
 30
0.0
 10
-8.7788
 20
0.1589
 30
0.0
 10
-8.7788
 20
0.1589
 30
0.0
 10
-8.7788
 20
0.1589
 30
0.0
 10
-8.7788
 20
0.1589
 30
0.0
 10
-10.1632
 20
0.9633
 30
0.0
 10
-10.1632
 20
0.9633
 30
0.0
 10
-10.1632
 20
0.9633
 30
0.0
 10
-10.1632
 20
0.9633
 30
0.0
 10
-10.1809
 20
1.1652
 30
0.0
 10
-10.1809
 20
1.1652
 30
0.0
 10
-10.1809
 20
1.1652
 30
0.0
 10
-10.1809
 20
1.1652
 30
0.0
 10
-8.8769
 20
1.2793
 30
0.0
 10
-8.8769
 20
1.2793
 30
0.0
 10
-8.8769
 20
1.2793
 30
0.0
 10
-8.8769
 20
1.2793
 30
0.0
 10
-8.9006
 20
1.5511
 30
0.0
 10
-8.9006
 20
1.5511
 30
0.0
 10
-8.9006
 20
1.5511
 30
0.0
 10
-8.9006
 20
1.5511
 30
0.0
 10
-8.6738
 20
1.5709
 30
0.0
 10
-8.6738
 20
1.5709
 30
0.0
 10
-8.6738
 20
1.5709
 30
0.0
 10
-8.6738
 20
1.5709
 30
0.0
 10
-8.65
 20
1.2992
 30
0.0
 10
-8.65
 20
1.2992
 30
0.0
 10
-8.65
 20
1.2992
 30
0.0
 10
-8.65
 20
1.2992
 30
0.0
 10
-8.1684
 20
1.3413
 30
0.0
 10
-8.1684
 20
1.3413
 30
0.0
 10
-8.1684
 20
1.3413
 30
0.0
 10
-8.1684
 20
1.3413
 30
0.0
 10
-8.1467
 20
1.0938
 30
0.0
 10
-8.1467
 20
1.0938
 30
0.0
  0
SPLINE
  5
79
330
1F
100
AcDbEntity
  8
ROUND
 62
   250
100
AcDbSpline
210
0.0
220
0.0
230
1.0
 70
    11
 71
     3
 72
    16
 73
    12
 74
     0
 42
0.0000000001
 43
0.0000000001
 40
0.0
 40
0.0
 40
0.0
 40
0.0
 40
0.25
 40
0.25
 40
0.25
 40
0.25
 40
0.5
 40
0.5
 40
0.5
 40
0.5
 40
1.0
 40
1.0
 40
1.0
 40
1.0
 10
-8.8552
 20
1.0319
 30
0.0
 10
-8.8552
 20
1.0319
 30
0.0
 10
-9.7624
 20
0.9525
 30
0.0
 10
-9.7624
 20
0.9525
 30
0.0
 10
-9.7624
 20
0.9525
 30
0.0
 10
-9.7624
 20
0.9525
 30
0.0
 10
-8.8001
 20
0.4022
 30
0.0
 10
-8.8001
 20
0.4022
 30
0.0
 10
-8.8001
 20
0.4022
 30
0.0
 10
-8.8001
 20
0.4022
 30
0.0
 10
-8.8552
 20
1.0319
 30
0.0
 10
-8.8552
 20
1.0319
 30
0.0
  0
SPLINE
  5
7A
330
1F
100
AcDbEntity
  8
ROUND
 62
   250
100
AcDbSpline
210
0.0
220
0.0
230
1.0
 70
    11
 71
     3
 72
    52
 73
    48
 74
     0
 42
0.0000000001
 43
0.0000000001
 40
0.0
 40
0.0
 40
0.0
 40
0.0
 40
0.0769230769230769
 40
0.0769230769230769
 40
0.0769230769230769
 40
0.0769230769230769
 40
0.1538461538461539
 40
0.1538461538461539
 40
0.1538461538461539
 40
0.1538461538461539
 40
0.2307692307692308
 40
0.2307692307692308
 40
0.2307692307692308
 40
0.2307692307692308
 40
0.3076923076923077
 40
0.3076923076923077
 40
0.3076923076923077
 40
0.3076923076923077
 40
0.3846153846153846
 40
0.3846153846153846
 40
0.3846153846153846
 40
0.3846153846153846
 40
0.4615384615384616
 40
0.4615384615384616
 40
0.4615384615384616
 40
0.4615384615384616
 40
0.5384615384615384
 40
0.5384615384615384
 40
0.5384615384615384
 40
0.5384615384615384
 40
0.6153846153846154
 40
0.6153846153846154
 40
0.6153846153846154
 40
0.6153846153846154
 40
0.6923076923076923
 40
0.6923076923076923
 40
0.6923076923076923
 40
0.6923076923076923
 40
0.7692307692307693
 40
0.7692307692307693
 40
0.7692307692307693
 40
0.7692307692307693
 40
0.8461538461538461
 40
0.8461538461538461
 40
0.8461538461538461
 40
0.8461538461538461
 40
1.0
 40
1.0
 40
1.0
 40
1.0
 10
-9.2067
 20
1.7788
 30
0.0
 10
-9.4447
 20
1.7579
 30
0.0
 10
-9.6386
 20
1.7656
 30
0.0
 10
-9.7876
 20
1.8021
 30
0.0
 10
-9.7876
 20
1.8021
 30
0.0
 10
-9.9371
 20
1.8381
 30
0.0
 10
-10.0555
 20
1.9015
 30
0.0
 10
-10.1427
 20
1.9911
 30
0.0
 10
-10.1427
 20
1.9911
 30
0.0
 10
-10.2299
 20
2.0807
 30
0.0
 10
-10.2798
 20
2.1986
 30
0.0
 10
-10.2926
 20
2.3448
 30
0.0
 10
-10.2926
 20
2.3448
 30
0.0
 10
-10.3021
 20
2.4531
 30
0.0
 10
-10.2884
 20
2.5496
 30
0.0
 10
-10.2519
 20
2.6349
 30
0.0
 10
-10.2519
 20
2.6349
 30
0.0
 10
-10.216
 20
2.7203
 30
0.0
 10
-10.159
 20
2.7928
 30
0.0
 10
-10.0816
 20
2.8534
 30
0.0
 10
-10.0816
 20
2.8534
 30
0.0
 10
-10.0043
 20
2.9135
 30
0.0
 10
-9.9081
 20
2.9639
 30
0.0
 10
-9.7932
 20
3.0042
 30
0.0
 10
-9.7932
 20
3.0042
 30
0.0
 10
-9.6782
 20
3.045
 30
0.0
 10
-9.5211
 20
3.0738
 30
0.0
 10
-9.3215
 20
3.0913
 30
0.0
 10
-9.3215
 20
3.0913
 30
0.0
 10
-9.0854
 20
3.1119
 30
0.0
 10
-8.893
 20
3.1042
 30
0.0
 10
-8.7435
 20
3.0686
 30
0.0
 10
-8.7435
 20
3.0686
 30
0.0
 10
-8.594
 20
3.0326
 30
0.0
 10
-8.4757
 20
2.9698
 30
0.0
 10
-8.388
 20
2.8802
 30
0.0
 10
-8.388
 20
2.8802
 30
0.0
 10
-8.3004
 20
2.7906
 30
0.0
 10
-8.2504
 20
2.6722
 30
0.0
 10
-8.2375
 20
2.5246
 30
0.0
 10
-8.2375
 20
2.5246
 30
0.0
 10
-8.2205
 20
2.3306
 30
0.0
 10
-8.2765
 20
2.1722
 30
0.0
 10
-8.406
 20
2.0495
 30
0.0
 10
-8.406
 20
2.0495
 30
0.0
 10
-8.5617
 20
1.9023
 30
0.0
 10
-8.829
 20
1.8118
 30
0.0
 10
-9.2067
 20
1.7788
 30
0.0
  0
SPLINE
  5
7B
330
1F
100
AcDbEntity
  8
ROUND
 62
   250
100
AcDbSpline
210
0.0
220
0.0
230
1.0
 70
    11
 71
     3
 72
    36
 73
    32
 74
     0
 42
0.0000000001
 43
0.0000000001
 40
0.0
 40
0.0
 40
0.0
 40
0.0
 40
0.1111111111111111
 40
0.1111111111111111
 40
0.1111111111111111
 40
0.1111111111111111
 40
0.2222222222222222
 40
0.2222222222222222
 40
0.2222222222222222
 40
0.2222222222222222
 40
0.3333333333333333
 40
0.3333333333333333
 40
0.3333333333333333
 40
0.3333333333333333
 40
0.4444444444444444
 40
0.4444444444444444
 40
0.4444444444444444
 40
0.4444444444444444
 40
0.5555555555555556
 40
0.5555555555555556
 40
0.5555555555555556
 40
0.5555555555555556
 40
0.6666666666666666
 40
0.6666666666666666
 40
0.6666666666666666
 40
0.6666666666666666
 40
0.7777777777777778
 40
0.7777777777777778
 40
0.7777777777777778
 40
0.7777777777777778
 40
1.0
 40
1.0
 40
1.0
 40
1.0
 10
-9.2289
 20
2.0328
 30
0.0
 10
-8.8985
 20
2.0617
 30
0.0
 10
-8.6822
 20
2.1198
 30
0.0
 10
-8.5794
 20
2.2067
 30
0.0
 10
-8.5794
 20
2.2067
 30
0.0
 10
-8.4769
 20
2.2935
 30
0.0
 10
-8.4304
 20
2.3935
 30
0.0
 10
-8.4403
 20
2.5068
 30
0.0
 10
-8.4403
 20
2.5068
 30
0.0
 10
-8.4503
 20
2.6207
 30
0.0
 10
-8.5139
 20
2.711
 30
0.0
 10
-8.6303
 20
2.7787
 30
0.0
 10
-8.6303
 20
2.7787
 30
0.0
 10
-8.7468
 20
2.8464
 30
0.0
 10
-8.9699
 20
2.8661
 30
0.0
 10
-9.2993
 20
2.8373
 30
0.0
 10
-9.2993
 20
2.8373
 30
0.0
 10
-9.6306
 20
2.8083
 30
0.0
 10
-9.8475
 20
2.7501
 30
0.0
 10
-9.9494
 20
2.6633
 30
0.0
 10
-9.9494
 20
2.6633
 30
0.0
 10
-10.0518
 20
2.5764
 30
0.0
 10
-10.0977
 20
2.4757
 30
0.0
 10
-10.0876
 20
2.3604
 30
0.0
 10
-10.0876
 20
2.3604
 30
0.0
 10
-10.0776
 20
2.2465
 30
0.0
 10
-10.0215
 20
2.1603
 30
0.0
 10
-9.9195
 20
2.1008
 30
0.0
 10
-9.9195
 20
2.1008
 30
0.0
 10
-9.7898
 20
2.0267
 30
0.0
 10
-9.5592
 20
2.0039
 30
0.0
 10
-9.2289
 20
2.0328
 30
0.0
  0
SPLINE
  5
7C
330
1F
100
AcDbEntity
  8
ROUND
 62
   250
100
AcDbSpline
210
0.0
220
0.0
230
1.0
 70
    11
 71
     3
 72
    20
 73
    16
 74
     0
 42
0.0000000001
 43
0.0000000001
 40
0.0
 40
0.0
 40
0.0
 40
0.0
 40
0.2
 40
0.2
 40
0.2
 40
0.2
 40
0.4
 40
0.4
 40
0.4
 40
0.4
 40
0.6
 40
0.6
 40
0.6
 40
0.6
 40
1.0
 40
1.0
 40
1.0
 40
1.0
 10
-7.2267
 20
-6.6043
 30
0.0
 10
-7.2267
 20
-6.6043
 30
0.0
 10
-7.0664
 20
-3.5788
 30
0.0
 10
-7.0664
 20
-3.5788
 30
0.0
 10
-7.0664
 20
-3.5788
 30
0.0
 10
-7.0664
 20
-3.5788
 30
0.0
 10
-6.9727
 20
-3.5706
 30
0.0
 10
-6.9727
 20
-3.5706
 30
0.0
 10
-6.9727
 20
-3.5706
 30
0.0
 10
-6.9727
 20
-3.5706
 30
0.0
 10
-6.2614
 20
-6.5199
 30
0.0
 10
-6.2614
 20
-6.5199
 30
0.0
 10
-6.2614
 20
-6.5199
 30
0.0
 10
-6.2614
 20
-6.5199
 30
0.0
 10
-7.2267
 20
-6.6043
 30
0.0
 10
-7.2267
 20
-6.6043
 30
0.0
  0
SPLINE
  5
7D
330
1F
100
AcDbEntity
  8
ROUND
 62
   250
100
AcDbSpline
210
0.0
220
0.0
230
1.0
 70
    11
 71
     3
 72
    20
 73
    16
 74
     0
 42
0.0000000001
 43
0.0000000001
 40
0.0
 40
0.0
 40
0.0
 40
0.0
 40
0.2
 40
0.2
 40
0.2
 40
0.2
 40
0.4
 40
0.4
 40
0.4
 40
0.4
 40
0.6
 40
0.6
 40
0.6
 40
0.6
 40
1.0
 40
1.0
 40
1.0
 40
1.0
 10
-7.5532
 20
7.2944
 30
0.0
 10
-7.5532
 20
7.2944
 30
0.0
 10
-7.7135
 20
4.2689
 30
0.0
 10
-7.7135
 20
4.2689
 30
0.0
 10
-7.7135
 20
4.2689
 30
0.0
 10
-7.7135
 20
4.2689
 30
0.0
 10
-7.8071
 20
4.2607
 30
0.0
 10
-7.8071
 20
4.2607
 30
0.0
 10
-7.8071
 20
4.2607
 30
0.0
 10
-7.8071
 20
4.2607
 30
0.0
 10
-8.5184
 20
7.2099
 30
0.0
 10
-8.5184
 20
7.2099
 30
0.0
 10
-8.5184
 20
7.2099
 30
0.0
 10
-8.5184
 20
7.2099
 30
0.0
 10
-7.5532
 20
7.2944
 30
0.0
 10
-7.5532
 20
7.2944
 30
0.0
  0
SPLINE
  5
7E
330
1F
100
AcDbEntity
  8
ROUND
  6
NEW_LINE5
 62
   250
100
AcDbSpline
210
0.0
220
0.0
230
1.0
 70
    24
 71
     3
 72
     8
 73
     4
 74
     0
 42
0.0000000001
 43
0.0000000001
 40
0.0
 40
0.0
 40
0.0
 40
0.0
 40
1.0
 40
1.0
 40
1.0
 40
1.0
 10
16.6123
 20
-0.1007
 30
0.0
 10
16.6123
 20
-0.1007
 30
0.0
 10
16.6123
 20
9.8285
 30
0.0
 10
16.6123
 20
9.8285
 30
0.0
  0
SPLINE
  5
80
330
1F
100
AcDbEntity
  8
ROUND
  6
NEW_LINE6
 62
   250
100
AcDbSpline
210
0.0
220
0.0
230
1.0
 70
    24
 71
     3
 72
     8
 73
     4
 74
     0
 42
0.0000000001
 43
0.0000000001
 40
0.0
 40
0.0
 40
0.0
 40
0.0
 40
1.0
 40
1.0
 40
1.0
 40
1.0
 10
24.9795
 20
-0.1007
 30
0.0
 10
24.9795
 20
-0.1007
 30
0.0
 10
24.9795
 20
9.7724
 30
0.0
 10
24.9795
 20
9.7724
 30
0.0
  0
SPLINE
  5
82
330
1F
100
AcDbEntity
  8
ROUND
 62
   250
100
AcDbSpline
210
0.0
220
0.0
230
1.0
 70
    11
 71
     3
 72
    20
 73
    16
 74
     0
 42
0.0000000001
 43
0.0000000001
 40
0.0
 40
0.0
 40
0.0
 40
0.0
 40
0.2
 40
0.2
 40
0.2
 40
0.2
 40
0.4
 40
0.4
 40
0.4
 40
0.4
 40
0.6
 40
0.6
 40
0.6
 40
0.6
 40
1.0
 40
1.0
 40
1.0
 40
1.0
 10
24.8467
 20
-2.2169
 30
0.0
 10
24.8467
 20
-2.2169
 30
0.0
 10
16.6646
 20
-2.2326
 30
0.0
 10
16.6646
 20
-2.2326
 30
0.0
 10
16.6646
 20
-2.2326
 30
0.0
 10
16.6646
 20
-2.2326
 30
0.0
 10
16.989
 20
-1.213
 30
0.0
 10
16.989
 20
-1.213
 30
0.0
 10
16.989
 20
-1.213
 30
0.0
 10
16.989
 20
-1.213
 30
0.0
 10
24.5178
 20
-1.2124
 30
0.0
 10
24.5178
 20
-1.2124
 30
0.0
 10
24.5178
 20
-1.2124
 30
0.0
 10
24.5178
 20
-1.2124
 30
0.0
 10
24.8467
 20
-2.2169
 30
0.0
 10
24.8467
 20
-2.2169
 30
0.0
  0
SPLINE
  5
83
330
1F
100
AcDbEntity
  8
ROUND
 62
   250
100
AcDbSpline
210
0.0
220
0.0
230
1.0
 70
     8
 71
     3
 72
    24
 73
    20
 74
     0
 42
0.0000000001
 43
0.0000000001
 40
0.0
 40
0.0
 40
0.0
 40
0.0
 40
0.1666666666666667
 40
0.1666666666666667
 40
0.1666666666666667
 40
0.1666666666666667
 40
0.3333333333333333
 40
0.3333333333333333
 40
0.3333333333333333
 40
0.3333333333333333
 40
0.5
 40
0.5
 40
0.5
 40
0.5
 40
0.6666666666666666
 40
0.6666666666666666
 40
0.6666666666666666
 40
0.6666666666666666
 40
1.0
 40
1.0
 40
1.0
 40
1.0
 10
-13.9857
 20
4.4826
 30
0.0
 10
-13.9857
 20
4.4826
 30
0.0
 10
-22.6642
 20
3.7315
 30
0.0
 10
-22.6642
 20
3.7315
 30
0.0
 10
-22.6642
 20
3.7315
 30
0.0
 10
-22.6642
 20
3.7315
 30
0.0
 10
-23.2753
 20
3.4933
 30
0.0
 10
-23.2753
 20
3.4933
 30
0.0
 10
-23.2753
 20
3.4933
 30
0.0
 10
-23.2753
 20
3.4933
 30
0.0
 10
-22.4934
 20
-5.4434
 30
0.0
 10
-22.4934
 20
-5.4434
 30
0.0
 10
-22.4934
 20
-5.4434
 30
0.0
 10
-22.4934
 20
-5.4434
 30
0.0
 10
-21.8358
 20
-5.5972
 30
0.0
 10
-21.8358
 20
-5.5972
 30
0.0
 10
-21.8358
 20
-5.5972
 30
0.0
 10
-21.8358
 20
-5.5972
 30
0.0
 10
-13.1573
 20
-4.7671
 30
0.0
 10
-13.1573
 20
-4.7671
 30
0.0
  0
SPLINE
  5
84
330
1F
100
AcDbEntity
  8
ROUND
 62
   250
100
AcDbSpline
210
0.0
220
0.0
230
1.0
 70
     8
 71
     3
 72
    52
 73
    48
 74
     0
 42
0.0000000001
 43
0.0000000001
 40
0.0
 40
0.0
 40
0.0
 40
0.0
 40
0.0769230769230769
 40
0.0769230769230769
 40
0.0769230769230769
 40
0.0769230769230769
 40
0.1538461538461539
 40
0.1538461538461539
 40
0.1538461538461539
 40
0.1538461538461539
 40
0.2307692307692308
 40
0.2307692307692308
 40
0.2307692307692308
 40
0.2307692307692308
 40
0.3076923076923077
 40
0.3076923076923077
 40
0.3076923076923077
 40
0.3076923076923077
 40
0.3846153846153846
 40
0.3846153846153846
 40
0.3846153846153846
 40
0.3846153846153846
 40
0.4615384615384616
 40
0.4615384615384616
 40
0.4615384615384616
 40
0.4615384615384616
 40
0.5384615384615384
 40
0.5384615384615384
 40
0.5384615384615384
 40
0.5384615384615384
 40
0.6153846153846154
 40
0.6153846153846154
 40
0.6153846153846154
 40
0.6153846153846154
 40
0.6923076923076923
 40
0.6923076923076923
 40
0.6923076923076923
 40
0.6923076923076923
 40
0.7692307692307693
 40
0.7692307692307693
 40
0.7692307692307693
 40
0.7692307692307693
 40
0.8461538461538461
 40
0.8461538461538461
 40
0.8461538461538461
 40
0.8461538461538461
 40
1.0
 40
1.0
 40
1.0
 40
1.0
 10
-13.3065
 20
3.7344
 30
0.0
 10
-13.3065
 20
3.7344
 30
0.0
 10
3.7359
 20
5.0756
 30
0.0
 10
3.7359
 20
5.0756
 30
0.0
 10
3.7359
 20
5.0756
 30
0.0
 10
3.7359
 20
5.0756
 30
0.0
 10
4.4382
 20
5.0799
 30
0.0
 10
4.4382
 20
5.0799
 30
0.0
 10
4.4382
 20
5.0799
 30
0.0
 10
4.4382
 20
5.0799
 30
0.0
 10
5.0315
 20
4.9638
 30
0.0
 10
5.0315
 20
4.9638
 30
0.0
 10
5.0315
 20
4.9638
 30
0.0
 10
5.0315
 20
4.9638
 30
0.0
 10
5.5008
 20
4.7334
 30
0.0
 10
5.5008
 20
4.7334
 30
0.0
 10
5.5008
 20
4.7334
 30
0.0
 10
5.5008
 20
4.7334
 30
0.0
 10
5.8706
 20
4.5579
 30
0.0
 10
5.8706
 20
4.5579
 30
0.0
 10
5.8706
 20
4.5579
 30
0.0
 10
5.8706
 20
4.5579
 30
0.0
 10
6.3043
 20
4.2702
 30
0.0
 10
6.3043
 20
4.2702
 30
0.0
 10
6.3043
 20
4.2702
 30
0.0
 10
6.3043
 20
4.2702
 30
0.0
 10
6.7251
 20
3.9018
 30
0.0
 10
6.7251
 20
3.9018
 30
0.0
 10
6.7251
 20
3.9018
 30
0.0
 10
6.7251
 20
3.9018
 30
0.0
 10
7.1871
 20
3.3936
 30
0.0
 10
7.1871
 20
3.3936
 30
0.0
 10
7.1871
 20
3.3936
 30
0.0
 10
7.1871
 20
3.3936
 30
0.0
 10
7.5105
 20
2.8161
 30
0.0
 10
7.5105
 20
2.8161
 30
0.0
 10
7.5105
 20
2.8161
 30
0.0
 10
7.5105
 20
2.8161
 30
0.0
 10
7.6722
 20
2.2155
 30
0.0
 10
7.6722
 20
2.2155
 30
0.0
 10
7.6722
 20
2.2155
 30
0.0
 10
7.6722
 20
2.2155
 30
0.0
 10
7.7646
 20
1.5918
 30
0.0
 10
7.7646
 20
1.5918
 30
0.0
 10
7.7646
 20
1.5918
 30
0.0
 10
7.7646
 20
1.5918
 30
0.0
 10
7.7877
 20
-2.1273
 30
0.0
 10
7.7877
 20
-2.1273
 30
0.0
  0
SPLINE
  5
85
330
1F
100
AcDbEntity
  8
ROUND
 62
   250
100
AcDbSpline
210
0.0
220
0.0
230
1.0
 70
     8
 71
     3
 72
    20
 73
    16
 74
     0
 42
0.0000000001
 43
0.0000000001
 40
0.0
 40
0.0
 40
0.0
 40
0.0
 40
0.2
 40
0.2
 40
0.2
 40
0.2
 40
0.4
 40
0.4
 40
0.4
 40
0.4
 40
0.6
 40
0.6
 40
0.6
 40
0.6
 40
1.0
 40
1.0
 40
1.0
 40
1.0
 10
-12.6343
 20
-3.9497
 30
0.0
 10
-12.6343
 20
-3.9497
 30
0.0
 10
-3.0895
 20
-3.0307
 30
0.0
 10
-3.0895
 20
-3.0307
 30
0.0
 10
-3.0895
 20
-3.0307
 30
0.0
 10
-3.0895
 20
-3.0307
 30
0.0
 10
-0.8644
 20
-0.3775
 30
0.0
 10
-0.8644
 20
-0.3775
 30
0.0
 10
-0.8644
 20
-0.3775
 30
0.0
 10
-0.8644
 20
-0.3775
 30
0.0
 10
-0.3851
 20
-0.1907
 30
0.0
 10
-0.3851
 20
-0.1907
 30
0.0
 10
-0.3851
 20
-0.1907
 30
0.0
 10
-0.3851
 20
-0.1907
 30
0.0
 10
2.9167
 20
0.0494
 30
0.0
 10
2.9167
 20
0.0494
 30
0.0
  0
SPLINE
  5
86
330
1F
100
AcDbEntity
  8
ROUND
 62
   250
100
AcDbSpline
210
0.0
220
0.0
230
1.0
 70
    11
 71
     3
 72
    28
 73
    24
 74
     0
 42
0.0000000001
 43
0.0000000001
 40
0.0
 40
0.0
 40
0.0
 40
0.0
 40
0.1428571428571428
 40
0.1428571428571428
 40
0.1428571428571428
 40
0.1428571428571428
 40
0.2857142857142857
 40
0.2857142857142857
 40
0.2857142857142857
 40
0.2857142857142857
 40
0.4285714285714285
 40
0.4285714285714285
 40
0.4285714285714285
 40
0.4285714285714285
 40
0.5714285714285714
 40
0.5714285714285714
 40
0.5714285714285714
 40
0.5714285714285714
 40
0.7142857142857143
 40
0.7142857142857143
 40
0.7142857142857143
 40
0.7142857142857143
 40
1.0
 40
1.0
 40
1.0
 40
1.0
 10
-13.9533
 20
4.8306
 30
0.0
 10
-13.9533
 20
4.8306
 30
0.0
 10
-13.7346
 20
4.8306
 30
0.0
 10
-13.7346
 20
4.8306
 30
0.0
 10
-13.7346
 20
4.8306
 30
0.0
 10
-13.7346
 20
4.8306
 30
0.0
 10
-13.2654
 20
3.6882
 30
0.0
 10
-13.2654
 20
3.6882
 30
0.0
 10
-13.2654
 20
3.6882
 30
0.0
 10
-13.2654
 20
3.6882
 30
0.0
 10
-12.6126
 20
-3.9618
 30
0.0
 10
-12.6126
 20
-3.9618
 30
0.0
 10
-12.6126
 20
-3.9618
 30
0.0
 10
-12.6126
 20
-3.9618
 30
0.0
 10
-12.8166
 20
-5.1246
 30
0.0
 10
-12.8166
 20
-5.1246
 30
0.0
 10
-12.8166
 20
-5.1246
 30
0.0
 10
-12.8166
 20
-5.1246
 30
0.0
 10
-13.0808
 20
-5.1416
 30
0.0
 10
-13.0808
 20
-5.1416
 30
0.0
 10
-13.0808
 20
-5.1416
 30
0.0
 10
-13.0808
 20
-5.1416
 30
0.0
 10
-13.9533
 20
4.8306
 30
0.0
 10
-13.9533
 20
4.8306
 30
0.0
  0
SPLINE
  5
87
330
1F
100
AcDbEntity
  8
ROUND
 62
   250
100
AcDbSpline
210
0.0
220
0.0
230
1.0
 70
    27
 71
     3
 72
    12
 73
     8
 74
     0
 42
0.0000000001
 43
0.0000000001
 40
0.0
 40
0.0
 40
0.0
 40
0.0
 40
0.3333333333333333
 40
0.3333333333333333
 40
0.3333333333333333
 40
0.3333333333333333
 40
1.0
 40
1.0
 40
1.0
 40
1.0
 10
-21.9262
 20
-5.5433
 30
0.0
 10
-21.9262
 20
-5.5433
 30
0.0
 10
-22.7342
 20
3.6901
 30
0.0
 10
-22.7342
 20
3.6901
 30
0.0
 10
-22.7342
 20
3.6901
 30
0.0
 10
-22.7342
 20
3.6901
 30
0.0
 10
-21.9262
 20
-5.5433
 30
0.0
 10
-21.9262
 20
-5.5433
 30
0.0
  0
SPLINE
  5
88
330
1F
100
AcDbEntity
  8
ROUND
 62
   250
100
AcDbSpline
210
0.0
220
0.0
230
1.0
 70
    27
 71
     3
 72
    16
 73
    12
 74
     0
 42
0.0000000001
 43
0.0000000001
 40
0.0
 40
0.0
 40
0.0
 40
0.0
 40
0.25
 40
0.25
 40
0.25
 40
0.25
 40
0.5
 40
0.5
 40
0.5
 40
0.5
 40
1.0
 40
1.0
 40
1.0
 40
1.0
 10
0.3516
 20
-2.2325
 30
0.0
 10
0.3516
 20
-2.2325
 30
0.0
 10
0.3516
 20
-0.6145
 30
0.0
 10
0.3516
 20
-0.6145
 30
0.0
 10
0.3516
 20
-0.6145
 30
0.0
 10
0.3516
 20
-0.6145
 30
0.0
 10
0.3516
 20
-0.1426
 30
0.0
 10
0.3516
 20
-0.1426
 30
0.0
 10
0.3516
 20
-0.1426
 30
0.0
 10
0.3516
 20
-0.1426
 30
0.0
 10
0.3516
 20
-2.2325
 30
0.0
 10
0.3516
 20
-2.2325
 30
0.0
  0
SPLINE
  5
89
330
1F
100
AcDbEntity
  8
ROUND
  6
NEW_LINE7
 62
   250
100
AcDbSpline
210
0.0
220
0.0
230
1.0
 70
    24
 71
     3
 72
     8
 73
     4
 74
     0
 42
0.0000000001
 43
0.0000000001
 40
0.0
 40
0.0
 40
0.0
 40
0.0
 40
1.0
 40
1.0
 40
1.0
 40
1.0
 10
-23.2536
 20
-1.0073
 30
0.0
 10
-23.2536
 20
-1.0073
 30
0.0
 10
8.459
 20
1.7672
 30
0.0
 10
8.459
 20
1.7672
 30
0.0
  0
SPLINE
  5
8B
330
1F
100
AcDbEntity
  8
ROUND
  6
NEW_LINE8
 62
   250
100
AcDbSpline
210
0.0
220
0.0
230
1.0
 70
    24
 71
     3
 72
     8
 73
     4
 74
     0
 42
0.0000000001
 43
0.0000000001
 40
0.0
 40
0.0
 40
0.0
 40
0.0
 40
1.0
 40
1.0
 40
1.0
 40
1.0
 10
4.0593
 20
-10.4334
 30
0.0
 10
4.0593
 20
-10.4334
 30
0.0
 10
4.0593
 20
1.9086
 30
0.0
 10
4.0593
 20
1.9086
 30
0.0
  0
SPLINE
  5
8D
330
1F
100
AcDbEntity
  8
ROUND
  6
NEW_LINE9
 62
   250
100
AcDbSpline
210
0.0
220
0.0
230
1.0
 70
    24
 71
     3
 72
     8
 73
     4
 74
     0
 42
0.0000000001
 43
0.0000000001
 40
0.0
 40
0.0
 40
0.0
 40
0.0
 40
1.0
 40
1.0
 40
1.0
 40
1.0
 10
20.7432
 20
-10.5302
 30
0.0
 10
20.7432
 20
-10.5302
 30
0.0
 10
20.7432
 20
0.5053
 30
0.0
 10
20.7432
 20
0.5053
 30
0.0
  0
ENDSEC
  0
SECTION
  2
OBJECTS
  0
DICTIONARY
  5
C
330
0
100
AcDbDictionary
  3
ACAD_GROUP
350
D
  3
ACAD_LAYOUT
350
1A
  3
ACAD_MATERIAL
350
3B
  3
ACAD_MLEADERSTYLE
350
B1
  3
ACAD_MLINESTYLE
350
17
  3
ACAD_PLOTSETTINGS
350
19
  3
ACAD_VISUALSTYLE
350
2A
  3
ACDBHEADERROUNDTRIPXREC
350
8F
  3
ACDBVARIABLEDICTIONARY
350
AF
  0
DICTIONARY
  5
D
102
{ACAD_REACTORS
330
C
102
}
330
C
100
AcDbDictionary
  0
DICTIONARY
  5
1A
102
{ACAD_REACTORS
330
C
102
}
330
C
100
AcDbDictionary
  0
DICTIONARY
  5
3B
102
{ACAD_REACTORS
330
C
102
}
330
C
100
AcDbDictionary
  3
BYBLOCK
350
3D
  3
BYLAYER
350
3C
  3
GLOBAL
350
3E
  0
DICTIONARY
  5
B1
102
{ACAD_REACTORS
330
C
102
}
330
C
100
AcDbDictionary
  0
DICTIONARY
  5
17
102
{ACAD_REACTORS
330
C
102
}
330
C
100
AcDbDictionary
  3
STANDARD
350
18
  0
DICTIONARY
  5
19
102
{ACAD_REACTORS
330
C
102
}
330
C
100
AcDbDictionary
  0
DICTIONARY
  5
2A
102
{ACAD_REACTORS
330
C
102
}
330
C
100
AcDbDictionary
  3
2DWIREFRAME
350
2F
  3
3D_HIDDEN
350
31
  3
3DWIREFRAME
350
30
  3
BASIC
350
32
  3
BRIGHTEN
350
36
  3
COLORCHANGE
350
3A
  3
CONCEPTUAL
350
34
  3
DIM
350
35
  3
FACEPATTERN
350
39
  3
FLAT
350
2B
  3
FLATWITHEDGES
350
2C
  3
GOURAUD
350
2D
  3
GOURAUDWITHEDGES
350
2E
  3
LINEPATTERN
350
38
  3
REALISTIC
350
33
  3
THICKEN
350
37
  0
DICTIONARY
  5
8F
102
{ACAD_REACTORS
330
C
102
}
330
C
100
AcDbDictionary
  3
CEPSNTYPE
350
98
  3
DIMSTYLEDATA
350
AE
  3
FINGERPRINTGUID
350
99
  3
HYPERLINKBASE
350
92
  3
INSUNITS
350
97
  3
LAYOUTDICT
350
94
  3
LWETCUNION
350
96
  3
PLOTSETDICT
350
95
  3
PSVPSCALE
350
9B
  3
PUCSBASE
350
9E
  3
PUCSORGBACK
350
A4
  3
PUCSORGBOTTOM
350
A0
  3
PUCSORGFRONT
350
A3
  3
PUCSORGLEFT
350
A1
  3
PUCSORGRIGHT
350
A2
  3
PUCSORGTOP
350
9F
  3
PUCSORTHOREF
350
9C
  3
PUCSORTHOVIEW
350
9D
  3
STYLESHEET
350
93
  3
TSTACKALIGN
350
90
  3
TSTACKSIZE
350
91
  3
UCSBASE
350
A7
  3
UCSORGBACK
350
AD
  3
UCSORGBOTTOM
350
A9
  3
UCSORGFRONT
350
AC
  3
UCSORGLEFT
350
AA
  3
UCSORGRIGHT
350
AB
  3
UCSORGTOP
350
A8
  3
UCSORTHOREF
350
A5
  3
UCSORTHOVIEW
350
A6
  3
VERSIONGUID
350
9A
  0
DICTIONARY
  5
AF
102
{ACAD_REACTORS
330
C
102
}
330
C
100
AcDbDictionary
  3
DIMASSOC
350
B2
  3
HIDETEXT
350
B3
  0
MATERIAL
  5
3D
102
{ACAD_REACTORS
330
3B
102
}
102
{ACAD_XDICTIONARY
360
B6
102
}
330
3B
100
AcDbMaterial
  1
ByBlock
  0
MATERIAL
  5
3C
102
{ACAD_REACTORS
330
3B
102
}
102
{ACAD_XDICTIONARY
360
B4
102
}
330
3B
100
AcDbMaterial
  1
ByLayer
  0
MATERIAL
  5
3E
102
{ACAD_REACTORS
330
3B
102
}
102
{ACAD_XDICTIONARY
360
B8
102
}
330
3B
100
AcDbMaterial
  1
Global
  0
MLINESTYLE
  5
18
102
{ACAD_REACTORS
330
17
102
}
330
17
100
AcDbMlineStyle
  2
Standard
 70
     0
  3

 62
   256
 51
90.0
 52
90.0
 71
     2
 49
0.5
 62
   256
  6
BYLAYER
 49
-0.5
 62
   256
  6
BYLAYER
  0
ACAD_PROXY_OBJECT
  5
2F
102
{ACAD_REACTORS
330
2A
102
}
330
2A
100
AcDbProxyObject
 90
      499
 91
      501
 93
      436
310
42CC9915DA5C99599C985B595049028333333333333E3BF0000000000000FB0107901411070040501600405405064090741402480A0340
1001
ACAD
1000
AcDbSavedByObjectVersion
1070
     0
  0
ACAD_PROXY_OBJECT
  5
31
102
{ACAD_REACTORS
330
2A
102
}
330
2A
100
AcDbProxyObject
 90
      499
 91
      501
 93
      500
310
424CD108121A5919195B90640502408333333333333E3BF0000000000000FB01079024090700405020000000000001110200405405064090740C02480A0340
1001
ACAD
1000
AcDbSavedByObjectVersion
1070
     0
  0
ACAD_PROXY_OBJECT
  5
30
102
{ACAD_REACTORS
330
2A
102
}
330
2A
100
AcDbProxyObject
 90
      499
 91
      501
 93
      436
310
42CCD915DA5C99599C985B595059028333333333333E3BF0000000000000FB0107901411070040501600405405064090741402480A0340
1001
ACAD
1000
AcDbSavedByObjectVersion
1070
     0
  0
ACAD_PROXY_OBJECT
  5
32
102
{ACAD_REACTORS
330
2A
102
}
330
2A
100
AcDbProxyObject
 90
      499
 91
      501
 93
      388
310
4150985CDA58D07406404333333333333E3BF0000000000000FB0107A41107004050150841D405064090741402480A0350
1001
ACAD
1000
AcDbSavedByObjectVersion
1070
     0
  0
ACAD_PROXY_OBJECT
  5
36
102
{ACAD_REACTORS
330
2A
102
}
330
2A
100
AcDbProxyObject
 90
      499
 91
      501
 93
      428
310
42109C9A59DA1D195B90C409028333333333333E3BF0000000000000FB010790141107004050150841D405064090741402480A029950
1001
ACAD
1000
AcDbSavedByObjectVersion
1070
     0
  0
ACAD_PROXY_OBJECT
  5
3A
102
{ACAD_REACTORS
330
2A
102
}
330
2A
100
AcDbProxyObject
 90
      499
 91
      501
 93
      452
310
42D0DBDB1BDC90DA185B99D95104090240C333333333333E3BF0000000000000FB0108901411070040501508421405064090741402480A0350
1001
ACAD
1000
AcDbSavedByObjectVersion
1070
     0
  0
ACAD_PROXY_OBJECT
  5
34
102
{ACAD_REACTORS
330
2A
102
}
330
2A
100
AcDbProxyObject
 90
      499
 91
      501
 93
      500
310
4290DBDB98D95C1D1D585B10940D028333333333333E3BF0000000000000FB0107902409070040501000000000000111010841D405064090740C02480A0340
1001
ACAD
1000
AcDbSavedByObjectVersion
1070
     0
  0
ACAD_PROXY_OBJECT
  5
35
102
{ACAD_REACTORS
330
2A
102
}
330
2A
100
AcDbProxyObject
 90
      499
 91
      501
 93
      412
310
40D11A5B50B409028333333333333E3BF0000000000000FB010790141107004050150841D405064090741402480A02677FFFFFD0
1001
ACAD
1000
AcDbSavedByObjectVersion
1070
     0
  0
ACAD_PROXY_OBJECT
  5
39
102
{ACAD_REACTORS
330
2A
102
}
330
2A
100
AcDbProxyObject
 90
      499
 91
      501
 93
      444
310
42D19858D95C185D1D195C9B90F409028333333333333E3BF0000000000000FB010790141107004050150841D405064090741402480A0350
1001
ACAD
1000
AcDbSavedByObjectVersion
1070
     0
  0
ACAD_PROXY_OBJECT
  5
2B
102
{ACAD_REACTORS
330
2A
102
}
330
2A
100
AcDbProxyObject
 90
      499
 91
      501
 93
      388
310
41119B185D240901404333333333333E3BF0000000000000F9010740A41107004050150841D405064090741402480A1B50
1001
ACAD
1000
AcDbSavedByObjectVersion
1070
     0
  0
ACAD_PROXY_OBJECT
  5
2C
102
{ACAD_REACTORS
330
2A
102
}
330
2A
100
AcDbProxyObject
 90
      499
 91
      501
 93
      476
310
43519B185D15DA5D1A115919D95CD0140901404333333333333E3BF0000000000000F9010740901411070040501600405405064090741402480A1B50
1001
ACAD
1000
AcDbSavedByObjectVersion
1070
     0
  0
ACAD_PROXY_OBJECT
  5
2D
102
{ACAD_REACTORS
330
2A
102
}
330
2A
100
AcDbProxyObject
 90
      499
 91
      501
 93
      412
310
41D1DBDD5C985D5910240902404333333333333E3BF0000000000000F9010740A411070040501641D405064090741402480A1B50
1001
ACAD
1000
AcDbSavedByObjectVersion
1070
     0
  0
ACAD_PROXY_OBJECT
  5
2E
102
{ACAD_REACTORS
330
2A
102
}
330
2A
100
AcDbProxyObject
 90
      499
 91
      501
 93
      500
310
4411DBDD5C985D5915DA5D1A115919D95CD0340902404333333333333E3BF0000000000000F9010740901411070040501600405405064090741402480A1B50
1001
ACAD
1000
AcDbSavedByObjectVersion
1070
     0
  0
ACAD_PROXY_OBJECT
  5
38
102
{ACAD_REACTORS
330
2A
102
}
330
2A
100
AcDbProxyObject
 90
      499
 91
      501
 93
      444
310
42D31A5B995C185D1D195C9B90E409028333333333333E3BF0000000000000FB010790141107004050750841D405064090741402483A0350
1001
ACAD
1000
AcDbSavedByObjectVersion
1070
     0
  0
ACAD_PROXY_OBJECT
  5
33
102
{ACAD_REACTORS
330
2A
102
}
330
2A
100
AcDbProxyObject
 90
      499
 91
      501
 93
      420
310
425499585B1A5CDD1A58D08409028333333333333E3BF0000000000000FB01079019070040501508421405064090741402480A1B40
1001
ACAD
1000
AcDbSavedByObjectVersion
1070
     0
  0
ACAD_PROXY_OBJECT
  5
37
102
{ACAD_REACTORS
330
2A
102
}
330
2A
100
AcDbProxyObject
 90
      499
 91
      501
 93
      412
310
41D51A1A58DAD95B90D409028333333333333E3BF0000000000000FB010790141107004050150C41D405064090741402480A0350
1001
ACAD
1000
AcDbSavedByObjectVersion
1070
     0
  0
XRECORD
  5
98
102
{ACAD_REACTORS
330
8F
102
}
330
8F
100
AcDbXrecord
 90
        0
  0
XRECORD
  5
AE
102
{ACAD_REACTORS
330
8F
102
}
330
8F
100
AcDbXrecord
1000
DSTYLE
1002
{
1070
   340
340
11
1002
}
  0
XRECORD
  5
99
102
{ACAD_REACTORS
330
8F
102
}
330
8F
100
AcDbXrecord
  1
{C3BD59CF-BDCC-41AC-85B1-657188C93158}
  0
XRECORD
  5
92
102
{ACAD_REACTORS
330
8F
102
}
330
8F
100
AcDbXrecord
  1

  0
XRECORD
  5
97
102
{ACAD_REACTORS
330
8F
102
}
330
8F
100
AcDbXrecord
 90
        4
  0
XRECORD
  5
94
102
{ACAD_REACTORS
330
8F
102
}
330
8F
100
AcDbXrecord
340
1A
  0
XRECORD
  5
96
102
{ACAD_REACTORS
330
8F
102
}
330
8F
100
AcDbXrecord
 90
    10781
  0
XRECORD
  5
95
102
{ACAD_REACTORS
330
8F
102
}
330
8F
100
AcDbXrecord
340
19
  0
XRECORD
  5
9B
102
{ACAD_REACTORS
330
8F
102
}
330
8F
100
AcDbXrecord
 40
0.0
  0
XRECORD
  5
9E
102
{ACAD_REACTORS
330
8F
102
}
330
8F
100
AcDbXrecord
340
0
  0
XRECORD
  5
A4
102
{ACAD_REACTORS
330
8F
102
}
330
8F
100
AcDbXrecord
 10
0.0
 20
0.0
 30
0.0
  0
XRECORD
  5
A0
102
{ACAD_REACTORS
330
8F
102
}
330
8F
100
AcDbXrecord
 10
0.0
 20
0.0
 30
0.0
  0
XRECORD
  5
A3
102
{ACAD_REACTORS
330
8F
102
}
330
8F
100
AcDbXrecord
 10
0.0
 20
0.0
 30
0.0
  0
XRECORD
  5
A1
102
{ACAD_REACTORS
330
8F
102
}
330
8F
100
AcDbXrecord
 10
0.0
 20
0.0
 30
0.0
  0
XRECORD
  5
A2
102
{ACAD_REACTORS
330
8F
102
}
330
8F
100
AcDbXrecord
 10
0.0
 20
0.0
 30
0.0
  0
XRECORD
  5
9F
102
{ACAD_REACTORS
330
8F
102
}
330
8F
100
AcDbXrecord
 10
0.0
 20
0.0
 30
0.0
  0
XRECORD
  5
9C
102
{ACAD_REACTORS
330
8F
102
}
330
8F
100
AcDbXrecord
340
0
  0
XRECORD
  5
9D
102
{ACAD_REACTORS
330
8F
102
}
330
8F
100
AcDbXrecord
 70
     0
  0
XRECORD
  5
93
102
{ACAD_REACTORS
330
8F
102
}
330
8F
100
AcDbXrecord
  1

  0
XRECORD
  5
90
102
{ACAD_REACTORS
330
8F
102
}
330
8F
100
AcDbXrecord
 90
        1
  0
XRECORD
  5
91
102
{ACAD_REACTORS
330
8F
102
}
330
8F
100
AcDbXrecord
 90
       70
  0
XRECORD
  5
A7
102
{ACAD_REACTORS
330
8F
102
}
330
8F
100
AcDbXrecord
340
0
  0
XRECORD
  5
AD
102
{ACAD_REACTORS
330
8F
102
}
330
8F
100
AcDbXrecord
 10
0.0
 20
0.0
 30
0.0
  0
XRECORD
  5
A9
102
{ACAD_REACTORS
330
8F
102
}
330
8F
100
AcDbXrecord
 10
0.0
 20
0.0
 30
0.0
  0
XRECORD
  5
AC
102
{ACAD_REACTORS
330
8F
102
}
330
8F
100
AcDbXrecord
 10
0.0
 20
0.0
 30
0.0
  0
XRECORD
  5
AA
102
{ACAD_REACTORS
330
8F
102
}
330
8F
100
AcDbXrecord
 10
0.0
 20
0.0
 30
0.0
  0
XRECORD
  5
AB
102
{ACAD_REACTORS
330
8F
102
}
330
8F
100
AcDbXrecord
 10
0.0
 20
0.0
 30
0.0
  0
XRECORD
  5
A8
102
{ACAD_REACTORS
330
8F
102
}
330
8F
100
AcDbXrecord
 10
0.0
 20
0.0
 30
0.0
  0
XRECORD
  5
A5
102
{ACAD_REACTORS
330
8F
102
}
330
8F
100
AcDbXrecord
340
0
  0
XRECORD
  5
A6
102
{ACAD_REACTORS
330
8F
102
}
330
8F
100
AcDbXrecord
 70
     0
  0
XRECORD
  5
9A
102
{ACAD_REACTORS
330
8F
102
}
330
8F
100
AcDbXrecord
  1
{FAEB1C32-E019-11D5-929B-00C0DF256EC4}
  0
DICTIONARYVAR
  5
B2
102
{ACAD_REACTORS
330
AF
102
}
330
AF
100
DictionaryVariables
280
     0
  1
2
  0
DICTIONARYVAR
  5
B3
102
{ACAD_REACTORS
330
AF
102
}
330
AF
100
DictionaryVariables
280
     0
  1
1
  0
DICTIONARY
  5
B6
330
3D
100
AcDbDictionary
280
     1
  3
ACAD_XREC_ROUNDTRIP
360
B7
  0
DICTIONARY
  5
B4
330
3C
100
AcDbDictionary
280
     1
  3
ACAD_XREC_ROUNDTRIP
360
B5
  0
DICTIONARY
  5
B8
330
3E
100
AcDbDictionary
280
     1
  3
ACAD_XREC_ROUNDTRIP
360
B9
  0
XRECORD
  5
B7
102
{ACAD_REACTORS
330
B6
102
}
330
B6
100
AcDbXrecord
102
MATERIAL
148
0.0
149
0.0
149
0.0
 93
        0
 94
      127
282
     0
 72
     1
 77
     1
171
     1
175
     1
179
     1
273
     0
  0
XRECORD
  5
B5
102
{ACAD_REACTORS
330
B4
102
}
330
B4
100
AcDbXrecord
102
MATERIAL
148
0.0
149
0.0
149
0.0
 93
        0
 94
      127
282
     0
 72
     1
 77
     1
171
     1
175
     1
179
     1
273
     0
  0
XRECORD
  5
B9
102
{ACAD_REACTORS
330
B8
102
}
330
B8
100
AcDbXrecord
102
MATERIAL
148
0.0
149
0.0
149
0.0
 93
        0
 94
      127
282
     0
 72
     1
 77
     1
171
     1
175
     1
179
     1
273
     0
  0
ENDSEC
  0
EOF
